  0
SECTION
  2
HEADER
  9
$ACADVER
  1
AC1015
  9
$ACADMAINTVER
 70
     6
  9
$DWGCODEPAGE
  3
ANSI_932
  9
$INSBASE
 10
0.0
 20
0.0
 30
0.0
  9
$EXTMIN
 10
57.72210859759373
 20
-15.89999999999998
 30
0.0
  9
$EXTMAX
 10
216.1
 20
285.4400556747397
 30
0.0
  9
$LIMMIN
 10
57.72210859759373
 20
-15.89999999999998
  9
$LIMMAX
 10
216.1
 20
285.4400556747397
  9
$ORTHOMODE
 70
     0
  9
$REGENMODE
 70
     1
  9
$FILLMODE
 70
     1
  9
$QTEXTMODE
 70
     0
  9
$MIRRTEXT
 70
     1
  9
$LTSCALE
 40
0.1740021318856765
  9
$ATTMODE
 70
     1
  9
$TEXTSIZE
 40
2.5
  9
$TRACEWID
 40
1.0
  9
$TEXTSTYLE
  7
Standard
  9
$CLAYER
  8
0
  9
$CELTYPE
  6
ByLayer
  9
$CECOLOR
 62
   256
  9
$CELTSCALE
 40
1.0
  9
$DISPSILH
 70
     0
  9
$DIMSCALE
 40
1.0
  9
$DIMASZ
 40
2.5
  9
$DIMEXO
 40
0.625
  9
$DIMDLI
 40
3.75
  9
$DIMRND
 40
0.0
  9
$DIMDLE
 40
0.0
  9
$DIMEXE
 40
1.25
  9
$DIMTP
 40
0.0
  9
$DIMTM
 40
0.0
  9
$DIMTXT
 40
2.5
  9
$DIMCEN
 40
2.5
  9
$DIMTSZ
 40
0.0
  9
$DIMTOL
 70
     0
  9
$DIMLIM
 70
     0
  9
$DIMTIH
 70
     0
  9
$DIMTOH
 70
     0
  9
$DIMSE1
 70
     0
  9
$DIMSE2
 70
     0
  9
$DIMTAD
 70
     1
  9
$DIMZIN
 70
     0
  9
$DIMBLK
  1

  9
$DIMASO
 70
     1
  9
$DIMSHO
 70
     1
  9
$DIMPOST
  1

  9
$DIMAPOST
  1

  9
$DIMALT
 70
     0
  9
$DIMALTD
 70
     3
  9
$DIMALTF
 40
0.03937007874016
  9
$DIMLFAC
 40
1.0
  9
$DIMTOFL
 70
     1
  9
$DIMTVP
 40
0.0
  9
$DIMTIX
 70
     0
  9
$DIMSOXD
 70
     0
  9
$DIMSAH
 70
     0
  9
$DIMBLK1
  1

  9
$DIMBLK2
  1

  9
$DIMSTYLE
  2
Standard
  9
$DIMCLRD
 70
     0
  9
$DIMCLRE
 70
     0
  9
$DIMCLRT
 70
     0
  9
$DIMTFAC
 40
0.75
  9
$DIMGAP
 40
0.625
  9
$DIMJUST
 70
     0
  9
$DIMSD1
 70
     0
  9
$DIMSD2
 70
     0
  9
$DIMTOLJ
 70
     0
  9
$DIMTZIN
 70
     8
  9
$DIMALTZ
 70
     0
  9
$DIMALTTZ
 70
     0
  9
$DIMUPT
 70
     0
  9
$DIMDEC
 70
     2
  9
$DIMTDEC
 70
     2
  9
$DIMALTU
 70
     2
  9
$DIMALTTD
 70
     3
  9
$DIMTXSTY
  7
Standard
  9
$DIMAUNIT
 70
     0
  9
$DIMADEC
 70
     0
  9
$DIMALTRND
 40
0.0
  9
$DIMAZIN
 70
     0
  9
$DIMDSEP
 70
    46
  9
$DIMATFIT
 70
     3
  9
$DIMFRAC
 70
     0
  9
$DIMLDRBLK
  1

  9
$DIMLUNIT
 70
     2
  9
$DIMLWD
 70
    -2
  9
$DIMLWE
 70
    -2
  9
$DIMTMOVE
 70
     0
  9
$LUNITS
 70
     2
  9
$LUPREC
 70
     4
  9
$SKETCHINC
 40
1.0
  9
$FILLETRAD
 40
10.0
  9
$AUNITS
 70
     0
  9
$AUPREC
 70
     0
  9
$MENU
  1
.
  9
$ELEVATION
 40
0.0
  9
$PELEVATION
 40
0.0
  9
$THICKNESS
 40
0.0
  9
$LIMCHECK
 70
     0
  9
$CHAMFERA
 40
10.0
  9
$CHAMFERB
 40
10.0
  9
$CHAMFERC
 40
20.0
  9
$CHAMFERD
 40
0.0
  9
$SKPOLY
 70
     0
  9
$TDCREATE
 40
2458383.704504109
  9
$TDUCREATE
 40
2458383.329504109
  9
$TDUPDATE
 40
2458383.704504734
  9
$TDUUPDATE
 40
2458383.329504734
  9
$TDINDWG
 40
0.0000000116
  9
$TDUSRTIMER
 40
0.0000000116
  9
$USRTIMER
 70
     1
  9
$ANGBASE
 50
0.0
  9
$ANGDIR
 70
     0
  9
$PDMODE
 70
     0
  9
$PDSIZE
 40
0.0
  9
$PLINEWID
 40
0.0
  9
$SPLFRAME
 70
     0
  9
$SPLINETYPE
 70
     6
  9
$SPLINESEGS
 70
     8
  9
$HANDSEED
  5
2F7
  9
$SURFTAB1
 70
     6
  9
$SURFTAB2
 70
     6
  9
$SURFTYPE
 70
     6
  9
$SURFU
 70
     6
  9
$SURFV
 70
     6
  9
$UCSBASE
  2

  9
$UCSNAME
  2

  9
$UCSORG
 10
0.0
 20
0.0
 30
0.0
  9
$UCSXDIR
 10
1.0
 20
0.0
 30
0.0
  9
$UCSYDIR
 10
0.0
 20
1.0
 30
0.0
  9
$UCSORTHOREF
  2

  9
$UCSORTHOVIEW
 70
     0
  9
$UCSORGTOP
 10
0.0
 20
0.0
 30
0.0
  9
$UCSORGBOTTOM
 10
0.0
 20
0.0
 30
0.0
  9
$UCSORGLEFT
 10
0.0
 20
0.0
 30
0.0
  9
$UCSORGRIGHT
 10
0.0
 20
0.0
 30
0.0
  9
$UCSORGFRONT
 10
0.0
 20
0.0
 30
0.0
  9
$UCSORGBACK
 10
0.0
 20
0.0
 30
0.0
  9
$PUCSBASE
  2

  9
$PUCSNAME
  2

  9
$PUCSORG
 10
0.0
 20
0.0
 30
0.0
  9
$PUCSXDIR
 10
1.0
 20
0.0
 30
0.0
  9
$PUCSYDIR
 10
0.0
 20
1.0
 30
0.0
  9
$PUCSORTHOREF
  2

  9
$PUCSORTHOVIEW
 70
     0
  9
$PUCSORGTOP
 10
0.0
 20
0.0
 30
0.0
  9
$PUCSORGBOTTOM
 10
0.0
 20
0.0
 30
0.0
  9
$PUCSORGLEFT
 10
0.0
 20
0.0
 30
0.0
  9
$PUCSORGRIGHT
 10
0.0
 20
0.0
 30
0.0
  9
$PUCSORGFRONT
 10
0.0
 20
0.0
 30
0.0
  9
$PUCSORGBACK
 10
0.0
 20
0.0
 30
0.0
  9
$USERI1
 70
     0
  9
$USERI2
 70
     0
  9
$USERI3
 70
     0
  9
$USERI4
 70
     0
  9
$USERI5
 70
     0
  9
$USERR1
 40
0.0
  9
$USERR2
 40
0.0
  9
$USERR3
 40
0.0
  9
$USERR4
 40
0.0
  9
$USERR5
 40
0.0
  9
$WORLDVIEW
 70
     1
  9
$SHADEDGE
 70
     3
  9
$SHADEDIF
 70
    70
  9
$TILEMODE
 70
     1
  9
$MAXACTVP
 70
    64
  9
$PINSBASE
 10
0.0
 20
0.0
 30
0.0
  9
$PLIMCHECK
 70
     0
  9
$PEXTMIN
 10
1.000000000000000E+20
 20
1.000000000000000E+20
 30
1.000000000000000E+20
  9
$PEXTMAX
 10
-1.000000000000000E+20
 20
-1.000000000000000E+20
 30
-1.000000000000000E+20
  9
$PLIMMIN
 10
0.0
 20
0.0
  9
$PLIMMAX
 10
420.0
 20
297.0
  9
$UNITMODE
 70
     0
  9
$VISRETAIN
 70
     1
  9
$PLINEGEN
 70
     0
  9
$PSLTSCALE
 70
     0
  9
$TREEDEPTH
 70
  3020
  9
$CMLSTYLE
  2
Standard
  9
$CMLJUST
 70
     0
  9
$CMLSCALE
 40
20.0
  9
$PROXYGRAPHICS
 70
     1
  9
$MEASUREMENT
 70
     1
  9
$CELWEIGHT
370
    -1
  9
$ENDCAPS
280
     0
  9
$JOINSTYLE
280
     0
  9
$LWDISPLAY
290
     0
  9
$INSUNITS
 70
     4
  9
$HYPERLINKBASE
  1

  9
$STYLESHEET
  1

  9
$XEDIT
290
     1
  9
$CEPSNTYPE
380
     0
  9
$PSTYLEMODE
290
     1
  9
$FINGERPRINTGUID
  2
{A9633A6E-CDA3-4A0F-988D-87D2809B210B}
  9
$VERSIONGUID
  2
{FAEB1C32-E019-11D5-929B-00C0DF256EC4}
  9
$EXTNAMES
290
     1
  9
$PSVPSCALE
 40
0.0
  9
$OLESTARTUP
290
     0
  0
ENDSEC
  0
SECTION
  2
CLASSES
  0
CLASS
  1
ACDBDICTIONARYWDFLT
  2
AcDbDictionaryWithDefault
  3
ObjectDBX Classes
 90
        0
280
     0
281
     0
  0
CLASS
  1
VISUALSTYLE
  2
AcDbVisualStyle
  3
ObjectDBX Classes
 90
     4095
280
     0
281
     0
  0
CLASS
  1
MATERIAL
  2
AcDbMaterial
  3
ObjectDBX Classes
 90
     1153
280
     0
281
     0
  0
CLASS
  1
SCALE
  2
AcDbScale
  3
ObjectDBX Classes
 90
     1153
280
     0
281
     0
  0
CLASS
  1
DICTIONARYVAR
  2
AcDbDictionaryVar
  3
ObjectDBX Classes
 90
        0
280
     0
281
     0
  0
CLASS
  1
ACDBPLACEHOLDER
  2
AcDbPlaceHolder
  3
ObjectDBX Classes
 90
        0
280
     0
281
     0
  0
CLASS
  1
LAYOUT
  2
AcDbLayout
  3
ObjectDBX Classes
 90
        0
280
     0
281
     0
  0
ENDSEC
  0
SECTION
  2
TABLES
  0
TABLE
  2
VPORT
  5
8
330
0
100
AcDbSymbolTable
 70
     1
  0
VPORT
  5
29
330
8
100
AcDbSymbolTableRecord
100
AcDbViewportTableRecord
  2
*Active
 70
     0
 10
0.0
 20
0.0
 11
1.0
 21
1.0
 12
136.9110542987968
 22
134.7700278373698
 13
0.0
 23
0.0
 14
10.0
 24
10.0
 15
10.0
 25
10.0
 16
0.0
 26
0.0
 36
1.0
 17
0.0
 27
0.0
 37
0.0
 40
331.4740612422136
 41
1.333333333333333
 42
50.0
 43
0.0
 44
0.0
 50
0.0
 51
0.0
 71
     0
 72
 20000
 73
     1
 74
     3
 75
     0
 76
     0
 77
     0
 78
     0
281
     0
 65
     1
110
0.0
120
0.0
130
0.0
111
1.0
121
0.0
131
0.0
112
0.0
122
1.0
132
0.0
 79
     0
146
0.0
  0
ENDTAB
  0
TABLE
  2
LTYPE
  5
5
330
0
100
AcDbSymbolTable
 70
     7
  0
LTYPE
  5
14
330
5
100
AcDbSymbolTableRecord
100
AcDbLinetypeTableRecord
  2
ByBlock
 70
     0
  3

 72
    65
 73
     0
 40
0.0
  0
LTYPE
  5
15
330
5
100
AcDbSymbolTableRecord
100
AcDbLinetypeTableRecord
  2
ByLayer
 70
     0
  3

 72
    65
 73
     0
 40
0.0
  0
LTYPE
  5
16
330
5
100
AcDbSymbolTableRecord
100
AcDbLinetypeTableRecord
  2
Continuous
 70
     0
  3
Solid line
 72
    65
 73
     0
 40
0.0
  0
LTYPE
  5
40
330
5
100
AcDbSymbolTableRecord
100
AcDbLinetypeTableRecord
  2
DASHED
 70
     0
  3
ICAD/SX(2) Dashed __ __ __ __ __ __ __ __ __ __ __ __ __ _
 72
    65
 73
     2
 40
19.05
 49
12.7
 74
     0
 49
-6.35
 74
     0
  0
LTYPE
  5
41
330
5
100
AcDbSymbolTableRecord
100
AcDbLinetypeTableRecord
  2
CENTER
 70
     0
  3
ICAD/SX(3) Center ____ _ ____ _ ____ _ ____ _ ____ _ ____
 72
    65
 73
     4
 40
50.8
 49
31.75
 74
     0
 49
-6.35
 74
     0
 49
6.35
 74
     0
 49
-6.35
 74
     0
  0
LTYPE
  5
42
330
5
100
AcDbSymbolTableRecord
100
AcDbLinetypeTableRecord
  2
PHANTOM
 70
     0
  3
ICAD/SX(4) Phantom ______  __  __  ______  __  __  ______
 72
    65
 73
     6
 40
63.5
 49
31.75
 74
     0
 49
-6.35
 74
     0
 49
6.35
 74
     0
 49
-6.35
 74
     0
 49
6.35
 74
     0
 49
-6.35
 74
     0
  0
LTYPE
  5
43
330
5
100
AcDbSymbolTableRecord
100
AcDbLinetypeTableRecord
  2
DOT
 70
     0
  3
ICAD/SX(5) Dot . . . . . . . . . . . . . . . . . . . . . . . .
 72
    65
 73
     2
 40
6.35
 49
0.0
 74
     0
 49
-6.35
 74
     0
  0
LTYPE
  5
44
330
5
100
AcDbSymbolTableRecord
100
AcDbLinetypeTableRecord
  2
HIDDEN
 70
     0
  3
ICAD/SX(6) Hidden __ __ __ __ __ __ __ __ __ __ __ __ __ __
 72
    65
 73
     2
 40
9.525
 49
6.35
 74
     0
 49
-3.175
 74
     0
  0
LTYPE
  5
45
330
5
100
AcDbSymbolTableRecord
100
AcDbLinetypeTableRecord
  2
DOTSX
 70
     0
  3
ICAD/SX(5) Dot . . . . . . . . . . . . . . . . . . . . . . . .
 72
    65
 73
     2
 40
6.35
 49
3.175
 74
     0
 49
-3.175
 74
     0
  0
ENDTAB
  0
TABLE
  2
LAYER
  5
2
330
0
100
AcDbSymbolTable
 70
     5
  0
LAYER
  5
10
330
2
100
AcDbSymbolTableRecord
100
AcDbLayerTableRecord
  2
0
 70
     0
 62
     7
  6
Continuous
370
    -3
390
F
  0
LAYER
  5
46
330
2
100
AcDbSymbolTableRecord
100
AcDbLayerTableRecord
  2
NoLayerName_001
 70
     0
 62
     7
  6
Continuous
370
    -3
390
F
  0
LAYER
  5
47
330
2
100
AcDbSymbolTableRecord
100
AcDbLayerTableRecord
  2
NoLayerName_002
 70
     0
 62
     7
  6
Continuous
370
    -3
390
F
  0
LAYER
  5
48
330
2
100
AcDbSymbolTableRecord
100
AcDbLayerTableRecord
  2
Defpoints
 70
     0
 62
     7
  6
Continuous
290
     0
370
    -3
390
F
  0
LAYER
  5
49
330
2
100
AcDbSymbolTableRecord
100
AcDbLayerTableRecord
  2
SX_DraftLine
 70
     0
 62
     7
  6
Continuous
290
     0
370
    -3
390
F
  0
ENDTAB
  0
TABLE
  2
STYLE
  5
3
330
0
100
AcDbSymbolTable
 70
     2
  0
STYLE
  5
11
330
3
100
AcDbSymbolTableRecord
100
AcDbTextStyleTableRecord
  2
Standard
 70
     0
 40
0.0
 41
1.0
 50
0.0
 71
     0
 42
2.5
  3
txt
  4
extfont2
  0
STYLE
  5
3F
330
3
100
AcDbSymbolTableRecord
100
AcDbTextStyleTableRecord
  2

 70
     1
 40
0.0
 41
1.0
 50
0.0
 71
     0
 42
2.5
  3
ltypeshp.shx
  4

  0
ENDTAB
  0
TABLE
  2
VIEW
  5
6
330
0
100
AcDbSymbolTable
 70
     0
  0
ENDTAB
  0
TABLE
  2
UCS
  5
7
330
0
100
AcDbSymbolTable
 70
     0
  0
ENDTAB
  0
TABLE
  2
APPID
  5
9
330
0
100
AcDbSymbolTable
 70
     1
  0
APPID
  5
12
330
9
100
AcDbSymbolTableRecord
100
AcDbRegAppTableRecord
  2
ACAD
 70
     0
  0
ENDTAB
  0
TABLE
  2
DIMSTYLE
  5
A
330
0
100
AcDbSymbolTable
 70
     1
100
AcDbDimStyleTable
  0
DIMSTYLE
105
27
330
A
100
AcDbSymbolTableRecord
100
AcDbDimStyleTableRecord
  2
Standard
 70
     0
 41
2.5
 42
0.625
 43
3.75
 44
1.25
 73
     0
 74
     0
 77
     1
140
2.5
141
2.5
143
0.03937007874016
146
0.75
147
0.625
171
     3
172
     1
178
     0
271
     2
272
     2
274
     3
283
     0
284
     8
340
11
  0
ENDTAB
  0
TABLE
  2
BLOCK_RECORD
  5
1
330
0
100
AcDbSymbolTable
 70
     1
  0
BLOCK_RECORD
  5
1F
330
1
100
AcDbSymbolTableRecord
100
AcDbBlockTableRecord
  2
*Model_Space
340
22
  0
BLOCK_RECORD
  5
1B
330
1
100
AcDbSymbolTableRecord
100
AcDbBlockTableRecord
  2
*Paper_Space
340
1E
  0
BLOCK_RECORD
  5
23
330
1
100
AcDbSymbolTableRecord
100
AcDbBlockTableRecord
  2
*Paper_Space0
340
0
  0
ENDTAB
  0
ENDSEC
  0
SECTION
  2
BLOCKS
  0
BLOCK
  5
20
330
1F
100
AcDbEntity
  8
0
100
AcDbBlockBegin
  2
*Model_Space
 70
     0
 10
0.0
 20
0.0
 30
0.0
  3
*Model_Space
  1

  0
ENDBLK
  5
21
330
1F
100
AcDbEntity
  8
0
100
AcDbBlockEnd
  0
BLOCK
  5
1C
330
1B
100
AcDbEntity
 67
     1
  8
0
100
AcDbBlockBegin
  2
*Paper_Space
 70
     0
 10
0.0
 20
0.0
 30
0.0
  3
*Paper_Space
  1

  0
ENDBLK
  5
1D
330
1B
100
AcDbEntity
 67
     1
  8
0
100
AcDbBlockEnd
  0
BLOCK
  5
24
330
23
100
AcDbEntity
  8
0
100
AcDbBlockBegin
  2
*Paper_Space0
 70
     0
 10
0.0
 20
0.0
 30
0.0
  3
*Paper_Space0
  1

  0
ENDBLK
  5
25
330
23
100
AcDbEntity
  8
0
100
AcDbBlockEnd
  0
ENDSEC
  0
SECTION
  2
ENTITIES
  0
POINT
  5
4A
330
1F
100
AcDbEntity
  8
NoLayerName_001
  6
Continuous
 62
     7
 60
     1
370
    50
100
AcDbPoint
 10
0.0
 20
0.0
 30
0.0
  0
LINE
  5
4B
330
1F
100
AcDbEntity
  8
NoLayerName_001
  6
Continuous
 62
     3
370
    50
100
AcDbLine
 10
153.2129690326346
 20
231.1799048466953
 30
0.0
 11
153.2129690326346
 21
227.0549048466953
 31
0.0
  0
LINE
  5
4C
330
1F
100
AcDbEntity
  8
NoLayerName_001
  6
Continuous
 62
     3
370
    50
100
AcDbLine
 10
152.3129690326346
 20
230.5799048466953
 30
0.0
 11
152.3129690326346
 21
227.0549048466953
 31
0.0
  0
LINE
  5
4D
330
1F
100
AcDbEntity
  8
NoLayerName_001
  6
Continuous
 62
     3
370
    50
100
AcDbLine
 10
153.2129690326346
 20
227.0549048466953
 30
0.0
 11
152.3129690326346
 21
227.0549048466953
 31
0.0
  0
ARC
  5
4E
330
1F
100
AcDbEntity
  8
NoLayerName_001
  6
Continuous
 62
     3
370
    50
100
AcDbCircle
 10
152.2379690326347
 20
230.5799048466953
 30
0.0
 40
0.075
100
AcDbArc
 50
0.0
 51
90.0
  0
ARC
  5
4F
330
1F
100
AcDbEntity
  8
NoLayerName_001
  6
Continuous
 62
     3
370
    50
100
AcDbCircle
 10
152.8379690326346
 20
231.1799048466953
 30
0.0
 40
0.375
100
AcDbArc
 50
0.0
 51
90.0
  0
LINE
  5
50
330
1F
100
AcDbEntity
  8
NoLayerName_001
  6
Continuous
 62
     3
370
    50
100
AcDbLine
 10
135.9629690326346
 20
231.1799048466953
 30
0.0
 11
135.9629690326346
 21
227.0549048466953
 31
0.0
  0
LINE
  5
51
330
1F
100
AcDbEntity
  8
NoLayerName_001
  6
Continuous
 62
     3
370
    50
100
AcDbLine
 10
136.8629690326347
 20
230.5799048466953
 30
0.0
 11
136.8629690326347
 21
227.0549048466953
 31
0.0
  0
LINE
  5
52
330
1F
100
AcDbEntity
  8
NoLayerName_001
  6
Continuous
 62
     3
370
    50
100
AcDbLine
 10
136.8629690326347
 20
227.0549048466953
 30
0.0
 11
135.9629690326347
 21
227.0549048466953
 31
0.0
  0
ARC
  5
53
330
1F
100
AcDbEntity
  8
NoLayerName_001
  6
Continuous
 62
     3
370
    50
100
AcDbCircle
 10
136.9379690326346
 20
230.5799048466953
 30
0.0
 40
0.075
100
AcDbArc
 50
90.0
 51
180.0
  0
ARC
  5
54
330
1F
100
AcDbEntity
  8
NoLayerName_001
  6
Continuous
 62
     3
370
    50
100
AcDbCircle
 10
136.3379690326346
 20
231.1799048466953
 30
0.0
 40
0.375
100
AcDbArc
 50
90.0
 51
180.0
  0
LINE
  5
55
330
1F
100
AcDbEntity
  8
NoLayerName_001
  6
Continuous
 62
     3
370
    50
100
AcDbLine
 10
152.8379690326346
 20
231.5549048466953
 30
0.0
 11
136.3379690326346
 21
231.5549048466953
 31
0.0
  0
LINE
  5
56
330
1F
100
AcDbEntity
  8
NoLayerName_001
  6
Continuous
 62
     3
370
    50
100
AcDbLine
 10
136.9379690326346
 20
230.6549048466953
 30
0.0
 11
152.2379690326346
 21
230.6549048466953
 31
0.0
  0
LINE
  5
57
330
1F
100
AcDbEntity
  8
NoLayerName_001
  6
Continuous
 62
     3
370
    50
100
AcDbLine
 10
60.2104090376405
 20
283.3456055405279
 30
0.0
 11
60.2104090376405
 21
266.0956055405279
 31
0.0
  0
LINE
  5
58
330
1F
100
AcDbEntity
  8
NoLayerName_001
  6
Continuous
 62
     3
370
    50
100
AcDbLine
 10
106.7104090376405
 20
227.8049048466953
 30
0.0
 11
106.7104090376405
 21
231.5549048466953
 31
0.0
  0
LINE
  5
59
330
1F
100
AcDbEntity
  8
NoLayerName_001
  6
Continuous
 62
     3
370
    50
100
AcDbLine
 10
60.2104090376405
 20
227.8049048466953
 30
0.0
 11
60.2104090376405
 21
231.5549048466953
 31
0.0
  0
LINE
  5
5A
330
1F
100
AcDbEntity
  8
NoLayerName_001
  6
Continuous
 62
     3
370
    50
100
AcDbLine
 10
60.2104090376405
 20
231.5549048466953
 30
0.0
 11
106.7104090376405
 21
231.5549048466953
 31
0.0
  0
LINE
  5
5B
330
1F
100
AcDbEntity
  8
NoLayerName_001
  6
Continuous
 62
     3
370
    50
100
AcDbLine
 10
60.9604090376405
 20
227.0549048466953
 30
0.0
 11
105.9604090376405
 21
227.0549048466953
 31
0.0
  0
LINE
  5
5C
330
1F
100
AcDbEntity
  8
NoLayerName_001
  6
Continuous
 62
     3
370
    50
100
AcDbLine
 10
106.7104090376405
 20
283.3456055405279
 30
0.0
 11
106.7104090376405
 21
266.0956055405279
 31
0.0
  0
LINE
  5
5D
330
1F
100
AcDbEntity
  8
NoLayerName_001
  6
Continuous
 62
     3
370
    50
100
AcDbLine
 10
60.2104090376405
 20
283.3456055405279
 30
0.0
 11
106.7104090376405
 21
283.3456055405279
 31
0.0
  0
LINE
  5
5E
330
1F
100
AcDbEntity
  8
NoLayerName_001
  6
Continuous
 62
     3
370
    50
100
AcDbLine
 10
60.2104090376405
 20
266.0956055405279
 30
0.0
 11
106.7104090376405
 21
266.0956055405279
 31
0.0
  0
LINE
  5
5F
330
1F
100
AcDbEntity
  8
NoLayerName_001
  6
Continuous
 62
     3
370
    50
100
AcDbLine
 10
147.6191675472518
 20
228.5549048466953
 30
0.0
 11
141.5567705180175
 21
228.5549048466953
 31
0.0
  0
ARC
  5
60
330
1F
100
AcDbEntity
  8
NoLayerName_001
  6
Continuous
 62
     3
370
    50
100
AcDbCircle
 10
105.9604090376405
 20
227.8049048466953
 30
0.0
 40
0.75
100
AcDbArc
 50
270.0
 51
0.0
  0
ARC
  5
61
330
1F
100
AcDbEntity
  8
NoLayerName_001
  6
Continuous
 62
     3
370
    50
100
AcDbCircle
 10
60.9604090376405
 20
227.8049048466953
 30
0.0
 40
0.75
100
AcDbArc
 50
180.0
 51
270.0
  0
ARC
  5
62
330
1F
100
AcDbEntity
  8
NoLayerName_001
  6
Continuous
 62
    30
370
    50
100
AcDbCircle
 10
83.4604090376405
 20
240.7049048466952
 30
0.0
 40
9.675
100
AcDbArc
 50
0.0
 51
180.0
  0
ARC
  5
63
330
1F
100
AcDbEntity
  8
NoLayerName_001
  6
Continuous
 62
    30
370
    50
100
AcDbCircle
 10
83.4604090376405
 20
240.7049048466952
 30
0.0
 40
11.325
100
AcDbArc
 50
0.0
 51
179.9999975851635
  0
ARC
  5
64
330
1F
100
AcDbEntity
  8
NoLayerName_001
  6
Continuous
 62
    30
370
    50
100
AcDbCircle
 10
83.4604090376405
 20
240.7049048466952
 30
0.0
 40
10.575
100
AcDbArc
 50
0.0
 51
179.9999979086902
  0
LINE
  5
65
330
1F
100
AcDbEntity
  8
NoLayerName_001
  6
Continuous
 62
    30
370
    50
100
AcDbLine
 10
73.78540903764049
 20
233.0549048466953
 30
0.0
 11
73.78540903764049
 21
240.7049048466953
 31
0.0
  0
ARC
  5
66
330
1F
100
AcDbEntity
  8
NoLayerName_001
  6
Continuous
 62
    30
370
    50
100
AcDbCircle
 10
72.28540903764049
 20
233.0549048466953
 30
0.0
 40
1.5
100
AcDbArc
 50
270.0
 51
0.0
  0
LINE
  5
67
330
1F
100
AcDbEntity
  8
NoLayerName_001
  6
Continuous
 62
    30
370
    50
100
AcDbLine
 10
72.13540903764046
 20
232.4549048466952
 30
0.0
 11
72.13540903764046
 21
240.7049048466952
 31
0.0
  0
LINE
  5
68
330
1F
100
AcDbEntity
  8
NoLayerName_001
  6
Continuous
 62
    30
370
    50
100
AcDbLine
 10
72.88540903764046
 20
233.0549048466953
 30
0.0
 11
72.88540903764046
 21
240.7049048466953
 31
0.0
  0
LINE
  5
69
330
1F
100
AcDbEntity
  8
NoLayerName_001
  6
Continuous
 62
    30
370
    50
100
AcDbLine
 10
62.4604090376405
 20
232.4549048466952
 30
0.0
 11
72.2854090376405
 21
232.4549048466952
 31
0.0
  0
LINE
  5
6A
330
1F
100
AcDbEntity
  8
NoLayerName_001
  6
Continuous
 62
    30
370
    50
100
AcDbLine
 10
62.4604090376405
 20
232.4549048466952
 30
0.0
 11
62.4604090376405
 21
231.5549048466952
 31
0.0
  0
ARC
  5
6B
330
1F
100
AcDbEntity
  8
NoLayerName_001
  6
Continuous
 62
    30
370
    50
100
AcDbCircle
 10
72.28540903764049
 20
233.0549048466953
 30
0.0
 40
0.6000000000000001
100
AcDbArc
 50
270.0
 51
0.0
  0
ARC
  5
6C
330
1F
100
AcDbEntity
  8
NoLayerName_001
  6
Continuous
 62
    30
370
    50
100
AcDbCircle
 10
94.63540903764046
 20
233.0549048466953
 30
0.0
 40
1.5
100
AcDbArc
 50
180.0
 51
270.0
  0
LINE
  5
6D
330
1F
100
AcDbEntity
  8
NoLayerName_001
  6
Continuous
 62
    30
370
    50
100
AcDbLine
 10
93.13540903764046
 20
233.0549048466953
 30
0.0
 11
93.13540903764046
 21
240.7049048466953
 31
0.0
  0
LINE
  5
6E
330
1F
100
AcDbEntity
  8
NoLayerName_001
  6
Continuous
 62
    30
370
    50
100
AcDbLine
 10
94.78540903764049
 20
232.4549048466952
 30
0.0
 11
94.78540903764049
 21
240.7049048466952
 31
0.0
  0
LINE
  5
6F
330
1F
100
AcDbEntity
  8
NoLayerName_001
  6
Continuous
 62
    30
370
    50
100
AcDbLine
 10
94.03540903764049
 20
233.0549048466953
 30
0.0
 11
94.03540903764049
 21
240.7049048466953
 31
0.0
  0
LINE
  5
70
330
1F
100
AcDbEntity
  8
NoLayerName_001
  6
Continuous
 62
    30
370
    50
100
AcDbLine
 10
94.63540903764046
 20
232.4549048466952
 30
0.0
 11
101.6104090376405
 21
232.4549048466952
 31
0.0
  0
ARC
  5
71
330
1F
100
AcDbEntity
  8
NoLayerName_001
  6
Continuous
 62
    30
370
    50
100
AcDbCircle
 10
94.63540903764046
 20
233.0549048466953
 30
0.0
 40
0.6000000000000001
100
AcDbArc
 50
180.0
 51
270.0
  0
LINE
  5
72
330
1F
100
AcDbEntity
  8
NoLayerName_001
  6
Continuous
 62
    30
370
    50
100
AcDbLine
 10
101.4604090376405
 20
232.4549048466952
 30
0.0
 11
101.4604090376405
 21
231.5549048466952
 31
0.0
  0
ARC
  5
73
330
1F
100
AcDbEntity
  8
NoLayerName_001
  6
Continuous
 62
    30
370
    50
100
AcDbCircle
 10
101.6104090376404
 20
231.7049048466952
 30
0.0
 40
0.75
100
AcDbArc
 50
0.0
 51
90.0
  0
LINE
  5
74
330
1F
100
AcDbEntity
  8
NoLayerName_001
  6
Continuous
 62
    30
370
    50
100
AcDbLine
 10
62.49609965320435
 20
271.7206055405279
 30
0.0
 11
62.49609965320435
 21
277.7206055405279
 31
0.0
  0
ARC
  5
75
330
1F
100
AcDbEntity
  8
NoLayerName_001
  6
Continuous
 62
    30
370
    50
100
AcDbCircle
 10
66.24609965320435
 20
277.720605540528
 30
0.0
 40
3.75
100
AcDbArc
 50
90.0
 51
180.0
  0
LINE
  5
76
330
1F
100
AcDbEntity
  8
NoLayerName_001
  6
Continuous
 62
    30
370
    50
100
AcDbLine
 10
101.0854090376405
 20
281.470605540528
 30
0.0
 11
66.24609965320434
 21
281.470605540528
 31
0.0
  0
LINE
  5
77
330
1F
100
AcDbEntity
  8
NoLayerName_001
  6
Continuous
 62
    30
370
    50
100
AcDbLine
 10
72.88540903764046
 20
276.9706055405283
 30
0.0
 11
72.88540903764046
 21
281.4706055405279
 31
0.0
  0
ARC
  5
78
330
1F
100
AcDbEntity
  8
NoLayerName_001
  6
Continuous
 62
    30
370
    50
100
AcDbCircle
 10
75.8854090376425
 20
274.7206055405281
 30
0.0
 40
3.750000000001769
100
AcDbArc
 50
143.1301023541799
 51
216.8698976458274
  0
LINE
  5
79
330
1F
100
AcDbEntity
  8
NoLayerName_001
  6
Continuous
 62
    30
370
    50
100
AcDbLine
 10
72.88540903764046
 20
267.9706055405279
 30
0.0
 11
72.88540903764046
 21
272.4706055405279
 31
0.0
  0
ARC
  5
7A
330
1F
100
AcDbEntity
  8
NoLayerName_001
  6
Continuous
 62
    30
370
    50
100
AcDbCircle
 10
66.24609965320435
 20
271.7206055405279
 30
0.0
 40
3.75
100
AcDbArc
 50
180.0
 51
270.0
  0
LINE
  5
7B
330
1F
100
AcDbEntity
  8
NoLayerName_001
  6
Continuous
 62
    30
370
    50
100
AcDbLine
 10
101.0854090376405
 20
267.9706055405279
 30
0.0
 11
66.24609965320434
 21
267.9706055405279
 31
0.0
  0
LINE
  5
7C
330
1F
100
AcDbEntity
  8
NoLayerName_001
  6
Continuous
 62
    30
370
    50
100
AcDbLine
 10
72.88540903764046
 20
272.4706055405279
 30
0.0
 11
94.03540903764049
 21
272.4706055405279
 31
0.0
  0
LINE
  5
7D
330
1F
100
AcDbEntity
  8
NoLayerName_001
  6
Continuous
 62
    30
370
    50
100
AcDbLine
 10
72.88540903764046
 20
276.970605540528
 30
0.0
 11
94.03540903764049
 21
276.970605540528
 31
0.0
  0
LINE
  5
7E
330
1F
100
AcDbEntity
  8
NoLayerName_001
  6
Continuous
 62
    30
370
    50
100
AcDbLine
 10
94.03540903764049
 20
276.9706055405283
 30
0.0
 11
94.03540903764049
 21
281.4706055405279
 31
0.0
  0
ARC
  5
7F
330
1F
100
AcDbEntity
  8
NoLayerName_001
  6
Continuous
 62
    30
370
    50
100
AcDbCircle
 10
91.03540903763839
 20
274.7206055405281
 30
0.0
 40
3.750000000001769
100
AcDbArc
 50
323.1301023541727
 51
36.86989764582008
  0
LINE
  5
80
330
1F
100
AcDbEntity
  8
NoLayerName_001
  6
Continuous
 62
    30
370
    50
100
AcDbLine
 10
94.03540903764049
 20
267.9706055405279
 30
0.0
 11
94.03540903764049
 21
272.4706055405279
 31
0.0
  0
LINE
  5
81
330
1F
100
AcDbEntity
  8
NoLayerName_001
  6
Continuous
 62
    30
370
    50
100
AcDbLine
 10
102.3604090376404
 20
279.033105540528
 30
0.0
 11
102.3604090376404
 21
270.408105540528
 31
0.0
  0
ARC
  5
82
330
1F
100
AcDbEntity
  8
NoLayerName_001
  6
Continuous
 62
    30
370
    50
100
AcDbCircle
 10
101.0854090376405
 20
268.3456055405279
 30
0.0
 40
0.375
100
AcDbArc
 50
270.0
 51
0.0
  0
LINE
  5
83
330
1F
100
AcDbEntity
  8
NoLayerName_001
  6
Continuous
 62
    30
370
    50
100
AcDbLine
 10
101.4604090376405
 20
268.3456055405279
 30
0.0
 11
101.4604090376405
 21
270.4081055405279
 31
0.0
  0
ARC
  5
84
330
1F
100
AcDbEntity
  8
NoLayerName_001
  6
Continuous
 62
    30
370
    50
100
AcDbCircle
 10
101.0854090376405
 20
281.095605540528
 30
0.0
 40
0.375
100
AcDbArc
 50
0.0
 51
90.0
  0
LINE
  5
85
330
1F
100
AcDbEntity
  8
NoLayerName_001
  6
Continuous
 62
    30
370
    50
100
AcDbLine
 10
101.4604090376405
 20
281.095605540528
 30
0.0
 11
101.4604090376405
 21
279.033105540528
 31
0.0
  0
LINE
  5
86
330
1F
100
AcDbEntity
  8
NoLayerName_001
  6
Continuous
 62
    30
370
    50
100
AcDbLine
 10
146.8379690326346
 20
251.2799048466953
 30
0.0
 11
146.8379690326346
 21
232.4549048466953
 31
0.0
  0
LINE
  5
87
330
1F
100
AcDbEntity
  8
NoLayerName_001
  6
Continuous
 62
    30
370
    50
100
AcDbLine
 10
151.3379690326346
 20
251.2799048466953
 30
0.0
 11
151.3379690326346
 21
231.5549048466953
 31
0.0
  0
LINE
  5
88
330
1F
100
AcDbEntity
  8
NoLayerName_001
  6
Continuous
 62
    30
370
    50
100
AcDbLine
 10
151.3379690326346
 20
251.2799048466953
 30
0.0
 11
146.8379690326346
 21
251.2799048466953
 31
0.0
  0
ARC
  5
89
330
1F
100
AcDbEntity
  8
NoLayerName_001
  6
Continuous
 62
    30
370
    50
100
AcDbCircle
 10
144.5879690326353
 20
248.2799048466933
 30
0.0
 40
3.750000000001206
100
AcDbArc
 50
53.13010235418244
 51
126.8698976458176
  0
LINE
  5
8A
330
1F
100
AcDbEntity
  8
NoLayerName_001
  6
Continuous
 62
    30
370
    50
100
AcDbLine
 10
142.3379690326346
 20
251.2799048466953
 30
0.0
 11
137.8379690326346
 21
251.2799048466953
 31
0.0
  0
LINE
  5
8B
330
1F
100
AcDbEntity
  8
NoLayerName_001
  6
Continuous
 62
    30
370
    50
100
AcDbLine
 10
142.3379690326346
 20
251.2799048466953
 30
0.0
 11
142.3379690326346
 21
232.4549048466953
 31
0.0
  0
LINE
  5
8C
330
1F
100
AcDbEntity
  8
NoLayerName_001
  6
Continuous
 62
    30
370
    50
100
AcDbLine
 10
137.8379690326346
 20
251.2799048466953
 30
0.0
 11
137.8379690326346
 21
231.5549048466953
 31
0.0
  0
LINE
  5
8D
330
1F
100
AcDbEntity
  8
NoLayerName_001
  6
Continuous
 62
    30
370
    50
100
AcDbLine
 10
151.3379690326346
 20
232.4549048466953
 30
0.0
 11
137.8379690326346
 21
232.4549048466953
 31
0.0
  0
LINE
  5
8E
330
1F
100
AcDbEntity
  8
NoLayerName_001
  6
Continuous
 62
    30
370
    50
100
AcDbLine
 10
140.2754690326346
 20
231.5549048466953
 30
0.0
 11
137.8379690326346
 21
231.5549048466953
 31
0.0
  0
LINE
  5
8F
330
1F
100
AcDbEntity
  8
NoLayerName_001
  6
Continuous
 62
    30
370
    50
100
AcDbLine
 10
151.3379690326346
 20
230.4299048466953
 30
0.0
 11
137.8379690326346
 21
230.4299048466953
 31
0.0
  0
LINE
  5
90
330
1F
100
AcDbEntity
  8
NoLayerName_001
  6
Continuous
 62
    30
370
    50
100
AcDbLine
 10
137.8379690326346
 20
230.4299048466953
 30
0.0
 11
137.8379690326346
 21
229.5299048466953
 31
0.0
  0
LINE
  5
91
330
1F
100
AcDbEntity
  8
NoLayerName_001
  6
Continuous
 62
    30
370
    50
100
AcDbLine
 10
151.3379690326346
 20
229.5299048466953
 30
0.0
 11
137.8379690326346
 21
229.5299048466953
 31
0.0
  0
LINE
  5
92
330
1F
100
AcDbEntity
  8
NoLayerName_001
  6
Continuous
 62
    30
370
    50
100
AcDbLine
 10
151.3379690326346
 20
230.4299048466953
 30
0.0
 11
151.3379690326346
 21
229.5299048466953
 31
0.0
  0
LINE
  5
93
330
1F
100
AcDbEntity
  8
NoLayerName_001
  6
Continuous
 62
    30
370
    50
100
AcDbLine
 10
151.3379690326346
 20
231.5549048466953
 30
0.0
 11
148.9004690326346
 21
231.5549048466953
 31
0.0
  0
LINE
  5
94
330
1F
100
AcDbEntity
  8
NoLayerName_001
  6
Continuous
 62
     3
370
    50
100
AcDbLine
 10
150.3193403583116
 20
230.4299048466953
 30
0.0
 11
150.6433610956389
 21
230.6549048466954
 31
0.0
  0
LINE
  5
95
330
1F
100
AcDbEntity
  8
NoLayerName_001
  6
Continuous
 62
     3
370
    50
100
AcDbLine
 10
149.023257409003
 20
229.5299048466954
 30
0.0
 11
147.6191675472518
 21
228.5549048466953
 31
0.0
  0
LINE
  5
96
330
1F
100
AcDbEntity
  8
NoLayerName_001
  6
Continuous
 62
     3
370
    50
100
AcDbLine
 10
140.1526806562663
 20
229.5299048466953
 30
0.0
 11
141.5567705180175
 21
228.5549048466953
 31
0.0
  0
LINE
  5
97
330
1F
100
AcDbEntity
  8
NoLayerName_001
  6
Continuous
 62
     3
370
    50
100
AcDbLine
 10
138.8565977069576
 20
230.4299048466952
 30
0.0
 11
138.5325769696304
 21
230.6549048466952
 31
0.0
  0
LINE
  5
98
330
1F
100
AcDbEntity
  8
NoLayerName_001
  6
Continuous
 62
    30
370
    50
100
AcDbLine
 10
148.9004690326346
 20
231.5549048466953
 30
0.0
 11
148.9004690326346
 21
232.4549048466953
 31
0.0
  0
LINE
  5
99
330
1F
100
AcDbEntity
  8
NoLayerName_001
  6
Continuous
 62
    30
370
    50
100
AcDbLine
 10
148.9004690326346
 20
230.6549048466953
 30
0.0
 11
148.9004690326346
 21
230.4299048466953
 31
0.0
  0
LINE
  5
9A
330
1F
100
AcDbEntity
  8
NoLayerName_001
  6
Continuous
 62
    30
370
    50
100
AcDbLine
 10
140.2754690326346
 20
231.5549048466953
 30
0.0
 11
140.2754690326346
 21
232.4549048466953
 31
0.0
  0
LINE
  5
9B
330
1F
100
AcDbEntity
  8
NoLayerName_001
  6
Continuous
 62
    30
370
    50
100
AcDbLine
 10
140.2754690326346
 20
230.6549048466953
 30
0.0
 11
140.2754690326346
 21
230.4299048466953
 31
0.0
  0
LINE
  5
9C
330
1F
100
AcDbEntity
  8
NoLayerName_001
  6
Continuous
 62
     3
370
    50
100
AcDbLine
 10
101.4604090376405
 20
279.220605540528
 30
0.0
 11
102.5854090376405
 21
279.220605540528
 31
0.0
  0
LINE
  5
9D
330
1F
100
AcDbEntity
  8
NoLayerName_001
  6
Continuous
 62
     3
370
    50
100
AcDbLine
 10
102.5854090376405
 20
270.2206055405279
 30
0.0
 11
102.5854090376405
 21
279.2206055405279
 31
0.0
  0
LINE
  5
9E
330
1F
100
AcDbEntity
  8
NoLayerName_001
  6
Continuous
 62
     3
370
    50
100
AcDbLine
 10
101.4604090376405
 20
270.2206055405279
 30
0.0
 11
102.5854090376405
 21
270.2206055405279
 31
0.0
  0
LINE
  5
9F
330
1F
100
AcDbEntity
  8
NoLayerName_001
  6
Continuous
 62
    30
370
    50
100
AcDbLine
 10
102.5854090376405
 20
279.033105540528
 30
0.0
 11
101.4604090376405
 21
279.033105540528
 31
0.0
  0
LINE
  5
A0
330
1F
100
AcDbEntity
  8
NoLayerName_001
  6
Continuous
 62
    30
370
    50
100
AcDbLine
 10
102.5854090376405
 20
270.4081055405279
 30
0.0
 11
101.4604090376405
 21
270.4081055405279
 31
0.0
  0
LINE
  5
A1
330
1F
100
AcDbEntity
  8
NoLayerName_001
  6
CENTER
 62
     3
370
    25
100
AcDbLine
 10
109.2249941595422
 20
274.720605540528
 30
0.0
 11
57.72210859759373
 21
274.720605540528
 31
0.0
  0
LINE
  5
A2
330
1F
100
AcDbEntity
  8
NoLayerName_001
  6
CENTER
 62
     3
370
    25
100
AcDbLine
 10
83.4604090376405
 20
263.8723863379105
 30
0.0
 11
83.4604090376405
 21
285.4400556747397
 31
0.0
  0
LINE
  5
A3
330
1F
100
AcDbEntity
  8
NoLayerName_001
  6
CENTER
 62
     3
370
    25
100
AcDbLine
 10
144.5879690326346
 20
254.3678905633371
 30
0.0
 11
144.5879690326346
 21
225.9241777586786
 31
0.0
  0
LINE
  5
A4
330
1F
100
AcDbEntity
  8
NoLayerName_001
  6
CENTER
 62
     3
370
    25
100
AcDbLine
 10
153.1494873915734
 20
240.6674048466953
 30
0.0
 11
136.3873521683821
 21
240.6674048466953
 31
0.0
  0
LINE
  5
A5
330
1F
100
AcDbEntity
  8
NoLayerName_001
  6
CENTER
 62
     3
370
    25
100
AcDbLine
 10
70.42569398643089
 20
240.7049048466952
 30
0.0
 11
96.82196950691159
 21
240.7049048466952
 31
0.0
  0
LINE
  5
A6
330
1F
100
AcDbEntity
  8
NoLayerName_001
  6
CENTER
 62
     3
370
    25
100
AcDbLine
 10
83.4604090376405
 20
254.3285649608081
 30
0.0
 11
83.4604090376405
 21
224.8666013909927
 31
0.0
  0
LINE
  5
A7
330
1F
100
AcDbEntity
  8
NoLayerName_001
  6
Continuous
 62
    30
370
    50
100
AcDbLine
 10
65.4604090376405
 20
274.270605540528
 30
0.0
 11
65.4604090376405
 21
275.170605540528
 31
0.0
  0
LINE
  5
A8
330
1F
100
AcDbEntity
  8
NoLayerName_001
  6
Continuous
 62
    30
370
    50
100
AcDbLine
 10
68.4604090376405
 20
275.1706055405279
 30
0.0
 11
68.4604090376405
 21
274.2706055405279
 31
0.0
  0
LINE
  5
A9
330
1F
100
AcDbEntity
  8
NoLayerName_001
  6
Continuous
 62
    30
370
    50
100
AcDbLine
 10
65.4604090376405
 20
275.1706055405279
 30
0.0
 11
66.5104090376405
 21
275.1706055405279
 31
0.0
  0
LINE
  5
AA
330
1F
100
AcDbEntity
  8
NoLayerName_001
  6
Continuous
 62
    30
370
    50
100
AcDbLine
 10
67.41040903764049
 20
275.1706055405279
 30
0.0
 11
68.46040903764049
 21
275.1706055405279
 31
0.0
  0
LINE
  5
AB
330
1F
100
AcDbEntity
  8
NoLayerName_001
  6
Continuous
 62
    30
370
    50
100
AcDbLine
 10
66.51040903764046
 20
276.220605540528
 30
0.0
 11
66.51040903764046
 21
275.170605540528
 31
0.0
  0
LINE
  5
AC
330
1F
100
AcDbEntity
  8
NoLayerName_001
  6
Continuous
 62
    30
370
    50
100
AcDbLine
 10
66.51040903764046
 20
274.270605540528
 30
0.0
 11
66.51040903764046
 21
273.220605540528
 31
0.0
  0
LINE
  5
AD
330
1F
100
AcDbEntity
  8
NoLayerName_001
  6
Continuous
 62
    30
370
    50
100
AcDbLine
 10
65.4604090376405
 20
274.270605540528
 30
0.0
 11
66.5104090376405
 21
274.270605540528
 31
0.0
  0
LINE
  5
AE
330
1F
100
AcDbEntity
  8
NoLayerName_001
  6
Continuous
 62
    30
370
    50
100
AcDbLine
 10
67.41040903764049
 20
274.270605540528
 30
0.0
 11
68.46040903764049
 21
274.270605540528
 31
0.0
  0
LINE
  5
AF
330
1F
100
AcDbEntity
  8
NoLayerName_001
  6
Continuous
 62
    30
370
    50
100
AcDbLine
 10
67.41040903764049
 20
276.220605540528
 30
0.0
 11
67.41040903764049
 21
275.170605540528
 31
0.0
  0
LINE
  5
B0
330
1F
100
AcDbEntity
  8
NoLayerName_001
  6
Continuous
 62
    30
370
    50
100
AcDbLine
 10
67.41040903764049
 20
274.270605540528
 30
0.0
 11
67.41040903764049
 21
273.220605540528
 31
0.0
  0
CIRCLE
  5
B1
330
1F
100
AcDbEntity
  8
NoLayerName_001
  6
Continuous
 62
    30
370
    50
100
AcDbCircle
 10
66.9604090376405
 20
274.720605540528
 30
0.0
 40
2.7
  0
LINE
  5
B2
330
1F
100
AcDbEntity
  8
NoLayerName_001
  6
Continuous
 62
    30
370
    50
100
AcDbLine
 10
66.51040903764046
 20
276.220605540528
 30
0.0
 11
67.41040903764045
 21
276.220605540528
 31
0.0
  0
LINE
  5
B3
330
1F
100
AcDbEntity
  8
NoLayerName_001
  6
Continuous
 62
    30
370
    50
100
AcDbLine
 10
67.41040903764049
 20
273.220605540528
 30
0.0
 11
66.5104090376405
 21
273.220605540528
 31
0.0
  0
LINE
  5
B4
330
1F
100
AcDbEntity
  8
NoLayerName_001
  6
Continuous
 62
    30
370
    50
100
AcDbLine
 10
67.48540903764054
 20
234.4049048466953
 30
0.0
 11
66.43540903764054
 21
234.4049048466953
 31
0.0
  0
ARC
  5
B5
330
1F
100
AcDbEntity
  8
NoLayerName_001
  6
Continuous
 62
    30
370
    50
100
AcDbCircle
 10
66.43540903764047
 20
232.4549048466952
 30
0.0
 40
1.95
100
AcDbArc
 50
90.0
 51
180.0
  0
ARC
  5
B6
330
1F
100
AcDbEntity
  8
NoLayerName_001
  6
Continuous
 62
    30
370
    50
100
AcDbCircle
 10
67.48540903764054
 20
232.4549048466952
 30
0.0
 40
1.95
100
AcDbArc
 50
0.0
 51
90.0
  0
LINE
  5
B7
330
1F
100
AcDbEntity
  8
NoLayerName_001
  6
CENTER
 62
     3
370
    25
100
AcDbLine
 10
66.9604090376405
 20
277.9738095256581
 30
0.0
 11
66.9604090376405
 21
271.3770195356335
 31
0.0
  0
LINE
  5
B8
330
1F
100
AcDbEntity
  8
NoLayerName_001
  6
Continuous
 62
    30
370
    50
100
AcDbLine
 10
102.3604090376404
 20
231.5549048466953
 30
0.0
 11
102.3604090376404
 21
231.7049048466954
 31
0.0
  0
LINE
  5
B9
330
1F
100
AcDbEntity
  8
NoLayerName_001
  6
Continuous
 62
    30
370
    50
100
AcDbLine
 10
59.0854090376405
 20
127.6131800530739
 30
0.0
 11
107.8354090376405
 21
127.6131800530739
 31
0.0
  0
LINE
  5
BA
330
1F
100
AcDbEntity
  8
NoLayerName_001
  6
Continuous
 62
    30
370
    50
100
AcDbLine
 10
59.0854090376405
 20
122.3631800530739
 30
0.0
 11
59.0854090376405
 21
127.6131800530739
 31
0.0
  0
LINE
  5
BB
330
1F
100
AcDbEntity
  8
NoLayerName_001
  6
Continuous
 62
    30
370
    50
100
AcDbLine
 10
107.8354090376405
 20
122.3631800530739
 30
0.0
 11
107.8354090376405
 21
127.6131800530739
 31
0.0
  0
LINE
  5
BC
330
1F
100
AcDbEntity
  8
NoLayerName_001
  6
CENTER
 62
     3
370
    25
100
AcDbLine
 10
83.4604090376405
 20
128.541786081054
 30
0.0
 11
83.4604090376405
 21
120.7825897244734
 31
0.0
  0
LINE
  5
BD
330
1F
100
AcDbEntity
  8
NoLayerName_001
  6
Continuous
 62
    30
370
    50
100
AcDbLine
 10
107.4604090376405
 20
121.9881800530739
 30
0.0
 11
104.4604090376405
 21
121.9881800530739
 31
0.0
  0
LINE
  5
BE
330
1F
100
AcDbEntity
  8
NoLayerName_001
  6
Continuous
 62
    30
370
    50
100
AcDbLine
 10
62.4604090376405
 20
121.9881800530739
 30
0.0
 11
59.4604090376405
 21
121.9881800530739
 31
0.0
  0
ARC
  5
BF
330
1F
100
AcDbEntity
  8
NoLayerName_001
  6
Continuous
 62
    30
370
    50
100
AcDbCircle
 10
59.4604090376405
 20
122.3631800530739
 30
0.0
 40
0.375
100
AcDbArc
 50
180.0
 51
270.0
  0
ARC
  5
C0
330
1F
100
AcDbEntity
  8
NoLayerName_001
  6
Continuous
 62
    30
370
    50
100
AcDbCircle
 10
62.4604090376405
 20
122.3631800530739
 30
0.0
 40
0.375
100
AcDbArc
 50
270.0
 51
0.0
  0
ARC
  5
C1
330
1F
100
AcDbEntity
  8
NoLayerName_001
  6
Continuous
 62
    30
370
    50
100
AcDbCircle
 10
104.4604090376405
 20
122.3631800530739
 30
0.0
 40
0.375
100
AcDbArc
 50
180.0
 51
270.0
  0
ARC
  5
C2
330
1F
100
AcDbEntity
  8
NoLayerName_001
  6
Continuous
 62
    30
370
    50
100
AcDbCircle
 10
107.4604090376405
 20
122.3631800530739
 30
0.0
 40
0.375
100
AcDbArc
 50
270.0
 51
0.0
  0
LINE
  5
C3
330
1F
100
AcDbEntity
  8
NoLayerName_001
  6
Continuous
 62
    30
370
    50
100
AcDbLine
 10
63.2104090376405
 20
122.9256800530739
 30
0.0
 11
103.7104090376405
 21
122.9256800530739
 31
0.0
  0
LINE
  5
C4
330
1F
100
AcDbEntity
  8
NoLayerName_001
  6
Continuous
 62
    30
370
    50
100
AcDbLine
 10
62.8354090376405
 20
122.5506800530739
 30
0.0
 11
62.8354090376405
 21
122.3631800530739
 31
0.0
  0
ARC
  5
C5
330
1F
100
AcDbEntity
  8
NoLayerName_001
  6
Continuous
 62
    30
370
    50
100
AcDbCircle
 10
63.2104090376405
 20
122.5506800530739
 30
0.0
 40
0.375
100
AcDbArc
 50
90.0
 51
180.0
  0
ARC
  5
C6
330
1F
100
AcDbEntity
  8
NoLayerName_001
  6
Continuous
 62
    30
370
    50
100
AcDbCircle
 10
103.7104090376405
 20
122.5506800530739
 30
0.0
 40
0.375
100
AcDbArc
 50
0.0000000000000127
 51
90.00000000000001
  0
LINE
  5
C7
330
1F
100
AcDbEntity
  8
NoLayerName_001
  6
Continuous
 62
    30
370
    50
100
AcDbLine
 10
104.0854090376405
 20
122.5506800530739
 30
0.0
 11
104.0854090376405
 21
122.3631800530739
 31
0.0
  0
LINE
  5
C8
330
1F
100
AcDbEntity
  8
NoLayerName_001
  6
CENTER
 62
     3
370
    25
100
AcDbLine
 10
69.6258021303277
 20
138.4881800530739
 30
0.0
 11
97.57399723965297
 21
138.4881800530739
 31
0.0
  0
LINE
  5
C9
330
1F
100
AcDbEntity
  8
NoLayerName_001
  6
CENTER
 62
     3
370
    25
100
AcDbLine
 10
83.4604090376405
 20
152.0323373973197
 30
0.0
 11
83.4604090376405
 21
125.8507788960065
 31
0.0
  0
LINE
  5
CA
330
1F
100
AcDbEntity
  8
NoLayerName_001
  6
Continuous
 62
    30
370
    50
100
AcDbLine
 10
72.2104090376405
 20
130.2381800530739
 30
0.0
 11
72.2104090376405
 21
138.4881800530739
 31
0.0
  0
LINE
  5
CB
330
1F
100
AcDbEntity
  8
NoLayerName_001
  6
Continuous
 62
    30
370
    50
100
AcDbLine
 10
94.7104090376405
 20
130.2381800530739
 30
0.0
 11
94.7104090376405
 21
138.4881800530739
 31
0.0
  0
LINE
  5
CC
330
1F
100
AcDbEntity
  8
NoLayerName_001
  6
Continuous
 62
    30
370
    50
100
AcDbLine
 10
60.2104090376405
 20
128.3631800530739
 30
0.0
 11
60.2104090376405
 21
127.6131800530739
 31
0.0
  0
LINE
  5
CD
330
1F
100
AcDbEntity
  8
NoLayerName_001
  6
Continuous
 62
    30
370
    50
100
AcDbLine
 10
69.5854090376405
 20
128.3631800530739
 30
0.0
 11
60.21040903764051
 21
128.3631800530739
 31
0.0
  0
LINE
  5
CE
330
1F
100
AcDbEntity
  8
NoLayerName_001
  6
Continuous
 62
    30
370
    50
100
AcDbLine
 10
71.4604090376405
 20
130.2381800530739
 30
0.0
 11
71.4604090376405
 21
138.4881800530739
 31
0.0
  0
ARC
  5
CF
330
1F
100
AcDbEntity
  8
NoLayerName_001
  6
Continuous
 62
    30
370
    50
100
AcDbCircle
 10
83.4604090376405
 20
138.4881800530739
 30
0.0
 40
12.0
100
AcDbArc
 50
0.0
 51
180.0
  0
LINE
  5
D0
330
1F
100
AcDbEntity
  8
NoLayerName_001
  6
Continuous
 62
    30
370
    50
100
AcDbLine
 10
95.4604090376405
 20
130.2381800530739
 30
0.0
 11
95.4604090376405
 21
138.4881800530739
 31
0.0
  0
LINE
  5
D1
330
1F
100
AcDbEntity
  8
NoLayerName_001
  6
Continuous
 62
    30
370
    50
100
AcDbLine
 10
101.8354090376405
 20
128.3631800530739
 30
0.0
 11
97.3354090376405
 21
128.3631800530739
 31
0.0
  0
ARC
  5
D2
330
1F
100
AcDbEntity
  8
NoLayerName_001
  6
Continuous
 62
    30
370
    50
100
AcDbCircle
 10
97.3354090376405
 20
130.2381800530739
 30
0.0
 40
1.875
100
AcDbArc
 50
180.0
 51
270.0
  0
ARC
  5
D3
330
1F
100
AcDbEntity
  8
NoLayerName_001
  6
Continuous
 62
    30
370
    50
100
AcDbCircle
 10
97.3354090376405
 20
130.2381800530739
 30
0.0
 40
2.625
100
AcDbArc
 50
180.0
 51
270.0
  0
ARC
  5
D4
330
1F
100
AcDbEntity
  8
NoLayerName_001
  6
Continuous
 62
    30
370
    50
100
AcDbCircle
 10
69.5854090376405
 20
130.2381800530739
 30
0.0
 40
2.625
100
AcDbArc
 50
270.0
 51
0.0
  0
ARC
  5
D5
330
1F
100
AcDbEntity
  8
NoLayerName_001
  6
Continuous
 62
    30
370
    50
100
AcDbCircle
 10
69.5854090376405
 20
130.2381800530739
 30
0.0
 40
1.875
100
AcDbArc
 50
270.0
 51
0.0
  0
ARC
  5
D6
330
1F
100
AcDbEntity
  8
NoLayerName_001
  6
Continuous
 62
    30
370
    50
100
AcDbCircle
 10
101.8354090376405
 20
127.6131800530739
 30
0.0
 40
0.75
100
AcDbArc
 50
0.0
 51
90.0
  0
LINE
  5
D7
330
1F
100
AcDbEntity
  8
NoLayerName_001
  6
Continuous
 62
    30
370
    50
100
AcDbLine
 10
95.93119804518882
 20
138.4881800530739
 30
0.0
 11
95.93119804518882
 21
128.9956759328884
 31
0.0
  0
ARC
  5
D8
330
1F
100
AcDbEntity
  8
NoLayerName_001
  6
Continuous
 62
    30
370
    50
100
AcDbCircle
 10
83.4604090376405
 20
138.4881800530739
 30
0.0
 40
12.47078900754832
100
AcDbArc
 50
0.0
 51
180.0
  0
LINE
  5
D9
330
1F
100
AcDbEntity
  8
NoLayerName_001
  6
Continuous
 62
    30
370
    50
100
AcDbLine
 10
70.98962003009218
 20
138.4881800530739
 30
0.0
 11
70.98962003009218
 21
128.9956759328884
 31
0.0
  0
LINE
  5
DA
330
1F
100
AcDbEntity
  8
NoLayerName_001
  6
Continuous
 62
    30
370
    50
100
AcDbLine
 10
101.8354090376405
 20
127.6131800530739
 30
0.0
 11
101.8354090376405
 21
128.3631800530739
 31
0.0
  0
LINE
  5
DB
330
1F
100
AcDbEntity
  8
NoLayerName_001
  6
Continuous
 62
    30
370
    50
100
AcDbLine
 10
107.8354090376405
 20
183.1013898361481
 30
0.0
 11
59.0854090376405
 21
183.1013898361481
 31
0.0
  0
LINE
  5
DC
330
1F
100
AcDbEntity
  8
NoLayerName_001
  6
Continuous
 62
    30
370
    50
100
AcDbLine
 10
59.0854090376405
 20
170.726389836148
 30
0.0
 11
107.8354090376405
 21
170.726389836148
 31
0.0
  0
LINE
  5
DD
330
1F
100
AcDbEntity
  8
NoLayerName_001
  6
Continuous
 62
    30
370
    50
100
AcDbLine
 10
107.8354090376405
 20
170.726389836148
 30
0.0
 11
107.8354090376405
 21
183.101389836148
 31
0.0
  0
LINE
  5
DE
330
1F
100
AcDbEntity
  8
NoLayerName_001
  6
Continuous
 62
    30
370
    50
100
AcDbLine
 10
59.0854090376405
 20
170.726389836148
 30
0.0
 11
59.0854090376405
 21
183.101389836148
 31
0.0
  0
LINE
  5
DF
330
1F
100
AcDbEntity
  8
NoLayerName_001
  6
Continuous
 62
    30
370
    50
100
AcDbLine
 10
102.9604090376405
 20
174.007639836148
 30
0.0
 11
102.9604090376405
 21
179.820139836148
 31
0.0
  0
LINE
  5
E0
330
1F
100
AcDbEntity
  8
NoLayerName_001
  6
CENTER
 62
     3
370
    25
100
AcDbLine
 10
83.4604090376405
 20
168.9462775973769
 30
0.0
 11
83.4604090376405
 21
185.0572970719842
 31
0.0
  0
LINE
  5
E1
330
1F
100
AcDbEntity
  8
NoLayerName_001
  6
Continuous
 62
    30
370
    50
100
AcDbLine
 10
101.8354090376405
 20
181.2263898361481
 30
0.0
 11
101.8354090376405
 21
179.7263898361481
 31
0.0
  0
LINE
  5
E2
330
1F
100
AcDbEntity
  8
NoLayerName_001
  6
Continuous
 62
    30
370
    50
100
AcDbLine
 10
101.8354090376405
 20
172.601389836148
 30
0.0
 11
101.8354090376405
 21
174.101389836148
 31
0.0
  0
LINE
  5
E3
330
1F
100
AcDbEntity
  8
NoLayerName_001
  6
Continuous
 62
    30
370
    50
100
AcDbLine
 10
71.4604090376405
 20
178.413889836148
 30
0.0
 11
95.46040903764073
 21
178.413889836148
 31
0.0
  0
LINE
  5
E4
330
1F
100
AcDbEntity
  8
NoLayerName_001
  6
Continuous
 62
    30
370
    50
100
AcDbLine
 10
71.4604090376405
 20
175.413889836148
 30
0.0
 11
95.46040903764049
 21
175.413889836148
 31
0.0
  0
LINE
  5
E5
330
1F
100
AcDbEntity
  8
NoLayerName_001
  6
Continuous
 62
    30
370
    50
100
AcDbLine
 10
101.6479090376405
 20
172.413889836148
 30
0.0
 11
62.0854090376405
 21
172.413889836148
 31
0.0
  0
LINE
  5
E6
330
1F
100
AcDbEntity
  8
NoLayerName_001
  6
Continuous
 62
    30
370
    50
100
AcDbLine
 10
101.6479090376405
 20
181.4138898361481
 30
0.0
 11
62.0854090376405
 21
181.4138898361481
 31
0.0
  0
LINE
  5
E7
330
1F
100
AcDbEntity
  8
NoLayerName_001
  6
CENTER
 62
     3
370
    25
100
AcDbLine
 10
58.58164431323435
 20
176.913889836148
 30
0.0
 11
109.8619396382558
 21
176.913889836148
 31
0.0
  0
LINE
  5
E8
330
1F
100
AcDbEntity
  8
NoLayerName_001
  6
Continuous
 62
    30
370
    50
100
AcDbLine
 10
101.8354090376405
 20
179.726389836148
 30
0.0
 11
102.9604090376405
 21
179.726389836148
 31
0.0
  0
LINE
  5
E9
330
1F
100
AcDbEntity
  8
NoLayerName_001
  6
Continuous
 62
    30
370
    50
100
AcDbLine
 10
101.8354090376405
 20
174.101389836148
 30
0.0
 11
102.9604090376405
 21
174.101389836148
 31
0.0
  0
LINE
  5
EA
330
1F
100
AcDbEntity
  8
NoLayerName_001
  6
Continuous
 62
    30
370
    50
100
AcDbLine
 10
60.2104090376405
 20
174.288889836148
 30
0.0
 11
60.2104090376405
 21
179.538889836148
 31
0.0
  0
ARC
  5
EB
330
1F
100
AcDbEntity
  8
NoLayerName_001
  6
Continuous
 62
    30
370
    50
100
AcDbCircle
 10
62.0854090376405
 20
179.538889836148
 30
0.0
 40
1.875
100
AcDbArc
 50
90.0
 51
180.0
  0
ARC
  5
EC
330
1F
100
AcDbEntity
  8
NoLayerName_001
  6
Continuous
 62
    30
370
    50
100
AcDbCircle
 10
62.0854090376405
 20
174.288889836148
 30
0.0
 40
1.875
100
AcDbArc
 50
180.0
 51
270.0
  0
ARC
  5
ED
330
1F
100
AcDbEntity
  8
NoLayerName_001
  6
Continuous
 62
    30
370
    50
100
AcDbCircle
 10
101.6479090376405
 20
172.601389836148
 30
0.0
 40
0.1875
100
AcDbArc
 50
270.0
 51
0.0
  0
ARC
  5
EE
330
1F
100
AcDbEntity
  8
NoLayerName_001
  6
Continuous
 62
    30
370
    50
100
AcDbCircle
 10
101.6479090376405
 20
181.2263898361481
 30
0.0
 40
0.1875
100
AcDbArc
 50
0.0
 51
90.0
  0
LINE
  5
EF
330
1F
100
AcDbEntity
  8
NoLayerName_001
  6
Continuous
 62
    30
370
    50
100
AcDbLine
 10
102.6979090376405
 20
174.101389836148
 30
0.0
 11
102.6979090376405
 21
179.726389836148
 31
0.0
  0
ARC
  5
F0
330
1F
100
AcDbEntity
  8
NoLayerName_001
  6
Continuous
 62
    30
370
    50
100
AcDbCircle
 10
73.61462003009218
 20
176.9138898361482
 30
0.0
 40
2.625
100
AcDbArc
 50
145.1500954209537
 51
214.8499045790465
  0
LINE
  5
F1
330
1F
100
AcDbEntity
  8
NoLayerName_001
  6
Continuous
 62
    30
370
    50
100
AcDbLine
 10
71.4604090376405
 20
172.413889836148
 30
0.0
 11
71.4604090376405
 21
175.413889836148
 31
0.0
  0
LINE
  5
F2
330
1F
100
AcDbEntity
  8
NoLayerName_001
  6
Continuous
 62
    30
370
    50
100
AcDbLine
 10
71.4604090376405
 20
178.413889836148
 30
0.0
 11
71.4604090376405
 21
181.413889836148
 31
0.0
  0
LINE
  5
F3
330
1F
100
AcDbEntity
  8
NoLayerName_001
  6
Continuous
 62
    30
370
    50
100
AcDbLine
 10
95.4604090376405
 20
178.413889836148
 30
0.0
 11
95.4604090376405
 21
181.413889836148
 31
0.0
  0
ARC
  5
F4
330
1F
100
AcDbEntity
  8
NoLayerName_001
  6
Continuous
 62
    30
370
    50
100
AcDbCircle
 10
93.30619804518882
 20
176.9138898361482
 30
0.0
 40
2.625
100
AcDbArc
 50
325.1500954209535
 51
34.8499045790463
  0
LINE
  5
F5
330
1F
100
AcDbEntity
  8
NoLayerName_001
  6
Continuous
 62
    30
370
    50
100
AcDbLine
 10
95.4604090376405
 20
172.413889836148
 30
0.0
 11
95.4604090376405
 21
175.413889836148
 31
0.0
  0
LINE
  5
F6
330
1F
100
AcDbEntity
  8
NoLayerName_001
  6
Continuous
 62
    30
370
    50
100
AcDbLine
 10
101.8354090376405
 20
174.007639836148
 30
0.0
 11
102.9604090376405
 21
174.007639836148
 31
0.0
  0
LINE
  5
F7
330
1F
100
AcDbEntity
  8
NoLayerName_001
  6
Continuous
 62
    30
370
    50
100
AcDbLine
 10
101.8354090376405
 20
179.820139836148
 30
0.0
 11
102.9604090376405
 21
179.820139836148
 31
0.0
  0
LINE
  5
F8
330
1F
100
AcDbEntity
  8
NoLayerName_001
  6
Continuous
 62
    30
370
    50
100
AcDbLine
 10
149.4629690326346
 20
127.6131800530739
 30
0.0
 11
139.7129690326346
 21
127.6131800530739
 31
0.0
  0
LINE
  5
F9
330
1F
100
AcDbEntity
  8
NoLayerName_001
  6
Continuous
 62
    30
370
    50
100
AcDbLine
 10
150.7754690326346
 20
126.3006800530739
 30
0.0
 11
150.7754690326346
 21
121.9881800530739
 31
0.0
  0
LINE
  5
FA
330
1F
100
AcDbEntity
  8
NoLayerName_001
  6
Continuous
 62
    30
370
    50
100
AcDbLine
 10
147.4942190326346
 20
126.8631800530739
 30
0.0
 11
147.4942190326346
 21
126.7506800530739
 31
0.0
  0
LINE
  5
FB
330
1F
100
AcDbEntity
  8
NoLayerName_001
  6
Continuous
 62
    30
370
    50
100
AcDbLine
 10
138.4004690326347
 20
126.3006800530739
 30
0.0
 11
138.4004690326347
 21
121.9881800530739
 31
0.0
  0
LINE
  5
FC
330
1F
100
AcDbEntity
  8
NoLayerName_001
  6
Continuous
 62
    30
370
    50
100
AcDbLine
 10
147.8692190326346
 20
126.7506800530739
 30
0.0
 11
147.8692190326346
 21
126.8631800530739
 31
0.0
  0
LINE
  5
FD
330
1F
100
AcDbEntity
  8
NoLayerName_001
  6
Continuous
 62
    30
370
    50
100
AcDbLine
 10
150.7754690326346
 20
121.9881800530739
 30
0.0
 11
150.0254690326346
 21
121.9881800530739
 31
0.0
  0
LINE
  5
FE
330
1F
100
AcDbEntity
  8
NoLayerName_001
  6
Continuous
 62
    30
370
    50
100
AcDbLine
 10
139.1504690326347
 20
121.9881800530739
 30
0.0
 11
138.4004690326347
 21
121.9881800530739
 31
0.0
  0
LINE
  5
FF
330
1F
100
AcDbEntity
  8
NoLayerName_001
  6
Continuous
 62
    30
370
    50
100
AcDbLine
 10
142.2432098350878
 20
125.7381800530739
 30
0.0
 11
146.9327282301815
 21
125.7381800530739
 31
0.0
  0
LINE
  5
100
330
1F
100
AcDbEntity
  8
NoLayerName_001
  6
Continuous
 62
    30
370
    50
100
AcDbLine
 10
146.9327282301814
 20
125.7381800530739
 30
0.0
 11
147.1952282301814
 21
126.0006800530739
 31
0.0
  0
LINE
  5
101
330
1F
100
AcDbEntity
  8
NoLayerName_001
  6
Continuous
 62
    30
370
    50
100
AcDbLine
 10
147.9452282301814
 20
126.7506800530739
 30
0.0
 11
148.0577282301814
 21
126.8631800530739
 31
0.0
  0
LINE
  5
102
330
1F
100
AcDbEntity
  8
NoLayerName_001
  6
Continuous
 62
    30
370
    50
100
AcDbLine
 10
141.6817190326346
 20
126.8631800530739
 30
0.0
 11
141.6817190326346
 21
126.7506800530739
 31
0.0
  0
LINE
  5
103
330
1F
100
AcDbEntity
  8
NoLayerName_001
  6
Continuous
 62
    30
370
    50
100
AcDbLine
 10
141.3067190326346
 20
126.7506800530739
 30
0.0
 11
141.3067190326346
 21
126.8631800530739
 31
0.0
  0
LINE
  5
104
330
1F
100
AcDbEntity
  8
NoLayerName_001
  6
Continuous
 62
    30
370
    50
100
AcDbLine
 10
142.2432098350878
 20
125.7381800530739
 30
0.0
 11
141.9807098350878
 21
126.0006800530739
 31
0.0
  0
LINE
  5
105
330
1F
100
AcDbEntity
  8
NoLayerName_001
  6
Continuous
 62
    30
370
    50
100
AcDbLine
 10
141.2307098350878
 20
126.7506800530739
 30
0.0
 11
141.1182098350878
 21
126.8631800530739
 31
0.0
  0
LINE
  5
106
330
1F
100
AcDbEntity
  8
NoLayerName_001
  6
Continuous
 62
    30
370
    50
100
AcDbLine
 10
150.0254690326346
 20
126.3006800530739
 30
0.0
 11
150.0254690326346
 21
121.9881800530739
 31
0.0
  0
LINE
  5
107
330
1F
100
AcDbEntity
  8
NoLayerName_001
  6
Continuous
 62
    30
370
    50
100
AcDbLine
 10
149.4629690326346
 20
126.8631800530739
 30
0.0
 11
139.7129690326346
 21
126.8631800530739
 31
0.0
  0
LINE
  5
108
330
1F
100
AcDbEntity
  8
NoLayerName_001
  6
Continuous
 62
    30
370
    50
100
AcDbLine
 10
139.1504690326347
 20
126.3006800530739
 30
0.0
 11
139.1504690326347
 21
121.9881800530739
 31
0.0
  0
ARC
  5
109
330
1F
100
AcDbEntity
  8
NoLayerName_001
  6
Continuous
 62
    30
370
    50
100
AcDbCircle
 10
149.4629690326346
 20
126.3006800530739
 30
0.0
 40
0.5625
100
AcDbArc
 50
0.0
 51
90.0
  0
ARC
  5
10A
330
1F
100
AcDbEntity
  8
NoLayerName_001
  6
Continuous
 62
    30
370
    50
100
AcDbCircle
 10
149.4629690326346
 20
126.3006800530739
 30
0.0
 40
1.3125
100
AcDbArc
 50
0.0
 51
90.0
  0
ARC
  5
10B
330
1F
100
AcDbEntity
  8
NoLayerName_001
  6
Continuous
 62
    30
370
    50
100
AcDbCircle
 10
139.7129690326346
 20
126.3006800530739
 30
0.0
 40
0.5625
100
AcDbArc
 50
90.0
 51
180.0
  0
ARC
  5
10C
330
1F
100
AcDbEntity
  8
NoLayerName_001
  6
Continuous
 62
    30
370
    50
100
AcDbCircle
 10
139.7129690326346
 20
126.3006800530739
 30
0.0
 40
1.3125
100
AcDbArc
 50
90.0
 51
180.0
  0
LINE
  5
10D
330
1F
100
AcDbEntity
  8
NoLayerName_001
  6
CENTER
 62
     3
370
    25
100
AcDbLine
 10
144.5879690326346
 20
152.5240062988306
 30
0.0
 11
144.5879690326346
 21
119.4635073533915
 31
0.0
  0
LINE
  5
10E
330
1F
100
AcDbEntity
  8
NoLayerName_001
  6
Continuous
 62
    30
370
    50
100
AcDbLine
 10
149.0879690326346
 20
150.4881800530739
 30
0.0
 11
149.0879690326346
 21
127.6131800530739
 31
0.0
  0
LINE
  5
10F
330
1F
100
AcDbEntity
  8
NoLayerName_001
  6
Continuous
 62
    30
370
    50
100
AcDbLine
 10
140.0879690326346
 20
150.4881800530739
 30
0.0
 11
140.0879690326346
 21
127.6131800530739
 31
0.0
  0
LINE
  5
110
330
1F
100
AcDbEntity
  8
NoLayerName_001
  6
Continuous
 62
    30
370
    50
100
AcDbLine
 10
140.0879690326346
 20
128.3631800530739
 30
0.0
 11
149.0879690326346
 21
128.3631800530739
 31
0.0
  0
LINE
  5
111
330
1F
100
AcDbEntity
  8
NoLayerName_001
  6
Continuous
 62
    30
370
    50
100
AcDbLine
 10
143.0879690326347
 20
150.4881800530739
 30
0.0
 11
143.0879690326347
 21
128.3631800530739
 31
0.0
  0
LINE
  5
112
330
1F
100
AcDbEntity
  8
NoLayerName_001
  6
Continuous
 62
    30
370
    50
100
AcDbLine
 10
146.0879690326346
 20
150.4881800530739
 30
0.0
 11
146.0879690326346
 21
128.3631800530739
 31
0.0
  0
ARC
  5
113
330
1F
100
AcDbEntity
  8
NoLayerName_001
  6
Continuous
 62
    30
370
    50
100
AcDbCircle
 10
144.5879690326348
 20
148.3339690606222
 30
0.0
 40
2.625
100
AcDbArc
 50
55.15009542095372
 51
124.8499045790465
  0
LINE
  5
114
330
1F
100
AcDbEntity
  8
NoLayerName_001
  6
Continuous
 62
    30
370
    50
100
AcDbLine
 10
140.0879690326346
 20
150.4881800530739
 30
0.0
 11
143.0879690326347
 21
150.4881800530739
 31
0.0
  0
LINE
  5
115
330
1F
100
AcDbEntity
  8
NoLayerName_001
  6
Continuous
 62
    30
370
    50
100
AcDbLine
 10
146.0879690326346
 20
150.4881800530739
 30
0.0
 11
149.0879690326346
 21
150.4881800530739
 31
0.0
  0
LINE
  5
116
330
1F
100
AcDbEntity
  8
NoLayerName_001
  6
CENTER
 62
     3
370
    25
100
AcDbLine
 10
137.6557811167005
 20
138.4881800530739
 30
0.0
 11
152.3417050853834
 21
138.4881800530739
 31
0.0
  0
LINE
  5
117
330
1F
100
AcDbEntity
  8
NoLayerName_001
  6
Continuous
 62
     3
370
    50
100
AcDbLine
 10
64.20040903764051
 20
177.0488898361479
 30
0.0
 11
63.75415903764052
 21
177.0488898361479
 31
0.0
  0
LINE
  5
118
330
1F
100
AcDbEntity
  8
NoLayerName_001
  6
Continuous
 62
     3
370
    50
100
AcDbLine
 10
65.22040903764052
 20
177.0488898361479
 30
0.0
 11
65.66665903764051
 21
177.0488898361479
 31
0.0
  0
LINE
  5
119
330
1F
100
AcDbEntity
  8
NoLayerName_001
  6
Continuous
 62
     3
370
    50
100
AcDbLine
 10
64.20040903764051
 20
176.778889836148
 30
0.0
 11
63.75415903764052
 21
176.778889836148
 31
0.0
  0
LINE
  5
11A
330
1F
100
AcDbEntity
  8
NoLayerName_001
  6
Continuous
 62
     3
370
    50
100
AcDbLine
 10
65.22040903764052
 20
176.778889836148
 30
0.0
 11
65.66665903764051
 21
176.778889836148
 31
0.0
  0
LINE
  5
11B
330
1F
100
AcDbEntity
  8
NoLayerName_001
  6
Continuous
 62
     3
370
    50
100
AcDbLine
 10
64.84540903764052
 20
177.4238898361479
 30
0.0
 11
64.84540903764052
 21
177.8701398361479
 31
0.0
  0
LINE
  5
11C
330
1F
100
AcDbEntity
  8
NoLayerName_001
  6
Continuous
 62
     3
370
    50
100
AcDbLine
 10
64.84540903764052
 20
176.403889836148
 30
0.0
 11
64.84540903764052
 21
175.957639836148
 31
0.0
  0
LINE
  5
11D
330
1F
100
AcDbEntity
  8
NoLayerName_001
  6
Continuous
 62
     3
370
    50
100
AcDbLine
 10
64.57540903764051
 20
177.4238898361479
 30
0.0
 11
64.57540903764051
 21
177.8701398361479
 31
0.0
  0
LINE
  5
11E
330
1F
100
AcDbEntity
  8
NoLayerName_001
  6
Continuous
 62
     3
370
    50
100
AcDbLine
 10
64.57540903764051
 20
176.403889836148
 30
0.0
 11
64.57540903764051
 21
175.957639836148
 31
0.0
  0
CIRCLE
  5
11F
330
1F
100
AcDbEntity
  8
NoLayerName_001
  6
Continuous
 62
     3
370
    50
100
AcDbCircle
 10
64.7104090376405
 20
176.913889836148
 30
0.0
 40
1.78125
  0
LINE
  5
120
330
1F
100
AcDbEntity
  8
NoLayerName_001
  6
Continuous
 62
     3
370
    50
100
AcDbLine
 10
64.57540903764051
 20
177.8701398361479
 30
0.0
 11
64.84540903764051
 21
177.8701398361479
 31
0.0
  0
LINE
  5
121
330
1F
100
AcDbEntity
  8
NoLayerName_001
  6
Continuous
 62
     3
370
    50
100
AcDbLine
 10
63.75415903764052
 20
176.778889836148
 30
0.0
 11
63.75415903764052
 21
177.048889836148
 31
0.0
  0
LINE
  5
122
330
1F
100
AcDbEntity
  8
NoLayerName_001
  6
Continuous
 62
     3
370
    50
100
AcDbLine
 10
64.84540903764052
 20
175.957639836148
 30
0.0
 11
64.57540903764053
 21
175.957639836148
 31
0.0
  0
LINE
  5
123
330
1F
100
AcDbEntity
  8
NoLayerName_001
  6
Continuous
 62
     3
370
    50
100
AcDbLine
 10
65.66665903764054
 20
177.0488898361479
 30
0.0
 11
65.66665903764054
 21
176.7788898361479
 31
0.0
  0
ARC
  5
124
330
1F
100
AcDbEntity
  8
NoLayerName_001
  6
Continuous
 62
     3
370
    50
100
AcDbCircle
 10
65.22040903764052
 20
176.403889836148
 30
0.0
 40
0.375
100
AcDbArc
 50
90.0
 51
180.0
  0
ARC
  5
125
330
1F
100
AcDbEntity
  8
NoLayerName_001
  6
Continuous
 62
     3
370
    50
100
AcDbCircle
 10
65.22040903764052
 20
177.4238898361479
 30
0.0
 40
0.375
100
AcDbArc
 50
180.0
 51
270.0
  0
ARC
  5
126
330
1F
100
AcDbEntity
  8
NoLayerName_001
  6
Continuous
 62
     3
370
    50
100
AcDbCircle
 10
64.20040903764051
 20
177.4238898361479
 30
0.0
 40
0.375
100
AcDbArc
 50
270.0
 51
0.0
  0
ARC
  5
127
330
1F
100
AcDbEntity
  8
NoLayerName_001
  6
Continuous
 62
     3
370
    50
100
AcDbCircle
 10
64.20040903764051
 20
176.403889836148
 30
0.0
 40
0.375
100
AcDbArc
 50
0.0
 51
90.0
  0
LINE
  5
128
330
1F
100
AcDbEntity
  8
NoLayerName_001
  6
Continuous
 62
     3
370
    50
100
AcDbLine
 10
62.9291590376405
 20
128.8398541572357
 30
0.0
 11
62.9291590376405
 21
128.363180053074
 31
0.0
  0
ARC
  5
129
330
1F
100
AcDbEntity
  8
NoLayerName_001
  6
Continuous
 62
     3
370
    50
100
AcDbCircle
 10
64.7104090376405
 20
126.7506800530739
 30
0.0
 40
3.0
100
AcDbArc
 50
92.5791810516485
 51
119.4844612837014
  0
ARC
  5
12A
330
1F
100
AcDbEntity
  8
NoLayerName_001
  6
Continuous
 62
     3
370
    50
100
AcDbCircle
 10
63.52915903764053
 20
128.8398541572357
 30
0.0
 40
0.6000000000000001
100
AcDbArc
 50
119.4844612837014
 51
180.0
  0
LINE
  5
12B
330
1F
100
AcDbEntity
  8
NoLayerName_001
  6
Continuous
 62
     3
370
    50
100
AcDbLine
 10
64.57540903764051
 20
129.5435218648111
 30
0.0
 11
64.57540903764051
 21
129.7476410137807
 31
0.0
  0
LINE
  5
12C
330
1F
100
AcDbEntity
  8
NoLayerName_001
  6
Continuous
 62
     3
370
    50
100
AcDbLine
 10
64.84540903764052
 20
129.5435218648111
 30
0.0
 11
64.57540903764051
 21
129.5435218648111
 31
0.0
  0
ARC
  5
12D
330
1F
100
AcDbEntity
  8
NoLayerName_001
  6
Continuous
 62
     3
370
    50
100
AcDbCircle
 10
64.7104090376405
 20
126.7506800530739
 30
0.0
 40
3.0
100
AcDbArc
 50
60.5155387162986
 51
87.42081894835168
  0
LINE
  5
12E
330
1F
100
AcDbEntity
  8
NoLayerName_001
  6
Continuous
 62
     3
370
    50
100
AcDbLine
 10
64.84540903764052
 20
129.5435218648111
 30
0.0
 11
64.84540903764052
 21
129.7476410137807
 31
0.0
  0
ARC
  5
12F
330
1F
100
AcDbEntity
  8
NoLayerName_001
  6
Continuous
 62
     3
370
    50
100
AcDbCircle
 10
65.89165903764051
 20
128.8398541572357
 30
0.0
 40
0.6000000000000001
100
AcDbArc
 50
0.0
 51
60.51553871629859
  0
LINE
  5
130
330
1F
100
AcDbEntity
  8
NoLayerName_001
  6
Continuous
 62
     3
370
    50
100
AcDbLine
 10
66.4916590376405
 20
128.8398541572357
 30
0.0
 11
66.4916590376405
 21
128.363180053074
 31
0.0
  0
LINE
  5
131
330
1F
100
AcDbEntity
  8
NoLayerName_001
  6
Continuous
 62
    30
370
    50
100
AcDbLine
 10
140.0879690326346
 20
126.0006800530739
 30
0.0
 11
149.0879690326346
 21
126.0006800530739
 31
0.0
  0
LINE
  5
132
330
1F
100
AcDbEntity
  8
NoLayerName_001
  6
Continuous
 62
    30
370
    50
100
AcDbLine
 10
149.0879690326346
 20
126.7506800530739
 30
0.0
 11
149.0879690326346
 21
126.0006800530739
 31
0.0
  0
LINE
  5
133
330
1F
100
AcDbEntity
  8
NoLayerName_001
  6
Continuous
 62
    30
370
    50
100
AcDbLine
 10
140.0879690326346
 20
126.7506800530739
 30
0.0
 11
149.0879690326346
 21
126.7506800530739
 31
0.0
  0
LINE
  5
134
330
1F
100
AcDbEntity
  8
NoLayerName_001
  6
Continuous
 62
    30
370
    50
100
AcDbLine
 10
140.0879690326346
 20
126.7506800530739
 30
0.0
 11
140.0879690326346
 21
126.0006800530739
 31
0.0
  0
ARC
  5
135
330
1F
100
AcDbEntity
  8
NoLayerName_001
  6
Continuous
 62
    30
370
    50
100
AcDbCircle
 10
83.4604090376405
 20
138.4881800530739
 30
0.0
 40
11.25
100
AcDbArc
 50
0.0
 51
180.0
  0
LINE
  5
136
330
1F
100
AcDbEntity
  8
NoLayerName_001
  6
Continuous
 62
    30
370
    50
100
AcDbLine
 10
138.0569967771465
 20
183.3514593576939
 30
0.0
 11
148.3069967771465
 21
183.3514593576939
 31
0.0
  0
LINE
  5
137
330
1F
100
AcDbEntity
  8
NoLayerName_001
  6
Continuous
 62
    30
370
    50
100
AcDbLine
 10
138.0569967771465
 20
179.3514593576939
 30
0.0
 11
148.3069967771465
 21
179.3514593576939
 31
0.0
  0
LINE
  5
138
330
1F
100
AcDbEntity
  8
NoLayerName_001
  6
Continuous
 62
    30
370
    50
100
AcDbLine
 10
140.5569967771465
 20
181.6014593576939
 30
0.0
 11
148.3069967771465
 21
181.6014593576939
 31
0.0
  0
LINE
  5
139
330
1F
100
AcDbEntity
  8
NoLayerName_001
  6
Continuous
 62
    30
370
    50
100
AcDbLine
 10
140.5569967771465
 20
181.6014593576939
 30
0.0
 11
140.5569967771465
 21
181.1014593576939
 31
0.0
  0
LINE
  5
13A
330
1F
100
AcDbEntity
  8
NoLayerName_001
  6
Continuous
 62
    30
370
    50
100
AcDbLine
 10
155.6043647171621
 20
182.3514593576939
 30
0.0
 11
155.6043647171621
 21
180.3514593576939
 31
0.0
  0
LINE
  5
13B
330
1F
100
AcDbEntity
  8
NoLayerName_001
  6
Continuous
 62
    30
370
    50
100
AcDbLine
 10
136.8543647171621
 20
183.7514593576938
 30
0.0
 11
136.8543647171621
 21
178.9514593576939
 31
0.0
  0
LINE
  5
13C
330
1F
100
AcDbEntity
  8
NoLayerName_001
  6
Continuous
 62
    30
370
    25
100
AcDbLine
 10
140.5569967771465
 20
183.0881260243605
 30
0.0
 11
140.5569967771465
 21
182.1147926910272
 31
0.0
  0
LINE
  5
13D
330
1F
100
AcDbEntity
  8
NoLayerName_001
  6
Continuous
 62
    30
370
    25
100
AcDbLine
 10
147.3069967771465
 20
183.0881260243605
 30
0.0
 11
147.3069967771465
 21
182.1147926910272
 31
0.0
  0
LINE
  5
13E
330
1F
100
AcDbEntity
  8
NoLayerName_001
  6
Continuous
 62
    30
370
    25
100
AcDbLine
 10
140.7694967771464
 20
182.0014593576938
 30
0.0
 11
142.5944967771465
 21
182.0014593576938
 31
0.0
  0
LINE
  5
13F
330
1F
100
AcDbEntity
  8
NoLayerName_001
  6
Continuous
 62
    30
370
    25
100
AcDbLine
 10
143.0194967771464
 20
182.0014593576938
 30
0.0
 11
144.8444967771465
 21
182.0014593576938
 31
0.0
  0
LINE
  5
140
330
1F
100
AcDbEntity
  8
NoLayerName_001
  6
Continuous
 62
    30
370
    25
100
AcDbLine
 10
145.2694967771464
 20
182.0014593576938
 30
0.0
 11
147.0944967771465
 21
182.0014593576938
 31
0.0
  0
LINE
  5
141
330
1F
100
AcDbEntity
  8
NoLayerName_001
  6
Continuous
 62
    30
370
    25
100
AcDbLine
 10
140.5569967771465
 20
182.1147926910272
 30
0.0
 11
141.4694967771465
 21
182.6014593576939
 31
0.0
  0
LINE
  5
142
330
1F
100
AcDbEntity
  8
NoLayerName_001
  6
Continuous
 62
    30
370
    25
100
AcDbLine
 10
141.6819967771466
 20
182.7147926910272
 30
0.0
 11
142.5944967771465
 21
183.2014593576939
 31
0.0
  0
LINE
  5
143
330
1F
100
AcDbEntity
  8
NoLayerName_001
  6
Continuous
 62
    30
370
    25
100
AcDbLine
 10
140.7694967771464
 20
182.0014593576938
 30
0.0
 11
141.6819967771465
 21
182.4881260243605
 31
0.0
  0
LINE
  5
144
330
1F
100
AcDbEntity
  8
NoLayerName_001
  6
Continuous
 62
    30
370
    25
100
AcDbLine
 10
141.8944967771465
 20
182.6014593576939
 30
0.0
 11
142.8069967771465
 21
183.0881260243605
 31
0.0
  0
LINE
  5
145
330
1F
100
AcDbEntity
  8
NoLayerName_001
  6
Continuous
 62
    30
370
    25
100
AcDbLine
 10
140.7694967771465
 20
183.2014593576939
 30
0.0
 11
141.6819967771465
 21
182.7147926910272
 31
0.0
  0
LINE
  5
146
330
1F
100
AcDbEntity
  8
NoLayerName_001
  6
Continuous
 62
    30
370
    25
100
AcDbLine
 10
141.8944967771465
 20
182.6014593576939
 30
0.0
 11
142.8069967771465
 21
182.1147926910272
 31
0.0
  0
LINE
  5
147
330
1F
100
AcDbEntity
  8
NoLayerName_001
  6
Continuous
 62
    30
370
    25
100
AcDbLine
 10
140.5569967771465
 20
183.0881260243605
 30
0.0
 11
141.4694967771464
 21
182.6014593576939
 31
0.0
  0
LINE
  5
148
330
1F
100
AcDbEntity
  8
NoLayerName_001
  6
Continuous
 62
    30
370
    25
100
AcDbLine
 10
141.6819967771466
 20
182.4881260243605
 30
0.0
 11
142.5944967771466
 21
182.0014593576938
 31
0.0
  0
LINE
  5
149
330
1F
100
AcDbEntity
  8
NoLayerName_001
  6
Continuous
 62
    30
370
    25
100
AcDbLine
 10
142.8069967771466
 20
182.1147926910272
 30
0.0
 11
143.7194967771466
 21
182.6014593576938
 31
0.0
  0
LINE
  5
14A
330
1F
100
AcDbEntity
  8
NoLayerName_001
  6
Continuous
 62
    30
370
    25
100
AcDbLine
 10
143.9319967771465
 20
182.7147926910272
 30
0.0
 11
144.8444967771464
 21
183.2014593576939
 31
0.0
  0
LINE
  5
14B
330
1F
100
AcDbEntity
  8
NoLayerName_001
  6
Continuous
 62
    30
370
    25
100
AcDbLine
 10
143.0194967771464
 20
182.0014593576938
 30
0.0
 11
143.9319967771465
 21
182.4881260243605
 31
0.0
  0
LINE
  5
14C
330
1F
100
AcDbEntity
  8
NoLayerName_001
  6
Continuous
 62
    30
370
    25
100
AcDbLine
 10
144.1444967771464
 20
182.6014593576939
 30
0.0
 11
145.0569967771464
 21
183.0881260243605
 31
0.0
  0
LINE
  5
14D
330
1F
100
AcDbEntity
  8
NoLayerName_001
  6
Continuous
 62
    30
370
    25
100
AcDbLine
 10
145.0569967771465
 20
182.1147926910272
 30
0.0
 11
144.1444967771465
 21
182.6014593576939
 31
0.0
  0
LINE
  5
14E
330
1F
100
AcDbEntity
  8
NoLayerName_001
  6
Continuous
 62
    30
370
    25
100
AcDbLine
 10
143.9319967771465
 20
182.7147926910272
 30
0.0
 11
143.0194967771465
 21
183.2014593576939
 31
0.0
  0
LINE
  5
14F
330
1F
100
AcDbEntity
  8
NoLayerName_001
  6
Continuous
 62
    30
370
    25
100
AcDbLine
 10
142.8069967771465
 20
183.0881260243605
 30
0.0
 11
143.7194967771465
 21
182.6014593576939
 31
0.0
  0
LINE
  5
150
330
1F
100
AcDbEntity
  8
NoLayerName_001
  6
Continuous
 62
    30
370
    25
100
AcDbLine
 10
143.9319967771465
 20
182.4881260243605
 30
0.0
 11
144.8444967771465
 21
182.0014593576938
 31
0.0
  0
LINE
  5
151
330
1F
100
AcDbEntity
  8
NoLayerName_001
  6
Continuous
 62
    30
370
    25
100
AcDbLine
 10
145.0569967771465
 20
183.0881260243605
 30
0.0
 11
145.9694967771465
 21
182.6014593576939
 31
0.0
  0
LINE
  5
152
330
1F
100
AcDbEntity
  8
NoLayerName_001
  6
Continuous
 62
    30
370
    25
100
AcDbLine
 10
146.1819967771465
 20
182.4881260243605
 30
0.0
 11
147.0944967771465
 21
182.0014593576938
 31
0.0
  0
LINE
  5
153
330
1F
100
AcDbEntity
  8
NoLayerName_001
  6
Continuous
 62
    30
370
    25
100
AcDbLine
 10
147.3069967771465
 20
182.1147926910272
 30
0.0
 11
146.3944967771465
 21
182.6014593576939
 31
0.0
  0
LINE
  5
154
330
1F
100
AcDbEntity
  8
NoLayerName_001
  6
Continuous
 62
    30
370
    25
100
AcDbLine
 10
146.1819967771465
 20
182.7147926910272
 30
0.0
 11
145.2694967771465
 21
183.2014593576939
 31
0.0
  0
LINE
  5
155
330
1F
100
AcDbEntity
  8
NoLayerName_001
  6
Continuous
 62
    30
370
    25
100
AcDbLine
 10
147.0944967771465
 20
183.2014593576939
 30
0.0
 11
146.1819967771465
 21
182.7147926910272
 31
0.0
  0
LINE
  5
156
330
1F
100
AcDbEntity
  8
NoLayerName_001
  6
Continuous
 62
    30
370
    25
100
AcDbLine
 10
145.9694967771465
 20
182.6014593576939
 30
0.0
 11
145.0569967771465
 21
182.1147926910272
 31
0.0
  0
LINE
  5
157
330
1F
100
AcDbEntity
  8
NoLayerName_001
  6
Continuous
 62
    30
370
    25
100
AcDbLine
 10
145.2694967771464
 20
182.0014593576938
 30
0.0
 11
146.1819967771465
 21
182.4881260243605
 31
0.0
  0
LINE
  5
158
330
1F
100
AcDbEntity
  8
NoLayerName_001
  6
Continuous
 62
    30
370
    25
100
AcDbLine
 10
146.3944967771465
 20
182.6014593576939
 30
0.0
 11
147.3069967771465
 21
183.0881260243605
 31
0.0
  0
LINE
  5
159
330
1F
100
AcDbEntity
  8
NoLayerName_001
  6
Continuous
 62
    30
370
    25
100
AcDbLine
 10
145.3632467771465
 20
183.1514593576938
 30
0.0
 11
147.0007467771465
 21
183.1514593576938
 31
0.0
  0
LINE
  5
15A
330
1F
100
AcDbEntity
  8
NoLayerName_001
  6
Continuous
 62
    30
370
    25
100
AcDbLine
 10
143.1132467771464
 20
183.1514593576938
 30
0.0
 11
144.7507467771464
 21
183.1514593576938
 31
0.0
  0
LINE
  5
15B
330
1F
100
AcDbEntity
  8
NoLayerName_001
  6
Continuous
 62
    30
370
    25
100
AcDbLine
 10
140.8757467771465
 20
182.0014593576938
 30
0.0
 11
141.6819967771465
 21
182.4314593576939
 31
0.0
  0
LINE
  5
15C
330
1F
100
AcDbEntity
  8
NoLayerName_001
  6
Continuous
 62
    30
370
    25
100
AcDbLine
 10
141.9476217771466
 20
182.5731260243606
 30
0.0
 11
142.8069967771465
 21
183.0314593576939
 31
0.0
  0
LINE
  5
15D
330
1F
100
AcDbEntity
  8
NoLayerName_001
  6
Continuous
 62
    30
370
    25
100
AcDbLine
 10
140.5569967771465
 20
183.0314593576938
 30
0.0
 11
141.4163717771465
 21
182.5731260243605
 31
0.0
  0
LINE
  5
15E
330
1F
100
AcDbEntity
  8
NoLayerName_001
  6
Continuous
 62
    30
370
    25
100
AcDbLine
 10
141.6819967771465
 20
182.4314593576939
 30
0.0
 11
142.4882467771465
 21
182.0014593576939
 31
0.0
  0
LINE
  5
15F
330
1F
100
AcDbEntity
  8
NoLayerName_001
  6
Continuous
 62
    30
370
    25
100
AcDbLine
 10
142.8069967771465
 20
183.0314593576938
 30
0.0
 11
143.6663717771465
 21
182.5731260243605
 31
0.0
  0
LINE
  5
160
330
1F
100
AcDbEntity
  8
NoLayerName_001
  6
Continuous
 62
    30
370
    25
100
AcDbLine
 10
143.9319967771465
 20
182.4314593576939
 30
0.0
 11
144.7382467771465
 21
182.0014593576939
 31
0.0
  0
LINE
  5
161
330
1F
100
AcDbEntity
  8
NoLayerName_001
  6
Continuous
 62
    30
370
    25
100
AcDbLine
 10
143.1257467771465
 20
182.0014593576938
 30
0.0
 11
143.9319967771465
 21
182.4314593576939
 31
0.0
  0
LINE
  5
162
330
1F
100
AcDbEntity
  8
NoLayerName_001
  6
Continuous
 62
    30
370
    25
100
AcDbLine
 10
144.1976217771465
 20
182.5731260243606
 30
0.0
 11
145.0569967771465
 21
183.0314593576939
 31
0.0
  0
LINE
  5
163
330
1F
100
AcDbEntity
  8
NoLayerName_001
  6
Continuous
 62
    30
370
    25
100
AcDbLine
 10
145.0569967771465
 20
183.0314593576938
 30
0.0
 11
145.9163717771465
 21
182.5731260243605
 31
0.0
  0
LINE
  5
164
330
1F
100
AcDbEntity
  8
NoLayerName_001
  6
Continuous
 62
    30
370
    25
100
AcDbLine
 10
146.1819967771465
 20
182.4314593576939
 30
0.0
 11
146.9882467771464
 21
182.0014593576939
 31
0.0
  0
LINE
  5
165
330
1F
100
AcDbEntity
  8
NoLayerName_001
  6
Continuous
 62
    30
370
    25
100
AcDbLine
 10
145.3757467771465
 20
182.0014593576938
 30
0.0
 11
146.1819967771465
 21
182.4314593576939
 31
0.0
  0
LINE
  5
166
330
1F
100
AcDbEntity
  8
NoLayerName_001
  6
Continuous
 62
    30
370
    25
100
AcDbLine
 10
146.4476217771465
 20
182.5731260243606
 30
0.0
 11
147.3069967771464
 21
183.0314593576939
 31
0.0
  0
LINE
  5
167
330
1F
100
AcDbEntity
  8
NoLayerName_001
  6
Continuous
 62
    30
370
    25
100
AcDbLine
 10
145.0569967771465
 20
183.0881260243605
 30
0.0
 11
145.0569967771465
 21
183.0314593576939
 31
0.0
  0
LINE
  5
168
330
1F
100
AcDbEntity
  8
NoLayerName_001
  6
Continuous
 62
    30
370
    25
100
AcDbLine
 10
142.8069967771465
 20
183.0881260243605
 30
0.0
 11
142.8069967771465
 21
183.0314593576939
 31
0.0
  0
LINE
  5
169
330
1F
100
AcDbEntity
  8
NoLayerName_001
  6
Continuous
 62
    30
370
    25
100
AcDbLine
 10
143.9319967771465
 20
182.4881260243605
 30
0.0
 11
143.9319967771465
 21
182.4314593576939
 31
0.0
  0
LINE
  5
16A
330
1F
100
AcDbEntity
  8
NoLayerName_001
  6
Continuous
 62
    30
370
    25
100
AcDbLine
 10
146.1819967771465
 20
182.4881260243605
 30
0.0
 11
146.1819967771465
 21
182.4314593576939
 31
0.0
  0
LINE
  5
16B
330
1F
100
AcDbEntity
  8
NoLayerName_001
  6
Continuous
 62
    30
370
    25
100
AcDbLine
 10
141.6819967771466
 20
182.4881260243605
 30
0.0
 11
141.6819967771466
 21
182.4314593576939
 31
0.0
  0
LINE
  5
16C
330
1F
100
AcDbEntity
  8
NoLayerName_001
  6
Continuous
 62
    30
370
    25
100
AcDbLine
 10
145.2694967771465
 20
183.2014593576939
 30
0.0
 11
147.0944967771465
 21
183.2014593576939
 31
0.0
  0
LINE
  5
16D
330
1F
100
AcDbEntity
  8
NoLayerName_001
  6
Continuous
 62
    30
370
    25
100
AcDbLine
 10
143.0194967771465
 20
183.2014593576939
 30
0.0
 11
144.8444967771465
 21
183.2014593576939
 31
0.0
  0
LINE
  5
16E
330
1F
100
AcDbEntity
  8
NoLayerName_001
  6
Continuous
 62
    30
370
    25
100
AcDbLine
 10
140.7694967771465
 20
183.2014593576939
 30
0.0
 11
142.5944967771465
 21
183.2014593576939
 31
0.0
  0
LINE
  5
16F
330
1F
100
AcDbEntity
  8
NoLayerName_001
  6
Continuous
 62
    30
370
    25
100
AcDbLine
 10
140.8632467771465
 20
183.1514593576938
 30
0.0
 11
142.5007467771465
 21
183.1514593576938
 31
0.0
  0
LINE
  5
170
330
1F
100
AcDbEntity
  8
NoLayerName_001
  6
Continuous
 62
    30
370
    25
100
AcDbLine
 10
151.6878748240858
 20
180.3514593576939
 30
0.0
 11
155.6043647171621
 21
180.3514593576939
 31
0.0
  0
LINE
  5
171
330
1F
100
AcDbEntity
  8
NoLayerName_001
  6
Continuous
 62
    30
370
    50
100
AcDbLine
 10
155.6043647171621
 20
180.3514593576939
 30
0.0
 11
155.3543647171621
 21
180.1014593576939
 31
0.0
  0
LINE
  5
172
330
1F
100
AcDbEntity
  8
NoLayerName_001
  6
Continuous
 62
    30
370
    50
100
AcDbLine
 10
151.6878748240858
 20
183.3514593576939
 30
0.0
 11
150.9378748240858
 21
183.3514593576939
 31
0.0
  0
LINE
  5
173
330
1F
100
AcDbEntity
  8
NoLayerName_001
  6
Continuous
 62
    30
370
    50
100
AcDbLine
 10
151.6878748240858
 20
179.3514593576939
 30
0.0
 11
150.9378748240858
 21
179.3514593576939
 31
0.0
  0
LINE
  5
174
330
1F
100
AcDbEntity
  8
NoLayerName_001
  6
Continuous
 62
    30
370
    50
100
AcDbLine
 10
150.9378748240858
 20
179.3514593576939
 30
0.0
 11
148.3069967771465
 21
179.7157347795778
 31
0.0
  0
LINE
  5
175
330
1F
100
AcDbEntity
  8
NoLayerName_001
  6
Continuous
 62
    30
370
    25
100
AcDbLine
 10
150.9378748240858
 20
182.1264593576938
 30
0.0
 11
150.9378748240858
 21
181.7764703571515
 31
0.0
  0
LINE
  5
176
330
1F
100
AcDbEntity
  8
NoLayerName_001
  6
Continuous
 62
    30
370
    25
100
AcDbLine
 10
150.9378748240858
 20
182.5264593576938
 30
0.0
 11
150.9378748240858
 21
182.1764593576938
 31
0.0
  0
LINE
  5
177
330
1F
100
AcDbEntity
  8
NoLayerName_001
  6
Continuous
 62
    30
370
    25
100
AcDbLine
 10
150.9378748240858
 20
182.9264593576939
 30
0.0
 11
150.9378748240858
 21
182.5764593576939
 31
0.0
  0
LINE
  5
178
330
1F
100
AcDbEntity
  8
NoLayerName_001
  6
Continuous
 62
    30
370
    25
100
AcDbLine
 10
150.9378748240858
 20
181.7264483582362
 30
0.0
 11
150.9378748240858
 21
181.3764593576938
 31
0.0
  0
LINE
  5
179
330
1F
100
AcDbEntity
  8
NoLayerName_001
  6
Continuous
 62
    30
370
    25
100
AcDbLine
 10
147.6878748240858
 20
181.3764593576938
 30
0.0
 11
150.9378748240858
 21
181.3764593576938
 31
0.0
  0
LINE
  5
17A
330
1F
100
AcDbEntity
  8
NoLayerName_001
  6
Continuous
 62
    30
370
    25
100
AcDbLine
 10
150.9378748240858
 20
182.9764593576939
 30
0.0
 11
150.9378748240858
 21
183.3009823431815
 31
0.0
  0
LINE
  5
17B
330
1F
100
AcDbEntity
  8
NoLayerName_001
  6
Continuous
 62
    30
370
    50
100
AcDbLine
 10
148.3069967771465
 20
183.3514593576939
 30
0.0
 11
148.3069967771465
 21
181.6014593576939
 31
0.0
  0
LINE
  5
17C
330
1F
100
AcDbEntity
  8
NoLayerName_001
  6
CENTER
 62
     3
370
    25
100
AcDbLine
 10
134.7423600601735
 20
181.3514593576939
 30
0.0
 11
156.2165714692372
 21
181.3514593576939
 31
0.0
  0
LINE
  5
17D
330
1F
100
AcDbEntity
  8
NoLayerName_001
  6
Continuous
 62
    30
370
    25
100
AcDbLine
 10
148.3069967771465
 20
181.6984192422649
 30
0.0
 11
150.9378748240857
 21
181.7764703571515
 31
0.0
  0
LINE
  5
17E
330
1F
100
AcDbEntity
  8
NoLayerName_001
  6
Continuous
 62
    30
370
    25
100
AcDbLine
 10
148.3069967771465
 20
181.6483972433496
 30
0.0
 11
150.9378748240857
 21
181.7264483582362
 31
0.0
  0
LINE
  5
17F
330
1F
100
AcDbEntity
  8
NoLayerName_001
  6
Continuous
 62
    30
370
    25
100
AcDbLine
 10
148.3069967771465
 20
181.9604522533336
 30
0.0
 11
150.9378748240857
 21
182.1264096675209
 31
0.0
  0
LINE
  5
180
330
1F
100
AcDbEntity
  8
NoLayerName_001
  6
Continuous
 62
    30
370
    25
100
AcDbLine
 10
148.3069967771465
 20
182.0105516336796
 30
0.0
 11
150.9378748240857
 21
182.1765090478668
 31
0.0
  0
LINE
  5
181
330
1F
100
AcDbEntity
  8
NoLayerName_001
  6
Continuous
 62
    30
370
    25
100
AcDbLine
 10
148.3069967771465
 20
182.2740296916043
 30
0.0
 11
150.9378748240857
 21
182.5263446482019
 31
0.0
  0
LINE
  5
182
330
1F
100
AcDbEntity
  8
NoLayerName_001
  6
Continuous
 62
    30
370
    25
100
AcDbLine
 10
148.3069967771465
 20
182.3242591105883
 30
0.0
 11
150.9378748240857
 21
182.5765740671858
 31
0.0
  0
LINE
  5
183
330
1F
100
AcDbEntity
  8
NoLayerName_001
  6
Continuous
 62
    30
370
    25
100
AcDbLine
 10
148.3069967771465
 20
182.6213507009028
 30
0.0
 11
150.9378748240857
 21
182.926291983055
 31
0.0
  0
LINE
  5
184
330
1F
100
AcDbEntity
  8
NoLayerName_001
  6
Continuous
 62
    30
370
    25
100
AcDbLine
 10
148.3069967771465
 20
182.6716854501805
 30
0.0
 11
150.9378556811144
 21
182.9766245134986
 31
0.0
  0
LINE
  5
185
330
1F
100
AcDbEntity
  8
NoLayerName_001
  6
Continuous
 62
    30
370
    25
100
AcDbLine
 10
148.3069967771465
 20
182.9367069212976
 30
0.0
 11
150.9378748240857
 21
183.3009823431815
 31
0.0
  0
LINE
  5
186
330
1F
100
AcDbEntity
  8
NoLayerName_001
  6
Continuous
 62
    30
370
    50
100
AcDbLine
 10
148.3069967771465
 20
182.98718393581
 30
0.0
 11
150.9378748240857
 21
183.3514593576938
 31
0.0
  0
LINE
  5
187
330
1F
100
AcDbEntity
  8
NoLayerName_001
  6
Continuous
 62
    30
370
    50
100
AcDbLine
 10
145.1878748240858
 20
181.6014593576939
 30
0.0
 11
145.1878748240858
 21
181.1014593576939
 31
0.0
  0
LINE
  5
188
330
1F
100
AcDbEntity
  8
NoLayerName_001
  6
Continuous
 62
    30
370
    25
100
AcDbLine
 10
155.3543647171621
 20
182.6014593576939
 30
0.0
 11
155.3543647171621
 21
180.1014593576939
 31
0.0
  0
LINE
  5
189
330
1F
100
AcDbEntity
  8
NoLayerName_001
  6
Continuous
 62
    30
370
    50
100
AcDbLine
 10
155.3543647171621
 20
182.6014593576939
 30
0.0
 11
155.6043647171621
 21
182.3514593576939
 31
0.0
  0
LINE
  5
18A
330
1F
100
AcDbEntity
  8
NoLayerName_001
  6
Continuous
 62
    30
370
    50
100
AcDbLine
 10
151.6878748240858
 20
183.3514593576939
 30
0.0
 11
151.6878748240858
 21
179.3514593576939
 31
0.0
  0
LINE
  5
18B
330
1F
100
AcDbEntity
  8
NoLayerName_001
  6
Continuous
 62
    30
370
    50
100
AcDbLine
 10
148.3069967771465
 20
181.1014593576939
 30
0.0
 11
148.3069967771465
 21
179.3514593576939
 31
0.0
  0
LINE
  5
18C
330
1F
100
AcDbEntity
  8
NoLayerName_001
  6
Continuous
 62
    30
370
    50
100
AcDbLine
 10
138.0569967771465
 20
179.8734772703486
 30
0.0
 11
136.854364717162
 21
178.9514593576939
 31
0.0
  0
LINE
  5
18D
330
1F
100
AcDbEntity
  8
NoLayerName_001
  6
Continuous
 62
    30
370
    50
100
AcDbLine
 10
138.0569967771465
 20
182.8294414450391
 30
0.0
 11
136.8543647171621
 21
183.7514593576938
 31
0.0
  0
LINE
  5
18E
330
1F
100
AcDbEntity
  8
NoLayerName_001
  6
Continuous
 62
    30
370
    50
100
AcDbLine
 10
138.0569967771465
 20
179.3514593576939
 30
0.0
 11
138.0569967771465
 21
183.3514593576939
 31
0.0
  0
LINE
  5
18F
330
1F
100
AcDbEntity
  8
NoLayerName_001
  6
Continuous
 62
    30
370
    50
100
AcDbLine
 10
148.3069967771465
 20
181.1014593576939
 30
0.0
 11
140.5569967771465
 21
181.1014593576939
 31
0.0
  0
LINE
  5
190
330
1F
100
AcDbEntity
  8
NoLayerName_001
  6
Continuous
 62
    30
370
    50
100
AcDbLine
 10
151.6878748240858
 20
182.6014593576939
 30
0.0
 11
155.3543647171621
 21
182.6014593576939
 31
0.0
  0
LINE
  5
191
330
1F
100
AcDbEntity
  8
NoLayerName_001
  6
Continuous
 62
    30
370
    50
100
AcDbLine
 10
155.3543647171621
 20
180.1014593576939
 30
0.0
 11
151.6878748240858
 21
180.1014593576939
 31
0.0
  0
LINE
  5
192
330
1F
100
AcDbEntity
  8
NoLayerName_001
  6
Continuous
 62
    30
370
    25
100
AcDbLine
 10
151.6878748240858
 20
182.3514593576939
 30
0.0
 11
155.6043647171621
 21
182.3514593576939
 31
0.0
  0
LINE
  5
193
330
1F
100
AcDbEntity
  8
NoLayerName_001
  6
Continuous
 62
    30
370
    25
100
AcDbLine
 10
150.9378748240858
 20
180.5764593576939
 30
0.0
 11
150.9378748240858
 21
180.9264483582363
 31
0.0
  0
LINE
  5
194
330
1F
100
AcDbEntity
  8
NoLayerName_001
  6
Continuous
 62
    30
370
    25
100
AcDbLine
 10
150.9378748240858
 20
180.1764593576938
 30
0.0
 11
150.9378748240858
 21
180.5264593576938
 31
0.0
  0
LINE
  5
195
330
1F
100
AcDbEntity
  8
NoLayerName_001
  6
Continuous
 62
    30
370
    25
100
AcDbLine
 10
150.9378748240858
 20
179.7764593576938
 30
0.0
 11
150.9378748240858
 21
180.1264593576938
 31
0.0
  0
LINE
  5
196
330
1F
100
AcDbEntity
  8
NoLayerName_001
  6
Continuous
 62
    30
370
    25
100
AcDbLine
 10
150.9378748240858
 20
180.9764703571514
 30
0.0
 11
150.9378748240858
 21
181.3264593576938
 31
0.0
  0
LINE
  5
197
330
1F
100
AcDbEntity
  8
NoLayerName_001
  6
Continuous
 62
    30
370
    25
100
AcDbLine
 10
147.6878748240858
 20
181.3264593576939
 30
0.0
 11
150.9378748240858
 21
181.3264593576939
 31
0.0
  0
LINE
  5
198
330
1F
100
AcDbEntity
  8
NoLayerName_001
  6
Continuous
 62
    30
370
    25
100
AcDbLine
 10
148.3069967771465
 20
181.0044994731228
 30
0.0
 11
150.9378748240857
 21
180.9264483582362
 31
0.0
  0
LINE
  5
199
330
1F
100
AcDbEntity
  8
NoLayerName_001
  6
Continuous
 62
    30
370
    25
100
AcDbLine
 10
148.3069967771465
 20
181.0545214720381
 30
0.0
 11
150.9378748240857
 21
180.9764703571515
 31
0.0
  0
LINE
  5
19A
330
1F
100
AcDbEntity
  8
NoLayerName_001
  6
Continuous
 62
    30
370
    25
100
AcDbLine
 10
148.3069967771465
 20
180.7424664620541
 30
0.0
 11
150.9378748240857
 21
180.5765090478669
 31
0.0
  0
LINE
  5
19B
330
1F
100
AcDbEntity
  8
NoLayerName_001
  6
Continuous
 62
    30
370
    25
100
AcDbLine
 10
148.3069967771465
 20
180.6923670817082
 30
0.0
 11
150.9378748240857
 21
180.5264096675209
 31
0.0
  0
LINE
  5
19C
330
1F
100
AcDbEntity
  8
NoLayerName_001
  6
Continuous
 62
    30
370
    25
100
AcDbLine
 10
148.3069967771465
 20
180.4288890237834
 30
0.0
 11
150.9378748240857
 21
180.1765740671858
 31
0.0
  0
LINE
  5
19D
330
1F
100
AcDbEntity
  8
NoLayerName_001
  6
Continuous
 62
    30
370
    25
100
AcDbLine
 10
148.3069967771465
 20
180.3786596047994
 30
0.0
 11
150.9378748240857
 21
180.1263446482018
 31
0.0
  0
LINE
  5
19E
330
1F
100
AcDbEntity
  8
NoLayerName_001
  6
Continuous
 62
    30
370
    25
100
AcDbLine
 10
148.3069967771465
 20
180.081568014485
 30
0.0
 11
150.9378748240857
 21
179.7766267323327
 31
0.0
  0
LINE
  5
19F
330
1F
100
AcDbEntity
  8
NoLayerName_001
  6
Continuous
 62
    30
370
    25
100
AcDbLine
 10
148.3069967771465
 20
180.0312332652072
 30
0.0
 11
150.9378556811144
 21
179.7262942018892
 31
0.0
  0
LINE
  5
1A0
330
1F
100
AcDbEntity
  8
NoLayerName_001
  6
Continuous
 62
    30
370
    25
100
AcDbLine
 10
148.3069967771465
 20
179.7662117940901
 30
0.0
 11
150.9378748240857
 21
179.4019363722063
 31
0.0
  0
LINE
  5
1A1
330
1F
100
AcDbEntity
  8
NoLayerName_001
  6
Continuous
 62
    30
370
    25
100
AcDbLine
 10
150.9378748240858
 20
179.7264593576939
 30
0.0
 11
150.9378748240858
 21
179.4019363722063
 31
0.0
  0
LINE
  5
1A2
330
1F
100
AcDbEntity
  8
NoLayerName_001
  6
Continuous
 62
    30
370
    25
100
AcDbLine
 10
147.3069967771465
 20
179.6147926910272
 30
0.0
 11
147.3069967771465
 21
180.5881260243605
 31
0.0
  0
LINE
  5
1A3
330
1F
100
AcDbEntity
  8
NoLayerName_001
  6
Continuous
 62
    30
370
    25
100
AcDbLine
 10
140.7694967771464
 20
180.7014593576939
 30
0.0
 11
142.5944967771465
 21
180.7014593576939
 31
0.0
  0
LINE
  5
1A4
330
1F
100
AcDbEntity
  8
NoLayerName_001
  6
Continuous
 62
    30
370
    25
100
AcDbLine
 10
143.0194967771464
 20
180.7014593576939
 30
0.0
 11
144.8444967771465
 21
180.7014593576939
 31
0.0
  0
LINE
  5
1A5
330
1F
100
AcDbEntity
  8
NoLayerName_001
  6
Continuous
 62
    30
370
    25
100
AcDbLine
 10
145.2694967771464
 20
180.7014593576939
 30
0.0
 11
147.0944967771465
 21
180.7014593576939
 31
0.0
  0
LINE
  5
1A6
330
1F
100
AcDbEntity
  8
NoLayerName_001
  6
Continuous
 62
    30
370
    25
100
AcDbLine
 10
141.6819967771466
 20
179.9881260243605
 30
0.0
 11
142.5944967771465
 21
179.5014593576939
 31
0.0
  0
LINE
  5
1A7
330
1F
100
AcDbEntity
  8
NoLayerName_001
  6
Continuous
 62
    30
370
    25
100
AcDbLine
 10
140.7694967771464
 20
180.7014593576939
 30
0.0
 11
141.6819967771465
 21
180.2147926910272
 31
0.0
  0
LINE
  5
1A8
330
1F
100
AcDbEntity
  8
NoLayerName_001
  6
Continuous
 62
    30
370
    25
100
AcDbLine
 10
141.8944967771465
 20
180.1014593576939
 30
0.0
 11
142.8069967771465
 21
179.6147926910272
 31
0.0
  0
LINE
  5
1A9
330
1F
100
AcDbEntity
  8
NoLayerName_001
  6
Continuous
 62
    30
370
    25
100
AcDbLine
 10
140.7694967771465
 20
179.5014593576938
 30
0.0
 11
141.6819967771465
 21
179.9881260243605
 31
0.0
  0
LINE
  5
1AA
330
1F
100
AcDbEntity
  8
NoLayerName_001
  6
Continuous
 62
    30
370
    25
100
AcDbLine
 10
141.8944967771465
 20
180.1014593576939
 30
0.0
 11
142.8069967771465
 21
180.5881260243605
 31
0.0
  0
LINE
  5
1AB
330
1F
100
AcDbEntity
  8
NoLayerName_001
  6
Continuous
 62
    30
370
    25
100
AcDbLine
 10
141.6819967771466
 20
180.2147926910272
 30
0.0
 11
142.5944967771466
 21
180.7014593576939
 31
0.0
  0
LINE
  5
1AC
330
1F
100
AcDbEntity
  8
NoLayerName_001
  6
Continuous
 62
    30
370
    25
100
AcDbLine
 10
142.8069967771466
 20
180.5881260243605
 30
0.0
 11
143.7194967771466
 21
180.1014593576939
 31
0.0
  0
LINE
  5
1AD
330
1F
100
AcDbEntity
  8
NoLayerName_001
  6
Continuous
 62
    30
370
    25
100
AcDbLine
 10
143.9319967771465
 20
179.9881260243605
 30
0.0
 11
144.8444967771464
 21
179.5014593576939
 31
0.0
  0
LINE
  5
1AE
330
1F
100
AcDbEntity
  8
NoLayerName_001
  6
Continuous
 62
    30
370
    25
100
AcDbLine
 10
143.0194967771464
 20
180.7014593576939
 30
0.0
 11
143.9319967771465
 21
180.2147926910272
 31
0.0
  0
LINE
  5
1AF
330
1F
100
AcDbEntity
  8
NoLayerName_001
  6
Continuous
 62
    30
370
    25
100
AcDbLine
 10
144.1444967771464
 20
180.1014593576939
 30
0.0
 11
145.0569967771464
 21
179.6147926910272
 31
0.0
  0
LINE
  5
1B0
330
1F
100
AcDbEntity
  8
NoLayerName_001
  6
Continuous
 62
    30
370
    25
100
AcDbLine
 10
145.0569967771465
 20
180.5881260243605
 30
0.0
 11
144.1444967771465
 21
180.1014593576939
 31
0.0
  0
LINE
  5
1B1
330
1F
100
AcDbEntity
  8
NoLayerName_001
  6
Continuous
 62
    30
370
    25
100
AcDbLine
 10
143.9319967771465
 20
179.9881260243605
 30
0.0
 11
143.0194967771465
 21
179.5014593576939
 31
0.0
  0
LINE
  5
1B2
330
1F
100
AcDbEntity
  8
NoLayerName_001
  6
Continuous
 62
    30
370
    25
100
AcDbLine
 10
142.8069967771465
 20
179.6147926910272
 30
0.0
 11
143.7194967771465
 21
180.1014593576939
 31
0.0
  0
LINE
  5
1B3
330
1F
100
AcDbEntity
  8
NoLayerName_001
  6
Continuous
 62
    30
370
    25
100
AcDbLine
 10
143.9319967771465
 20
180.2147926910272
 30
0.0
 11
144.8444967771465
 21
180.7014593576939
 31
0.0
  0
LINE
  5
1B4
330
1F
100
AcDbEntity
  8
NoLayerName_001
  6
Continuous
 62
    30
370
    25
100
AcDbLine
 10
145.0569967771465
 20
179.6147926910272
 30
0.0
 11
145.9694967771465
 21
180.1014593576939
 31
0.0
  0
LINE
  5
1B5
330
1F
100
AcDbEntity
  8
NoLayerName_001
  6
Continuous
 62
    30
370
    25
100
AcDbLine
 10
146.1819967771465
 20
180.2147926910272
 30
0.0
 11
147.0944967771465
 21
180.7014593576939
 31
0.0
  0
LINE
  5
1B6
330
1F
100
AcDbEntity
  8
NoLayerName_001
  6
Continuous
 62
    30
370
    25
100
AcDbLine
 10
147.3069967771465
 20
180.5881260243605
 30
0.0
 11
146.3944967771465
 21
180.1014593576939
 31
0.0
  0
LINE
  5
1B7
330
1F
100
AcDbEntity
  8
NoLayerName_001
  6
Continuous
 62
    30
370
    25
100
AcDbLine
 10
146.1819967771465
 20
179.9881260243605
 30
0.0
 11
145.2694967771465
 21
179.5014593576939
 31
0.0
  0
LINE
  5
1B8
330
1F
100
AcDbEntity
  8
NoLayerName_001
  6
Continuous
 62
    30
370
    25
100
AcDbLine
 10
147.0944967771465
 20
179.5014593576938
 30
0.0
 11
146.1819967771465
 21
179.9881260243605
 31
0.0
  0
LINE
  5
1B9
330
1F
100
AcDbEntity
  8
NoLayerName_001
  6
Continuous
 62
    30
370
    25
100
AcDbLine
 10
145.9694967771465
 20
180.1014593576939
 30
0.0
 11
145.0569967771465
 21
180.5881260243605
 31
0.0
  0
LINE
  5
1BA
330
1F
100
AcDbEntity
  8
NoLayerName_001
  6
Continuous
 62
    30
370
    25
100
AcDbLine
 10
145.2694967771464
 20
180.7014593576939
 30
0.0
 11
146.1819967771465
 21
180.2147926910272
 31
0.0
  0
LINE
  5
1BB
330
1F
100
AcDbEntity
  8
NoLayerName_001
  6
Continuous
 62
    30
370
    25
100
AcDbLine
 10
146.3944967771465
 20
180.1014593576939
 30
0.0
 11
147.3069967771465
 21
179.6147926910272
 31
0.0
  0
LINE
  5
1BC
330
1F
100
AcDbEntity
  8
NoLayerName_001
  6
Continuous
 62
    30
370
    25
100
AcDbLine
 10
145.3632467771465
 20
179.5514593576938
 30
0.0
 11
147.0007467771465
 21
179.5514593576938
 31
0.0
  0
LINE
  5
1BD
330
1F
100
AcDbEntity
  8
NoLayerName_001
  6
Continuous
 62
    30
370
    25
100
AcDbLine
 10
143.1132467771464
 20
179.5514593576938
 30
0.0
 11
144.7507467771464
 21
179.5514593576938
 31
0.0
  0
LINE
  5
1BE
330
1F
100
AcDbEntity
  8
NoLayerName_001
  6
Continuous
 62
    30
370
    25
100
AcDbLine
 10
140.8757467771465
 20
180.7014593576939
 30
0.0
 11
141.6819967771465
 21
180.2714593576939
 31
0.0
  0
LINE
  5
1BF
330
1F
100
AcDbEntity
  8
NoLayerName_001
  6
Continuous
 62
    30
370
    25
100
AcDbLine
 10
141.9476217771466
 20
180.1297926910272
 30
0.0
 11
142.8069967771465
 21
179.6714593576939
 31
0.0
  0
LINE
  5
1C0
330
1F
100
AcDbEntity
  8
NoLayerName_001
  6
Continuous
 62
    30
370
    25
100
AcDbLine
 10
141.6819967771465
 20
180.2714593576938
 30
0.0
 11
142.4882467771465
 21
180.7014593576938
 31
0.0
  0
LINE
  5
1C1
330
1F
100
AcDbEntity
  8
NoLayerName_001
  6
Continuous
 62
    30
370
    25
100
AcDbLine
 10
142.8069967771465
 20
179.6714593576938
 30
0.0
 11
143.6663717771465
 21
180.1297926910271
 31
0.0
  0
LINE
  5
1C2
330
1F
100
AcDbEntity
  8
NoLayerName_001
  6
Continuous
 62
    30
370
    25
100
AcDbLine
 10
143.9319967771465
 20
180.2714593576938
 30
0.0
 11
144.7382467771465
 21
180.7014593576938
 31
0.0
  0
LINE
  5
1C3
330
1F
100
AcDbEntity
  8
NoLayerName_001
  6
Continuous
 62
    30
370
    25
100
AcDbLine
 10
143.1257467771465
 20
180.7014593576939
 30
0.0
 11
143.9319967771465
 21
180.2714593576939
 31
0.0
  0
LINE
  5
1C4
330
1F
100
AcDbEntity
  8
NoLayerName_001
  6
Continuous
 62
    30
370
    25
100
AcDbLine
 10
144.1976217771465
 20
180.1297926910272
 30
0.0
 11
145.0569967771465
 21
179.6714593576938
 31
0.0
  0
LINE
  5
1C5
330
1F
100
AcDbEntity
  8
NoLayerName_001
  6
Continuous
 62
    30
370
    25
100
AcDbLine
 10
145.0569967771465
 20
179.6714593576938
 30
0.0
 11
145.9163717771465
 21
180.1297926910271
 31
0.0
  0
LINE
  5
1C6
330
1F
100
AcDbEntity
  8
NoLayerName_001
  6
Continuous
 62
    30
370
    25
100
AcDbLine
 10
146.1819967771465
 20
180.2714593576938
 30
0.0
 11
146.9882467771464
 21
180.7014593576938
 31
0.0
  0
LINE
  5
1C7
330
1F
100
AcDbEntity
  8
NoLayerName_001
  6
Continuous
 62
    30
370
    25
100
AcDbLine
 10
145.3757467771465
 20
180.7014593576939
 30
0.0
 11
146.1819967771465
 21
180.2714593576939
 31
0.0
  0
LINE
  5
1C8
330
1F
100
AcDbEntity
  8
NoLayerName_001
  6
Continuous
 62
    30
370
    25
100
AcDbLine
 10
146.4476217771465
 20
180.1297926910272
 30
0.0
 11
147.3069967771464
 21
179.6714593576939
 31
0.0
  0
LINE
  5
1C9
330
1F
100
AcDbEntity
  8
NoLayerName_001
  6
Continuous
 62
    30
370
    25
100
AcDbLine
 10
145.0569967771465
 20
179.6147926910272
 30
0.0
 11
145.0569967771465
 21
179.6714593576939
 31
0.0
  0
LINE
  5
1CA
330
1F
100
AcDbEntity
  8
NoLayerName_001
  6
Continuous
 62
    30
370
    25
100
AcDbLine
 10
142.8069967771465
 20
179.6147926910272
 30
0.0
 11
142.8069967771465
 21
179.6714593576939
 31
0.0
  0
LINE
  5
1CB
330
1F
100
AcDbEntity
  8
NoLayerName_001
  6
Continuous
 62
    30
370
    25
100
AcDbLine
 10
143.9319967771465
 20
180.2147926910272
 30
0.0
 11
143.9319967771465
 21
180.2714593576939
 31
0.0
  0
LINE
  5
1CC
330
1F
100
AcDbEntity
  8
NoLayerName_001
  6
Continuous
 62
    30
370
    25
100
AcDbLine
 10
146.1819967771465
 20
180.2147926910272
 30
0.0
 11
146.1819967771465
 21
180.2714593576939
 31
0.0
  0
LINE
  5
1CD
330
1F
100
AcDbEntity
  8
NoLayerName_001
  6
Continuous
 62
    30
370
    25
100
AcDbLine
 10
141.6819967771466
 20
180.2147926910272
 30
0.0
 11
141.6819967771466
 21
180.2714593576939
 31
0.0
  0
LINE
  5
1CE
330
1F
100
AcDbEntity
  8
NoLayerName_001
  6
Continuous
 62
    30
370
    25
100
AcDbLine
 10
145.2694967771465
 20
179.5014593576938
 30
0.0
 11
147.0944967771465
 21
179.5014593576938
 31
0.0
  0
LINE
  5
1CF
330
1F
100
AcDbEntity
  8
NoLayerName_001
  6
Continuous
 62
    30
370
    25
100
AcDbLine
 10
143.0194967771465
 20
179.5014593576938
 30
0.0
 11
144.8444967771465
 21
179.5014593576938
 31
0.0
  0
LINE
  5
1D0
330
1F
100
AcDbEntity
  8
NoLayerName_001
  6
Continuous
 62
    30
370
    25
100
AcDbLine
 10
140.7694967771465
 20
179.5014593576938
 30
0.0
 11
142.5944967771465
 21
179.5014593576938
 31
0.0
  0
LINE
  5
1D1
330
1F
100
AcDbEntity
  8
NoLayerName_001
  6
Continuous
 62
    30
370
    25
100
AcDbLine
 10
140.8632467771465
 20
179.5514593576938
 30
0.0
 11
142.5007467771465
 21
179.5514593576938
 31
0.0
  0
LINE
  5
1D2
330
1F
100
AcDbEntity
  8
NoLayerName_001
  6
Continuous
 62
    30
370
    25
100
AcDbLine
 10
140.5569967771465
 20
179.6147926910272
 30
0.0
 11
140.5569967771465
 21
180.5881260243605
 31
0.0
  0
LINE
  5
1D3
330
1F
100
AcDbEntity
  8
NoLayerName_001
  6
Continuous
 62
    30
370
    25
100
AcDbLine
 10
140.5569967771465
 20
180.5881260243605
 30
0.0
 11
141.4694967771465
 21
180.1014593576939
 31
0.0
  0
LINE
  5
1D4
330
1F
100
AcDbEntity
  8
NoLayerName_001
  6
Continuous
 62
    30
370
    25
100
AcDbLine
 10
140.5569967771465
 20
179.6147926910272
 30
0.0
 11
141.4694967771464
 21
180.1014593576939
 31
0.0
  0
LINE
  5
1D5
330
1F
100
AcDbEntity
  8
NoLayerName_001
  6
Continuous
 62
    30
370
    25
100
AcDbLine
 10
140.5569967771465
 20
179.6714593576938
 30
0.0
 11
141.4163717771465
 21
180.1297926910271
 31
0.0
  0
LINE
  5
1D6
330
1F
100
AcDbEntity
  8
NoLayerName_001
  6
Continuous
 62
    30
370
    50
100
AcDbLine
 10
137.3321062163069
 20
279.5569381289678
 30
0.0
 11
147.5821062163069
 21
279.5569381289678
 31
0.0
  0
LINE
  5
1D7
330
1F
100
AcDbEntity
  8
NoLayerName_001
  6
Continuous
 62
    30
370
    50
100
AcDbLine
 10
137.3321062163069
 20
275.5569381289678
 30
0.0
 11
147.5821062163069
 21
275.5569381289678
 31
0.0
  0
LINE
  5
1D8
330
1F
100
AcDbEntity
  8
NoLayerName_001
  6
Continuous
 62
    30
370
    50
100
AcDbLine
 10
139.8321062163069
 20
277.8069381289678
 30
0.0
 11
147.5821062163069
 21
277.8069381289678
 31
0.0
  0
LINE
  5
1D9
330
1F
100
AcDbEntity
  8
NoLayerName_001
  6
Continuous
 62
    30
370
    50
100
AcDbLine
 10
151.1294741563224
 20
278.5569381289678
 30
0.0
 11
151.1294741563224
 21
276.5569381289678
 31
0.0
  0
LINE
  5
1DA
330
1F
100
AcDbEntity
  8
NoLayerName_001
  6
Continuous
 62
    30
370
    50
100
AcDbLine
 10
136.1294741563224
 20
279.9569381289677
 30
0.0
 11
136.1294741563224
 21
275.1569381289677
 31
0.0
  0
LINE
  5
1DB
330
1F
100
AcDbEntity
  8
NoLayerName_001
  6
Continuous
 62
    30
370
    25
100
AcDbLine
 10
139.8321062163069
 20
279.2936047956345
 30
0.0
 11
139.8321062163069
 21
278.3202714623011
 31
0.0
  0
LINE
  5
1DC
330
1F
100
AcDbEntity
  8
NoLayerName_001
  6
Continuous
 62
    30
370
    25
100
AcDbLine
 10
146.5821062163069
 20
279.2936047956345
 30
0.0
 11
146.5821062163069
 21
278.3202714623011
 31
0.0
  0
LINE
  5
1DD
330
1F
100
AcDbEntity
  8
NoLayerName_001
  6
Continuous
 62
    30
370
    25
100
AcDbLine
 10
140.0446062163068
 20
278.2069381289677
 30
0.0
 11
141.8696062163069
 21
278.2069381289677
 31
0.0
  0
LINE
  5
1DE
330
1F
100
AcDbEntity
  8
NoLayerName_001
  6
Continuous
 62
    30
370
    25
100
AcDbLine
 10
142.2946062163068
 20
278.2069381289677
 30
0.0
 11
144.1196062163069
 21
278.2069381289677
 31
0.0
  0
LINE
  5
1DF
330
1F
100
AcDbEntity
  8
NoLayerName_001
  6
Continuous
 62
    30
370
    25
100
AcDbLine
 10
144.5446062163068
 20
278.2069381289677
 30
0.0
 11
146.3696062163069
 21
278.2069381289677
 31
0.0
  0
LINE
  5
1E0
330
1F
100
AcDbEntity
  8
NoLayerName_001
  6
Continuous
 62
    30
370
    25
100
AcDbLine
 10
139.8321062163069
 20
278.3202714623012
 30
0.0
 11
140.7446062163069
 21
278.8069381289679
 31
0.0
  0
LINE
  5
1E1
330
1F
100
AcDbEntity
  8
NoLayerName_001
  6
Continuous
 62
    30
370
    25
100
AcDbLine
 10
140.9571062163069
 20
278.9202714623011
 30
0.0
 11
141.8696062163068
 21
279.4069381289677
 31
0.0
  0
LINE
  5
1E2
330
1F
100
AcDbEntity
  8
NoLayerName_001
  6
Continuous
 62
    30
370
    25
100
AcDbLine
 10
140.0446062163068
 20
278.2069381289677
 30
0.0
 11
140.9571062163069
 21
278.6936047956344
 31
0.0
  0
LINE
  5
1E3
330
1F
100
AcDbEntity
  8
NoLayerName_001
  6
Continuous
 62
    30
370
    25
100
AcDbLine
 10
141.1696062163068
 20
278.8069381289679
 30
0.0
 11
142.0821062163068
 21
279.2936047956345
 31
0.0
  0
LINE
  5
1E4
330
1F
100
AcDbEntity
  8
NoLayerName_001
  6
Continuous
 62
    30
370
    25
100
AcDbLine
 10
140.0446062163068
 20
279.4069381289678
 30
0.0
 11
140.9571062163068
 21
278.9202714623012
 31
0.0
  0
LINE
  5
1E5
330
1F
100
AcDbEntity
  8
NoLayerName_001
  6
Continuous
 62
    30
370
    25
100
AcDbLine
 10
141.1696062163068
 20
278.8069381289679
 30
0.0
 11
142.0821062163068
 21
278.3202714623012
 31
0.0
  0
LINE
  5
1E6
330
1F
100
AcDbEntity
  8
NoLayerName_001
  6
Continuous
 62
    30
370
    25
100
AcDbLine
 10
139.8321062163069
 20
279.2936047956345
 30
0.0
 11
140.7446062163069
 21
278.8069381289678
 31
0.0
  0
LINE
  5
1E7
330
1F
100
AcDbEntity
  8
NoLayerName_001
  6
Continuous
 62
    30
370
    25
100
AcDbLine
 10
140.9571062163069
 20
278.6936047956344
 30
0.0
 11
141.8696062163069
 21
278.2069381289677
 31
0.0
  0
LINE
  5
1E8
330
1F
100
AcDbEntity
  8
NoLayerName_001
  6
Continuous
 62
    30
370
    25
100
AcDbLine
 10
142.0821062163069
 20
278.3202714623012
 30
0.0
 11
142.9946062163069
 21
278.8069381289679
 31
0.0
  0
LINE
  5
1E9
330
1F
100
AcDbEntity
  8
NoLayerName_001
  6
Continuous
 62
    30
370
    25
100
AcDbLine
 10
143.2071062163069
 20
278.9202714623011
 30
0.0
 11
144.1196062163069
 21
279.4069381289678
 31
0.0
  0
LINE
  5
1EA
330
1F
100
AcDbEntity
  8
NoLayerName_001
  6
Continuous
 62
    30
370
    25
100
AcDbLine
 10
142.2946062163068
 20
278.2069381289677
 30
0.0
 11
143.2071062163069
 21
278.6936047956344
 31
0.0
  0
LINE
  5
1EB
330
1F
100
AcDbEntity
  8
NoLayerName_001
  6
Continuous
 62
    30
370
    25
100
AcDbLine
 10
143.4196062163068
 20
278.8069381289679
 30
0.0
 11
144.3321062163068
 21
279.2936047956346
 31
0.0
  0
LINE
  5
1EC
330
1F
100
AcDbEntity
  8
NoLayerName_001
  6
Continuous
 62
    30
370
    25
100
AcDbLine
 10
144.3321062163069
 20
278.3202714623012
 30
0.0
 11
143.4196062163069
 21
278.8069381289679
 31
0.0
  0
LINE
  5
1ED
330
1F
100
AcDbEntity
  8
NoLayerName_001
  6
Continuous
 62
    30
370
    25
100
AcDbLine
 10
143.2071062163069
 20
278.9202714623011
 30
0.0
 11
142.2946062163069
 21
279.4069381289678
 31
0.0
  0
LINE
  5
1EE
330
1F
100
AcDbEntity
  8
NoLayerName_001
  6
Continuous
 62
    30
370
    25
100
AcDbLine
 10
142.0821062163069
 20
279.2936047956345
 30
0.0
 11
142.9946062163069
 21
278.8069381289678
 31
0.0
  0
LINE
  5
1EF
330
1F
100
AcDbEntity
  8
NoLayerName_001
  6
Continuous
 62
    30
370
    25
100
AcDbLine
 10
143.2071062163069
 20
278.6936047956344
 30
0.0
 11
144.1196062163069
 21
278.2069381289677
 31
0.0
  0
LINE
  5
1F0
330
1F
100
AcDbEntity
  8
NoLayerName_001
  6
Continuous
 62
    30
370
    25
100
AcDbLine
 10
144.3321062163069
 20
279.2936047956345
 30
0.0
 11
145.2446062163069
 21
278.8069381289678
 31
0.0
  0
LINE
  5
1F1
330
1F
100
AcDbEntity
  8
NoLayerName_001
  6
Continuous
 62
    30
370
    25
100
AcDbLine
 10
145.4571062163069
 20
278.6936047956344
 30
0.0
 11
146.3696062163069
 21
278.2069381289677
 31
0.0
  0
LINE
  5
1F2
330
1F
100
AcDbEntity
  8
NoLayerName_001
  6
Continuous
 62
    30
370
    25
100
AcDbLine
 10
146.5821062163069
 20
278.3202714623012
 30
0.0
 11
145.6696062163069
 21
278.8069381289679
 31
0.0
  0
LINE
  5
1F3
330
1F
100
AcDbEntity
  8
NoLayerName_001
  6
Continuous
 62
    30
370
    25
100
AcDbLine
 10
145.4571062163069
 20
278.9202714623011
 30
0.0
 11
144.5446062163069
 21
279.4069381289677
 31
0.0
  0
LINE
  5
1F4
330
1F
100
AcDbEntity
  8
NoLayerName_001
  6
Continuous
 62
    30
370
    25
100
AcDbLine
 10
146.3696062163069
 20
279.4069381289678
 30
0.0
 11
145.4571062163069
 21
278.9202714623012
 31
0.0
  0
LINE
  5
1F5
330
1F
100
AcDbEntity
  8
NoLayerName_001
  6
Continuous
 62
    30
370
    25
100
AcDbLine
 10
145.2446062163069
 20
278.8069381289679
 30
0.0
 11
144.3321062163069
 21
278.3202714623012
 31
0.0
  0
LINE
  5
1F6
330
1F
100
AcDbEntity
  8
NoLayerName_001
  6
Continuous
 62
    30
370
    25
100
AcDbLine
 10
144.5446062163068
 20
278.2069381289677
 30
0.0
 11
145.4571062163069
 21
278.6936047956344
 31
0.0
  0
LINE
  5
1F7
330
1F
100
AcDbEntity
  8
NoLayerName_001
  6
Continuous
 62
    30
370
    25
100
AcDbLine
 10
145.6696062163068
 20
278.8069381289679
 30
0.0
 11
146.5821062163068
 21
279.2936047956346
 31
0.0
  0
LINE
  5
1F8
330
1F
100
AcDbEntity
  8
NoLayerName_001
  6
Continuous
 62
    30
370
    25
100
AcDbLine
 10
144.6383562163068
 20
279.3569381289678
 30
0.0
 11
146.2758562163068
 21
279.3569381289678
 31
0.0
  0
LINE
  5
1F9
330
1F
100
AcDbEntity
  8
NoLayerName_001
  6
Continuous
 62
    30
370
    25
100
AcDbLine
 10
142.3883562163068
 20
279.3569381289678
 30
0.0
 11
144.0258562163069
 21
279.3569381289678
 31
0.0
  0
LINE
  5
1FA
330
1F
100
AcDbEntity
  8
NoLayerName_001
  6
Continuous
 62
    30
370
    25
100
AcDbLine
 10
140.1508562163069
 20
278.2069381289677
 30
0.0
 11
140.9571062163069
 21
278.6369381289678
 31
0.0
  0
LINE
  5
1FB
330
1F
100
AcDbEntity
  8
NoLayerName_001
  6
Continuous
 62
    30
370
    25
100
AcDbLine
 10
141.2227312163069
 20
278.7786047956345
 30
0.0
 11
142.0821062163068
 21
279.2369381289678
 31
0.0
  0
LINE
  5
1FC
330
1F
100
AcDbEntity
  8
NoLayerName_001
  6
Continuous
 62
    30
370
    25
100
AcDbLine
 10
139.8321062163069
 20
279.2369381289678
 30
0.0
 11
140.6914812163069
 21
278.7786047956345
 31
0.0
  0
LINE
  5
1FD
330
1F
100
AcDbEntity
  8
NoLayerName_001
  6
Continuous
 62
    30
370
    25
100
AcDbLine
 10
140.9571062163069
 20
278.6369381289678
 30
0.0
 11
141.7633562163069
 21
278.2069381289678
 31
0.0
  0
LINE
  5
1FE
330
1F
100
AcDbEntity
  8
NoLayerName_001
  6
Continuous
 62
    30
370
    25
100
AcDbLine
 10
142.0821062163069
 20
279.2369381289678
 30
0.0
 11
142.9414812163069
 21
278.7786047956345
 31
0.0
  0
LINE
  5
1FF
330
1F
100
AcDbEntity
  8
NoLayerName_001
  6
Continuous
 62
    30
370
    25
100
AcDbLine
 10
143.2071062163069
 20
278.6369381289678
 30
0.0
 11
144.0133562163069
 21
278.2069381289678
 31
0.0
  0
LINE
  5
200
330
1F
100
AcDbEntity
  8
NoLayerName_001
  6
Continuous
 62
    30
370
    25
100
AcDbLine
 10
142.4008562163069
 20
278.2069381289677
 30
0.0
 11
143.2071062163069
 21
278.6369381289678
 31
0.0
  0
LINE
  5
201
330
1F
100
AcDbEntity
  8
NoLayerName_001
  6
Continuous
 62
    30
370
    25
100
AcDbLine
 10
143.4727312163069
 20
278.7786047956345
 30
0.0
 11
144.3321062163069
 21
279.2369381289678
 31
0.0
  0
LINE
  5
202
330
1F
100
AcDbEntity
  8
NoLayerName_001
  6
Continuous
 62
    30
370
    25
100
AcDbLine
 10
144.3321062163069
 20
279.2369381289678
 30
0.0
 11
145.1914812163069
 21
278.7786047956345
 31
0.0
  0
LINE
  5
203
330
1F
100
AcDbEntity
  8
NoLayerName_001
  6
Continuous
 62
    30
370
    25
100
AcDbLine
 10
145.4571062163069
 20
278.6369381289678
 30
0.0
 11
146.2633562163068
 21
278.2069381289678
 31
0.0
  0
LINE
  5
204
330
1F
100
AcDbEntity
  8
NoLayerName_001
  6
Continuous
 62
    30
370
    25
100
AcDbLine
 10
144.6508562163069
 20
278.2069381289677
 30
0.0
 11
145.4571062163069
 21
278.6369381289678
 31
0.0
  0
LINE
  5
205
330
1F
100
AcDbEntity
  8
NoLayerName_001
  6
Continuous
 62
    30
370
    25
100
AcDbLine
 10
145.7227312163069
 20
278.7786047956345
 30
0.0
 11
146.5821062163068
 21
279.2369381289678
 31
0.0
  0
LINE
  5
206
330
1F
100
AcDbEntity
  8
NoLayerName_001
  6
Continuous
 62
    30
370
    25
100
AcDbLine
 10
144.3321062163069
 20
279.2936047956345
 30
0.0
 11
144.3321062163069
 21
279.2369381289678
 31
0.0
  0
LINE
  5
207
330
1F
100
AcDbEntity
  8
NoLayerName_001
  6
Continuous
 62
    30
370
    25
100
AcDbLine
 10
142.0821062163069
 20
279.2936047956345
 30
0.0
 11
142.0821062163069
 21
279.2369381289678
 31
0.0
  0
LINE
  5
208
330
1F
100
AcDbEntity
  8
NoLayerName_001
  6
Continuous
 62
    30
370
    25
100
AcDbLine
 10
143.2071062163069
 20
278.6936047956344
 30
0.0
 11
143.2071062163069
 21
278.6369381289678
 31
0.0
  0
LINE
  5
209
330
1F
100
AcDbEntity
  8
NoLayerName_001
  6
Continuous
 62
    30
370
    25
100
AcDbLine
 10
145.4571062163069
 20
278.6936047956344
 30
0.0
 11
145.4571062163069
 21
278.6369381289678
 31
0.0
  0
LINE
  5
20A
330
1F
100
AcDbEntity
  8
NoLayerName_001
  6
Continuous
 62
    30
370
    25
100
AcDbLine
 10
140.9571062163069
 20
278.6936047956344
 30
0.0
 11
140.9571062163069
 21
278.6369381289678
 31
0.0
  0
LINE
  5
20B
330
1F
100
AcDbEntity
  8
NoLayerName_001
  6
Continuous
 62
    30
370
    25
100
AcDbLine
 10
144.5446062163068
 20
279.4069381289678
 30
0.0
 11
146.3696062163068
 21
279.4069381289678
 31
0.0
  0
LINE
  5
20C
330
1F
100
AcDbEntity
  8
NoLayerName_001
  6
Continuous
 62
    30
370
    25
100
AcDbLine
 10
142.2946062163068
 20
279.4069381289678
 30
0.0
 11
144.1196062163068
 21
279.4069381289678
 31
0.0
  0
LINE
  5
20D
330
1F
100
AcDbEntity
  8
NoLayerName_001
  6
Continuous
 62
    30
370
    25
100
AcDbLine
 10
140.0446062163068
 20
279.4069381289678
 30
0.0
 11
141.8696062163068
 21
279.4069381289678
 31
0.0
  0
LINE
  5
20E
330
1F
100
AcDbEntity
  8
NoLayerName_001
  6
Continuous
 62
    30
370
    25
100
AcDbLine
 10
140.1383562163068
 20
279.3569381289678
 30
0.0
 11
141.7758562163068
 21
279.3569381289678
 31
0.0
  0
LINE
  5
20F
330
1F
100
AcDbEntity
  8
NoLayerName_001
  6
Continuous
 62
    30
370
    50
100
AcDbLine
 10
150.9629842632461
 20
279.5569381289678
 30
0.0
 11
150.2129842632461
 21
279.5569381289678
 31
0.0
  0
LINE
  5
210
330
1F
100
AcDbEntity
  8
NoLayerName_001
  6
Continuous
 62
    30
370
    50
100
AcDbLine
 10
150.9629842632461
 20
275.5569381289678
 30
0.0
 11
150.2129842632461
 21
275.5569381289678
 31
0.0
  0
LINE
  5
211
330
1F
100
AcDbEntity
  8
NoLayerName_001
  6
Continuous
 62
    30
370
    25
100
AcDbLine
 10
150.2129842632461
 20
278.3319381289677
 30
0.0
 11
150.2129842632461
 21
277.9819491284254
 31
0.0
  0
LINE
  5
212
330
1F
100
AcDbEntity
  8
NoLayerName_001
  6
Continuous
 62
    30
370
    25
100
AcDbLine
 10
150.2129842632461
 20
278.7319381289678
 30
0.0
 11
150.2129842632461
 21
278.3819381289678
 31
0.0
  0
LINE
  5
213
330
1F
100
AcDbEntity
  8
NoLayerName_001
  6
Continuous
 62
    30
370
    25
100
AcDbLine
 10
150.2129842632461
 20
279.1319381289678
 30
0.0
 11
150.2129842632461
 21
278.7819381289678
 31
0.0
  0
LINE
  5
214
330
1F
100
AcDbEntity
  8
NoLayerName_001
  6
Continuous
 62
    30
370
    25
100
AcDbLine
 10
150.2129842632461
 20
277.9319271295102
 30
0.0
 11
150.2129842632461
 21
277.5819381289678
 31
0.0
  0
LINE
  5
215
330
1F
100
AcDbEntity
  8
NoLayerName_001
  6
Continuous
 62
    30
370
    25
100
AcDbLine
 10
146.9629842632461
 20
277.5819381289677
 30
0.0
 11
150.2129842632461
 21
277.5819381289677
 31
0.0
  0
LINE
  5
216
330
1F
100
AcDbEntity
  8
NoLayerName_001
  6
Continuous
 62
    30
370
    25
100
AcDbLine
 10
150.2129842632461
 20
279.1819381289678
 30
0.0
 11
150.2129842632461
 21
279.5064611144554
 31
0.0
  0
LINE
  5
217
330
1F
100
AcDbEntity
  8
NoLayerName_001
  6
Continuous
 62
    30
370
    50
100
AcDbLine
 10
147.5821062163069
 20
279.5569381289678
 30
0.0
 11
147.5821062163069
 21
277.8069381289678
 31
0.0
  0
LINE
  5
218
330
1F
100
AcDbEntity
  8
NoLayerName_001
  6
Continuous
 62
    30
370
    25
100
AcDbLine
 10
147.5821062163069
 20
277.9038980135389
 30
0.0
 11
150.2129842632461
 21
277.9819491284255
 31
0.0
  0
LINE
  5
219
330
1F
100
AcDbEntity
  8
NoLayerName_001
  6
Continuous
 62
    30
370
    25
100
AcDbLine
 10
147.5821062163069
 20
277.8538760146236
 30
0.0
 11
150.2129842632461
 21
277.9319271295101
 31
0.0
  0
LINE
  5
21A
330
1F
100
AcDbEntity
  8
NoLayerName_001
  6
Continuous
 62
    30
370
    25
100
AcDbLine
 10
147.5821062163069
 20
278.1659310246075
 30
0.0
 11
150.2129842632461
 21
278.3318884387948
 31
0.0
  0
LINE
  5
21B
330
1F
100
AcDbEntity
  8
NoLayerName_001
  6
Continuous
 62
    30
370
    25
100
AcDbLine
 10
147.5821062163069
 20
278.2160304049535
 30
0.0
 11
150.2129842632461
 21
278.3819878191408
 31
0.0
  0
LINE
  5
21C
330
1F
100
AcDbEntity
  8
NoLayerName_001
  6
Continuous
 62
    30
370
    25
100
AcDbLine
 10
147.5821062163069
 20
278.4795084628782
 30
0.0
 11
150.2129842632461
 21
278.7318234194758
 31
0.0
  0
LINE
  5
21D
330
1F
100
AcDbEntity
  8
NoLayerName_001
  6
Continuous
 62
    30
370
    25
100
AcDbLine
 10
147.5821062163069
 20
278.5297378818623
 30
0.0
 11
150.2129842632461
 21
278.7820528384598
 31
0.0
  0
LINE
  5
21E
330
1F
100
AcDbEntity
  8
NoLayerName_001
  6
Continuous
 62
    30
370
    25
100
AcDbLine
 10
147.5821062163069
 20
278.8268294721767
 30
0.0
 11
150.2129842632461
 21
279.1317707543289
 31
0.0
  0
LINE
  5
21F
330
1F
100
AcDbEntity
  8
NoLayerName_001
  6
Continuous
 62
    30
370
    25
100
AcDbLine
 10
147.5821062163069
 20
278.8771642214544
 30
0.0
 11
150.2129651202748
 21
279.1821032847725
 31
0.0
  0
LINE
  5
220
330
1F
100
AcDbEntity
  8
NoLayerName_001
  6
Continuous
 62
    30
370
    25
100
AcDbLine
 10
147.5821062163069
 20
279.1421856925715
 30
0.0
 11
150.2129842632461
 21
279.5064611144554
 31
0.0
  0
LINE
  5
221
330
1F
100
AcDbEntity
  8
NoLayerName_001
  6
Continuous
 62
    30
370
    50
100
AcDbLine
 10
147.5821062163069
 20
279.1926627070839
 30
0.0
 11
150.2129842632461
 21
279.5569381289678
 31
0.0
  0
LINE
  5
222
330
1F
100
AcDbEntity
  8
NoLayerName_001
  6
Continuous
 62
    30
370
    50
100
AcDbLine
 10
150.9629842632461
 20
278.7234280220442
 30
0.0
 11
151.1294741563225
 21
278.5569381289678
 31
0.0
  0
LINE
  5
223
330
1F
100
AcDbEntity
  8
NoLayerName_001
  6
Continuous
 62
    30
370
    50
100
AcDbLine
 10
147.5821062163069
 20
275.9212135508517
 30
0.0
 11
147.5821062163069
 21
275.5569381289678
 31
0.0
  0
LINE
  5
224
330
1F
100
AcDbEntity
  8
NoLayerName_001
  6
DOTSX
 62
     7
370
    25
100
AcDbLine
 10
147.5821062163069
 20
275.9212135508517
 30
0.0
 11
147.5821062163069
 21
277.3069381289678
 31
0.0
  0
LINE
  5
225
330
1F
100
AcDbEntity
  8
NoLayerName_001
  6
Continuous
 62
    30
370
    50
100
AcDbLine
 10
137.3321062163069
 20
279.0349202163131
 30
0.0
 11
136.1294741563225
 21
279.9569381289679
 31
0.0
  0
LINE
  5
226
330
1F
100
AcDbEntity
  8
NoLayerName_001
  6
CENTER
 62
     3
370
    25
100
AcDbLine
 10
134.8727758146693
 20
277.5569381289678
 30
0.0
 11
153.0844732584962
 21
277.5569381289678
 31
0.0
  0
LINE
  5
227
330
1F
100
AcDbEntity
  8
NoLayerName_001
  6
Continuous
 62
    30
370
    50
100
AcDbLine
 10
137.3321062163069
 20
275.5569381289678
 30
0.0
 11
137.3321062163069
 21
279.5569381289678
 31
0.0
  0
LINE
  5
228
330
1F
100
AcDbEntity
  8
NoLayerName_001
  6
Continuous
 62
    30
370
    50
100
AcDbLine
 10
137.3321062163069
 20
276.0789560416225
 30
0.0
 11
136.1294741563225
 21
275.1569381289678
 31
0.0
  0
LINE
  5
229
330
1F
100
AcDbEntity
  8
NoLayerName_001
  6
Continuous
 62
    30
370
    25
100
AcDbLine
 10
139.8321062163069
 20
275.8202714623011
 30
0.0
 11
139.8321062163069
 21
276.7936047956345
 31
0.0
  0
LINE
  5
22A
330
1F
100
AcDbEntity
  8
NoLayerName_001
  6
Continuous
 62
    30
370
    25
100
AcDbLine
 10
146.5821062163069
 20
275.8202714623011
 30
0.0
 11
146.5821062163069
 21
276.7936047956345
 31
0.0
  0
LINE
  5
22B
330
1F
100
AcDbEntity
  8
NoLayerName_001
  6
Continuous
 62
    30
370
    25
100
AcDbLine
 10
140.0446062163068
 20
276.9069381289678
 30
0.0
 11
141.8696062163069
 21
276.9069381289678
 31
0.0
  0
LINE
  5
22C
330
1F
100
AcDbEntity
  8
NoLayerName_001
  6
Continuous
 62
    30
370
    25
100
AcDbLine
 10
142.2946062163068
 20
276.9069381289678
 30
0.0
 11
144.1196062163069
 21
276.9069381289678
 31
0.0
  0
LINE
  5
22D
330
1F
100
AcDbEntity
  8
NoLayerName_001
  6
Continuous
 62
    30
370
    25
100
AcDbLine
 10
144.5446062163068
 20
276.9069381289678
 30
0.0
 11
146.3696062163069
 21
276.9069381289678
 31
0.0
  0
LINE
  5
22E
330
1F
100
AcDbEntity
  8
NoLayerName_001
  6
Continuous
 62
    30
370
    25
100
AcDbLine
 10
139.8321062163069
 20
276.7936047956343
 30
0.0
 11
140.7446062163069
 21
276.3069381289677
 31
0.0
  0
LINE
  5
22F
330
1F
100
AcDbEntity
  8
NoLayerName_001
  6
Continuous
 62
    30
370
    25
100
AcDbLine
 10
140.9571062163069
 20
276.1936047956344
 30
0.0
 11
141.8696062163068
 21
275.7069381289678
 31
0.0
  0
LINE
  5
230
330
1F
100
AcDbEntity
  8
NoLayerName_001
  6
Continuous
 62
    30
370
    25
100
AcDbLine
 10
140.0446062163068
 20
276.9069381289678
 30
0.0
 11
140.9571062163069
 21
276.4202714623011
 31
0.0
  0
LINE
  5
231
330
1F
100
AcDbEntity
  8
NoLayerName_001
  6
Continuous
 62
    30
370
    25
100
AcDbLine
 10
141.1696062163068
 20
276.3069381289677
 30
0.0
 11
142.0821062163068
 21
275.820271462301
 31
0.0
  0
LINE
  5
232
330
1F
100
AcDbEntity
  8
NoLayerName_001
  6
Continuous
 62
    30
370
    25
100
AcDbLine
 10
140.0446062163068
 20
275.7069381289677
 30
0.0
 11
140.9571062163068
 21
276.1936047956344
 31
0.0
  0
LINE
  5
233
330
1F
100
AcDbEntity
  8
NoLayerName_001
  6
Continuous
 62
    30
370
    25
100
AcDbLine
 10
141.1696062163068
 20
276.3069381289677
 30
0.0
 11
142.0821062163068
 21
276.7936047956343
 31
0.0
  0
LINE
  5
234
330
1F
100
AcDbEntity
  8
NoLayerName_001
  6
Continuous
 62
    30
370
    25
100
AcDbLine
 10
139.8321062163069
 20
275.8202714623011
 30
0.0
 11
140.7446062163069
 21
276.3069381289678
 31
0.0
  0
LINE
  5
235
330
1F
100
AcDbEntity
  8
NoLayerName_001
  6
Continuous
 62
    30
370
    25
100
AcDbLine
 10
140.9571062163069
 20
276.4202714623011
 30
0.0
 11
141.8696062163069
 21
276.9069381289678
 31
0.0
  0
LINE
  5
236
330
1F
100
AcDbEntity
  8
NoLayerName_001
  6
Continuous
 62
    30
370
    25
100
AcDbLine
 10
142.0821062163069
 20
276.7936047956343
 30
0.0
 11
142.9946062163069
 21
276.3069381289677
 31
0.0
  0
LINE
  5
237
330
1F
100
AcDbEntity
  8
NoLayerName_001
  6
Continuous
 62
    30
370
    25
100
AcDbLine
 10
143.2071062163069
 20
276.1936047956344
 30
0.0
 11
144.1196062163069
 21
275.7069381289677
 31
0.0
  0
LINE
  5
238
330
1F
100
AcDbEntity
  8
NoLayerName_001
  6
Continuous
 62
    30
370
    25
100
AcDbLine
 10
142.2946062163068
 20
276.9069381289678
 30
0.0
 11
143.2071062163069
 21
276.4202714623011
 31
0.0
  0
LINE
  5
239
330
1F
100
AcDbEntity
  8
NoLayerName_001
  6
Continuous
 62
    30
370
    25
100
AcDbLine
 10
143.4196062163068
 20
276.3069381289677
 30
0.0
 11
144.3321062163068
 21
275.820271462301
 31
0.0
  0
LINE
  5
23A
330
1F
100
AcDbEntity
  8
NoLayerName_001
  6
Continuous
 62
    30
370
    25
100
AcDbLine
 10
144.3321062163069
 20
276.7936047956343
 30
0.0
 11
143.4196062163069
 21
276.3069381289677
 31
0.0
  0
LINE
  5
23B
330
1F
100
AcDbEntity
  8
NoLayerName_001
  6
Continuous
 62
    30
370
    25
100
AcDbLine
 10
143.2071062163069
 20
276.1936047956344
 30
0.0
 11
142.2946062163069
 21
275.7069381289677
 31
0.0
  0
LINE
  5
23C
330
1F
100
AcDbEntity
  8
NoLayerName_001
  6
Continuous
 62
    30
370
    25
100
AcDbLine
 10
142.0821062163069
 20
275.8202714623011
 30
0.0
 11
142.9946062163069
 21
276.3069381289678
 31
0.0
  0
LINE
  5
23D
330
1F
100
AcDbEntity
  8
NoLayerName_001
  6
Continuous
 62
    30
370
    25
100
AcDbLine
 10
143.2071062163069
 20
276.4202714623011
 30
0.0
 11
144.1196062163069
 21
276.9069381289678
 31
0.0
  0
LINE
  5
23E
330
1F
100
AcDbEntity
  8
NoLayerName_001
  6
Continuous
 62
    30
370
    25
100
AcDbLine
 10
144.3321062163069
 20
275.8202714623011
 30
0.0
 11
145.2446062163069
 21
276.3069381289678
 31
0.0
  0
LINE
  5
23F
330
1F
100
AcDbEntity
  8
NoLayerName_001
  6
Continuous
 62
    30
370
    25
100
AcDbLine
 10
145.4571062163069
 20
276.4202714623011
 30
0.0
 11
146.3696062163069
 21
276.9069381289678
 31
0.0
  0
LINE
  5
240
330
1F
100
AcDbEntity
  8
NoLayerName_001
  6
Continuous
 62
    30
370
    25
100
AcDbLine
 10
146.5821062163069
 20
276.7936047956343
 30
0.0
 11
145.6696062163069
 21
276.3069381289677
 31
0.0
  0
LINE
  5
241
330
1F
100
AcDbEntity
  8
NoLayerName_001
  6
Continuous
 62
    30
370
    25
100
AcDbLine
 10
145.4571062163069
 20
276.1936047956344
 30
0.0
 11
144.5446062163069
 21
275.7069381289678
 31
0.0
  0
LINE
  5
242
330
1F
100
AcDbEntity
  8
NoLayerName_001
  6
Continuous
 62
    30
370
    25
100
AcDbLine
 10
146.3696062163069
 20
275.7069381289677
 30
0.0
 11
145.4571062163069
 21
276.1936047956344
 31
0.0
  0
LINE
  5
243
330
1F
100
AcDbEntity
  8
NoLayerName_001
  6
Continuous
 62
    30
370
    25
100
AcDbLine
 10
145.2446062163069
 20
276.3069381289677
 30
0.0
 11
144.3321062163069
 21
276.7936047956343
 31
0.0
  0
LINE
  5
244
330
1F
100
AcDbEntity
  8
NoLayerName_001
  6
Continuous
 62
    30
370
    25
100
AcDbLine
 10
144.5446062163068
 20
276.9069381289678
 30
0.0
 11
145.4571062163069
 21
276.4202714623011
 31
0.0
  0
LINE
  5
245
330
1F
100
AcDbEntity
  8
NoLayerName_001
  6
Continuous
 62
    30
370
    25
100
AcDbLine
 10
145.6696062163068
 20
276.3069381289677
 30
0.0
 11
146.5821062163068
 21
275.820271462301
 31
0.0
  0
LINE
  5
246
330
1F
100
AcDbEntity
  8
NoLayerName_001
  6
Continuous
 62
    30
370
    25
100
AcDbLine
 10
144.6383562163068
 20
275.7569381289677
 30
0.0
 11
146.2758562163068
 21
275.7569381289677
 31
0.0
  0
LINE
  5
247
330
1F
100
AcDbEntity
  8
NoLayerName_001
  6
Continuous
 62
    30
370
    25
100
AcDbLine
 10
142.3883562163068
 20
275.7569381289677
 30
0.0
 11
144.0258562163069
 21
275.7569381289677
 31
0.0
  0
LINE
  5
248
330
1F
100
AcDbEntity
  8
NoLayerName_001
  6
Continuous
 62
    30
370
    25
100
AcDbLine
 10
140.1508562163069
 20
276.9069381289678
 30
0.0
 11
140.9571062163069
 21
276.4769381289678
 31
0.0
  0
LINE
  5
249
330
1F
100
AcDbEntity
  8
NoLayerName_001
  6
Continuous
 62
    30
370
    25
100
AcDbLine
 10
141.2227312163069
 20
276.3352714623011
 30
0.0
 11
142.0821062163068
 21
275.8769381289678
 31
0.0
  0
LINE
  5
24A
330
1F
100
AcDbEntity
  8
NoLayerName_001
  6
Continuous
 62
    30
370
    25
100
AcDbLine
 10
139.8321062163069
 20
275.8769381289677
 30
0.0
 11
140.6914812163069
 21
276.335271462301
 31
0.0
  0
LINE
  5
24B
330
1F
100
AcDbEntity
  8
NoLayerName_001
  6
Continuous
 62
    30
370
    25
100
AcDbLine
 10
140.9571062163069
 20
276.4769381289677
 30
0.0
 11
141.7633562163069
 21
276.9069381289677
 31
0.0
  0
LINE
  5
24C
330
1F
100
AcDbEntity
  8
NoLayerName_001
  6
Continuous
 62
    30
370
    25
100
AcDbLine
 10
142.0821062163069
 20
275.8769381289677
 30
0.0
 11
142.9414812163069
 21
276.335271462301
 31
0.0
  0
LINE
  5
24D
330
1F
100
AcDbEntity
  8
NoLayerName_001
  6
Continuous
 62
    30
370
    25
100
AcDbLine
 10
143.2071062163069
 20
276.4769381289677
 30
0.0
 11
144.0133562163069
 21
276.9069381289677
 31
0.0
  0
LINE
  5
24E
330
1F
100
AcDbEntity
  8
NoLayerName_001
  6
Continuous
 62
    30
370
    25
100
AcDbLine
 10
142.4008562163069
 20
276.9069381289678
 30
0.0
 11
143.2071062163069
 21
276.4769381289678
 31
0.0
  0
LINE
  5
24F
330
1F
100
AcDbEntity
  8
NoLayerName_001
  6
Continuous
 62
    30
370
    25
100
AcDbLine
 10
143.4727312163069
 20
276.3352714623011
 30
0.0
 11
144.3321062163069
 21
275.8769381289678
 31
0.0
  0
LINE
  5
250
330
1F
100
AcDbEntity
  8
NoLayerName_001
  6
Continuous
 62
    30
370
    25
100
AcDbLine
 10
144.3321062163069
 20
275.8769381289677
 30
0.0
 11
145.1914812163069
 21
276.335271462301
 31
0.0
  0
LINE
  5
251
330
1F
100
AcDbEntity
  8
NoLayerName_001
  6
Continuous
 62
    30
370
    25
100
AcDbLine
 10
145.4571062163069
 20
276.4769381289677
 30
0.0
 11
146.2633562163068
 21
276.9069381289677
 31
0.0
  0
LINE
  5
252
330
1F
100
AcDbEntity
  8
NoLayerName_001
  6
Continuous
 62
    30
370
    25
100
AcDbLine
 10
144.6508562163069
 20
276.9069381289678
 30
0.0
 11
145.4571062163069
 21
276.4769381289678
 31
0.0
  0
LINE
  5
253
330
1F
100
AcDbEntity
  8
NoLayerName_001
  6
Continuous
 62
    30
370
    25
100
AcDbLine
 10
145.7227312163069
 20
276.3352714623011
 30
0.0
 11
146.5821062163068
 21
275.8769381289678
 31
0.0
  0
LINE
  5
254
330
1F
100
AcDbEntity
  8
NoLayerName_001
  6
Continuous
 62
    30
370
    25
100
AcDbLine
 10
144.3321062163069
 20
275.8202714623011
 30
0.0
 11
144.3321062163069
 21
275.8769381289678
 31
0.0
  0
LINE
  5
255
330
1F
100
AcDbEntity
  8
NoLayerName_001
  6
Continuous
 62
    30
370
    25
100
AcDbLine
 10
142.0821062163069
 20
275.8202714623011
 30
0.0
 11
142.0821062163069
 21
275.8769381289678
 31
0.0
  0
LINE
  5
256
330
1F
100
AcDbEntity
  8
NoLayerName_001
  6
Continuous
 62
    30
370
    25
100
AcDbLine
 10
143.2071062163069
 20
276.4202714623011
 30
0.0
 11
143.2071062163069
 21
276.4769381289678
 31
0.0
  0
LINE
  5
257
330
1F
100
AcDbEntity
  8
NoLayerName_001
  6
Continuous
 62
    30
370
    25
100
AcDbLine
 10
145.4571062163069
 20
276.4202714623011
 30
0.0
 11
145.4571062163069
 21
276.4769381289678
 31
0.0
  0
LINE
  5
258
330
1F
100
AcDbEntity
  8
NoLayerName_001
  6
Continuous
 62
    30
370
    25
100
AcDbLine
 10
140.9571062163069
 20
276.4202714623011
 30
0.0
 11
140.9571062163069
 21
276.4769381289678
 31
0.0
  0
LINE
  5
259
330
1F
100
AcDbEntity
  8
NoLayerName_001
  6
Continuous
 62
    30
370
    25
100
AcDbLine
 10
144.5446062163068
 20
275.7069381289677
 30
0.0
 11
146.3696062163068
 21
275.7069381289677
 31
0.0
  0
LINE
  5
25A
330
1F
100
AcDbEntity
  8
NoLayerName_001
  6
Continuous
 62
    30
370
    25
100
AcDbLine
 10
142.2946062163068
 20
275.7069381289677
 30
0.0
 11
144.1196062163068
 21
275.7069381289677
 31
0.0
  0
LINE
  5
25B
330
1F
100
AcDbEntity
  8
NoLayerName_001
  6
Continuous
 62
    30
370
    25
100
AcDbLine
 10
140.0446062163068
 20
275.7069381289677
 30
0.0
 11
141.8696062163068
 21
275.7069381289677
 31
0.0
  0
LINE
  5
25C
330
1F
100
AcDbEntity
  8
NoLayerName_001
  6
Continuous
 62
    30
370
    25
100
AcDbLine
 10
140.1383562163068
 20
275.7569381289677
 30
0.0
 11
141.7758562163068
 21
275.7569381289677
 31
0.0
  0
LINE
  5
25D
330
1F
100
AcDbEntity
  8
NoLayerName_001
  6
Continuous
 62
    30
370
    50
100
AcDbLine
 10
139.8321062163069
 20
277.3069381289678
 30
0.0
 11
147.5821062163069
 21
277.3069381289678
 31
0.0
  0
LINE
  5
25E
330
1F
100
AcDbEntity
  8
NoLayerName_001
  6
Continuous
 62
    30
370
    50
100
AcDbLine
 10
150.9629842632461
 20
276.3904482358913
 30
0.0
 11
151.1294741563225
 21
276.5569381289677
 31
0.0
  0
LINE
  5
25F
330
1F
100
AcDbEntity
  8
NoLayerName_001
  6
Continuous
 62
    30
370
    50
100
AcDbLine
 10
150.9629842632461
 20
275.5569381289678
 30
0.0
 11
150.9629842632461
 21
279.5569381289678
 31
0.0
  0
LINE
  5
260
330
1F
100
AcDbEntity
  8
NoLayerName_001
  6
Continuous
 62
    30
370
    25
100
AcDbLine
 10
150.2129842632461
 20
276.7819381289678
 30
0.0
 11
150.2129842632461
 21
277.1319271295102
 31
0.0
  0
LINE
  5
261
330
1F
100
AcDbEntity
  8
NoLayerName_001
  6
Continuous
 62
    30
370
    25
100
AcDbLine
 10
150.2129842632461
 20
276.3819381289677
 30
0.0
 11
150.2129842632461
 21
276.7319381289677
 31
0.0
  0
LINE
  5
262
330
1F
100
AcDbEntity
  8
NoLayerName_001
  6
Continuous
 62
    30
370
    25
100
AcDbLine
 10
150.2129842632461
 20
275.9819381289677
 30
0.0
 11
150.2129842632461
 21
276.3319381289677
 31
0.0
  0
LINE
  5
263
330
1F
100
AcDbEntity
  8
NoLayerName_001
  6
Continuous
 62
    30
370
    25
100
AcDbLine
 10
150.2129842632461
 20
277.1819491284253
 30
0.0
 11
150.2129842632461
 21
277.5319381289677
 31
0.0
  0
LINE
  5
264
330
1F
100
AcDbEntity
  8
NoLayerName_001
  6
Continuous
 62
    30
370
    25
100
AcDbLine
 10
146.9629842632461
 20
277.5319381289678
 30
0.0
 11
150.2129842632461
 21
277.5319381289678
 31
0.0
  0
LINE
  5
265
330
1F
100
AcDbEntity
  8
NoLayerName_001
  6
Continuous
 62
    30
370
    25
100
AcDbLine
 10
150.2129842632461
 20
275.9319381289678
 30
0.0
 11
150.2129842632461
 21
275.6074151434801
 31
0.0
  0
LINE
  5
266
330
1F
100
AcDbEntity
  8
NoLayerName_001
  6
Continuous
 62
    30
370
    25
100
AcDbLine
 10
147.5821062163069
 20
277.2099782443967
 30
0.0
 11
150.2129842632461
 21
277.1319271295101
 31
0.0
  0
LINE
  5
267
330
1F
100
AcDbEntity
  8
NoLayerName_001
  6
Continuous
 62
    30
370
    25
100
AcDbLine
 10
147.5821062163069
 20
277.260000243312
 30
0.0
 11
150.2129842632461
 21
277.1819491284254
 31
0.0
  0
LINE
  5
268
330
1F
100
AcDbEntity
  8
NoLayerName_001
  6
Continuous
 62
    30
370
    25
100
AcDbLine
 10
147.5821062163069
 20
276.947945233328
 30
0.0
 11
150.2129842632461
 21
276.7819878191407
 31
0.0
  0
LINE
  5
269
330
1F
100
AcDbEntity
  8
NoLayerName_001
  6
Continuous
 62
    30
370
    25
100
AcDbLine
 10
147.5821062163069
 20
276.8978458529821
 30
0.0
 11
150.2129842632461
 21
276.7318884387948
 31
0.0
  0
LINE
  5
26A
330
1F
100
AcDbEntity
  8
NoLayerName_001
  6
Continuous
 62
    30
370
    25
100
AcDbLine
 10
147.5821062163069
 20
276.6343677950573
 30
0.0
 11
150.2129842632461
 21
276.3820528384597
 31
0.0
  0
LINE
  5
26B
330
1F
100
AcDbEntity
  8
NoLayerName_001
  6
Continuous
 62
    30
370
    25
100
AcDbLine
 10
147.5821062163069
 20
276.5841383760733
 30
0.0
 11
150.2129842632461
 21
276.3318234194757
 31
0.0
  0
LINE
  5
26C
330
1F
100
AcDbEntity
  8
NoLayerName_001
  6
Continuous
 62
    30
370
    25
100
AcDbLine
 10
147.5821062163069
 20
276.2870467857589
 30
0.0
 11
150.2129842632461
 21
275.9821055036066
 31
0.0
  0
LINE
  5
26D
330
1F
100
AcDbEntity
  8
NoLayerName_001
  6
Continuous
 62
    30
370
    25
100
AcDbLine
 10
147.5821062163069
 20
276.2367120364811
 30
0.0
 11
150.2129651202748
 21
275.931772973163
 31
0.0
  0
LINE
  5
26E
330
1F
100
AcDbEntity
  8
NoLayerName_001
  6
Continuous
 62
    30
370
    25
100
AcDbLine
 10
147.5821062163069
 20
275.971690565364
 30
0.0
 11
150.2129842632461
 21
275.6074151434801
 31
0.0
  0
LINE
  5
26F
330
1F
100
AcDbEntity
  8
NoLayerName_001
  6
Continuous
 62
    30
370
    25
100
AcDbLine
 10
146.9629842632461
 20
277.5819381289677
 30
0.0
 11
146.9629842632461
 21
277.5319381289678
 31
0.0
  0
LINE
  5
270
330
1F
100
AcDbEntity
  8
NoLayerName_001
  6
Continuous
 62
    30
370
    50
100
AcDbLine
 10
150.2129842632461
 20
275.5569381289678
 30
0.0
 11
147.606850889066
 21
275.9177873653927
 31
0.0
  0
LINE
  5
271
330
1F
100
AcDbEntity
  8
NoLayerName_001
  6
Continuous
 62
    30
370
    50
100
AcDbLine
 10
144.4629842632461
 20
277.8069381289678
 30
0.0
 11
144.4629842632461
 21
277.3069381289678
 31
0.0
  0
LINE
  5
272
330
1F
100
AcDbEntity
  8
NoLayerName_001
  6
Continuous
 62
    30
370
    50
100
AcDbLine
 10
139.8321062163069
 20
277.8069381289678
 30
0.0
 11
139.8321062163069
 21
277.3069381289678
 31
0.0
  0
LINE
  5
273
330
1F
100
AcDbEntity
  8
NoLayerName_001
  6
CENTER
 62
     3
370
    25
100
AcDbLine
 10
66.9604090376405
 20
235.4583750818923
 30
0.0
 11
66.9604090376405
 21
228.8626598579911
 31
0.0
  0
MTEXT
  5
274
330
1F
100
AcDbEntity
  8
NoLayerName_001
 62
     7
370
    25
100
AcDbMText
 10
130.0591566392285
 20
174.4633106923189
 30
0.0
 40
3.200000047683716
 41
0.0
 71
     7
 72
     5
  1
\A1;\W0.7083;\L付属　ＡＹプラグ　×１\l
 73
     1
 44
1.0
1001
ACAD
1000
ACAD_MTEXT_DEFINED_HEIGHT_BEGIN
1070
    46
1040
3.200000047683716
1000
ACAD_MTEXT_DEFINED_HEIGHT_END
  0
MTEXT
  5
275
330
1F
100
AcDbEntity
  8
NoLayerName_001
 62
     7
370
    50
100
AcDbMText
 10
129.0405754504716
 20
270.1373270089603
 30
0.0
 40
2.206896584609459
 41
0.0
 71
     7
 72
     5
  1
\fＭＳ Ｐゴシック|b0|c128|p50;\A1;\L付属　ＡＹプラグ　×１\l
 73
     1
 44
1.299389002163688
1001
ACAD
1000
ACAD_MTEXT_DEFINED_HEIGHT_BEGIN
1070
    46
1040
3.200000047683716
1000
ACAD_MTEXT_DEFINED_HEIGHT_END
  0
MTEXT
  5
276
330
1F
100
AcDbEntity
  8
NoLayerName_001
 62
     7
370
    50
100
AcDbMText
 10
74.58724173190734
 20
211.7469908244912
 30
0.0
 40
2.620689622287093
 41
0.0
 71
     4
 72
     5
  1
\fＭＳ Ｐゴシック|b0|c128|p50;\A1;\LＳＡ－１６，１９，２２，２５，２８，３１，３６，３９，Ｖ１６\l
 73
     1
 44
1.299389002163688
1001
ACAD
1000
ACAD_MTEXT_DEFINED_HEIGHT_BEGIN
1070
    46
1040
3.799999952316284
1000
ACAD_MTEXT_DEFINED_HEIGHT_END
  0
MTEXT
  5
277
330
1F
100
AcDbEntity
  8
NoLayerName_001
 62
     7
370
    50
100
AcDbMText
 10
95.21152890135437
 20
111.4002378736261
 30
0.0
 40
2.620689622287093
 41
0.0
 71
     4
 72
     5
  1
\fＭＳ Ｐゴシック|b0|c128|p50;\A1;\LＳＡ－４２，５１，５４，７０\l
 73
     1
 44
1.299389002163688
1001
ACAD
1000
ACAD_MTEXT_DEFINED_HEIGHT_BEGIN
1070
    46
1040
3.799999952316284
1000
ACAD_MTEXT_DEFINED_HEIGHT_END
  0
LINE
  5
278
330
1F
100
AcDbEntity
  8
NoLayerName_001
  6
CENTER
 62
     3
370
    25
100
AcDbLine
 10
64.7104090376405
 20
130.3299467036286
 30
0.0
 11
64.7104090376405
 21
125.9345821816121
 31
0.0
  0
LINE
  5
279
330
1F
100
AcDbEntity
  8
NoLayerName_001
  6
CENTER
 62
     3
370
    25
100
AcDbLine
 10
64.7104090376405
 20
174.7524797985429
 30
0.0
 11
64.7104090376405
 21
179.1112967807082
 31
0.0
  0
LINE
  5
27A
330
1F
100
AcDbEntity
  8
NoLayerName_002
  6
Continuous
 62
     7
370
   100
100
AcDbLine
 10
186.0
 20
40.0
 30
0.0
 11
126.5
 21
40.0
 31
0.0
  0
LINE
  5
27B
330
1F
100
AcDbEntity
  8
NoLayerName_002
  6
Continuous
 62
     7
370
   100
100
AcDbLine
 10
186.0
 20
40.0
 30
0.0
 11
186.0
 21
27.0
 31
0.0
  0
LINE
  5
27C
330
1F
100
AcDbEntity
  8
NoLayerName_002
  6
Continuous
 62
     7
370
    50
100
AcDbLine
 10
137.5
 20
40.0
 30
0.0
 11
137.5
 21
27.0
 31
0.0
  0
LINE
  5
27D
330
1F
100
AcDbEntity
  8
NoLayerName_002
  6
Continuous
 62
     7
370
    25
100
AcDbLine
 10
163.7
 20
10.60000000000001
 30
0.0
 11
137.5
 21
10.60000000000001
 31
0.0
  0
LINE
  5
27E
330
1F
100
AcDbEntity
  8
NoLayerName_002
  6
Continuous
 62
     7
370
    25
100
AcDbLine
 10
163.7
 20
5.300000000000011
 30
0.0
 11
137.5
 21
5.300000000000011
 31
0.0
  0
LINE
  5
27F
330
1F
100
AcDbEntity
  8
NoLayerName_002
  6
Continuous
 62
     7
370
    25
100
AcDbLine
 10
163.7
 20
0.0000000000000142
 30
0.0
 11
137.5
 21
0.0000000000000142
 31
0.0
  0
LINE
  5
280
330
1F
100
AcDbEntity
  8
NoLayerName_002
  6
Continuous
 62
     7
370
    25
100
AcDbLine
 10
189.9
 20
10.60000000000001
 30
0.0
 11
163.7
 21
10.60000000000001
 31
0.0
  0
LINE
  5
281
330
1F
100
AcDbEntity
  8
NoLayerName_002
  6
Continuous
 62
     7
370
    25
100
AcDbLine
 10
189.9
 20
5.300000000000011
 30
0.0
 11
163.7
 21
5.300000000000011
 31
0.0
  0
LINE
  5
282
330
1F
100
AcDbEntity
  8
NoLayerName_002
  6
Continuous
 62
     7
370
    25
100
AcDbLine
 10
189.9
 20
0.0000000000000142
 30
0.0
 11
163.7
 21
0.0000000000000142
 31
0.0
  0
LINE
  5
283
330
1F
100
AcDbEntity
  8
NoLayerName_002
  6
Continuous
 62
     7
370
   100
100
AcDbLine
 10
189.9
 20
15.90000000000001
 30
0.0
 11
216.1
 21
15.90000000000001
 31
0.0
  0
LINE
  5
284
330
1F
100
AcDbEntity
  8
NoLayerName_002
  6
Continuous
 62
     7
370
    25
100
AcDbLine
 10
189.9
 20
15.90000000000001
 30
0.0
 11
137.5
 21
15.90000000000001
 31
0.0
  0
LINE
  5
285
330
1F
100
AcDbEntity
  8
NoLayerName_002
  6
Continuous
 62
     7
370
    25
100
AcDbLine
 10
216.1
 20
21.7
 30
0.0
 11
137.5
 21
21.7
 31
0.0
  0
LINE
  5
286
330
1F
100
AcDbEntity
  8
NoLayerName_002
  6
Continuous
 62
     7
370
    25
100
AcDbLine
 10
216.1
 20
21.2
 30
0.0
 11
137.5
 21
21.2
 31
0.0
  0
LINE
  5
287
330
1F
100
AcDbEntity
  8
NoLayerName_002
  6
Continuous
 62
     7
370
   100
100
AcDbLine
 10
216.1
 20
27.0
 30
0.0
 11
216.1
 21
15.90000000000001
 31
0.0
  0
LINE
  5
288
330
1F
100
AcDbEntity
  8
NoLayerName_002
  6
Continuous
 62
     7
370
    50
100
AcDbLine
 10
189.9
 20
15.90000000000001
 30
0.0
 11
189.9
 21
27.0
 31
0.0
  0
LINE
  5
289
330
1F
100
AcDbEntity
  8
NoLayerName_002
  6
Continuous
 62
     7
370
    50
100
AcDbLine
 10
137.5
 20
27.0
 30
0.0
 11
137.5
 21
-5.299999999999983
 31
0.0
  0
MTEXT
  5
28A
330
1F
100
AcDbEntity
  8
NoLayerName_002
 62
     7
370
    50
100
AcDbMText
 10
132.0000000250319
 20
11.0
 30
0.0
 40
2.206896584609459
 41
0.0
 71
     5
 72
     5
  1
\fＭＳ Ｐゴシック|b0|c128|p50;\A1;品　番
 73
     1
 44
1.299389002163688
1001
ACAD
1000
ACAD_MTEXT_DEFINED_HEIGHT_BEGIN
1070
    46
1040
3.200000047683716
1000
ACAD_MTEXT_DEFINED_HEIGHT_END
  0
MTEXT
  5
28B
330
1F
100
AcDbEntity
  8
NoLayerName_001
 62
     3
370
    50
100
AcDbMText
 10
150.6000000723174
 20
24.35
 30
0.0
 40
2.206896584609459
 41
0.0
 71
     5
 72
     5
  1
\fＭＳ Ｐゴシック|b0|c128|p50;\A1;薄鋼用
 73
     1
 44
1.299389002163688
1001
ACAD
1000
ACAD_MTEXT_DEFINED_HEIGHT_BEGIN
1070
    46
1040
3.200000047683716
1000
ACAD_MTEXT_DEFINED_HEIGHT_END
  0
MTEXT
  5
28C
330
1F
100
AcDbEntity
  8
NoLayerName_001
 62
     3
370
    50
100
AcDbMText
 10
176.7121123083404
 20
24.35
 30
0.0
 40
2.206896584609459
 41
0.0
 71
     5
 72
     5
  1
\fＭＳ Ｐゴシック|b0|c128|p50;\A1;厚鋼用
 73
     1
 44
1.299389002163688
1001
ACAD
1000
ACAD_MTEXT_DEFINED_HEIGHT_BEGIN
1070
    46
1040
3.200000047683716
1000
ACAD_MTEXT_DEFINED_HEIGHT_END
  0
MTEXT
  5
28D
330
1F
100
AcDbEntity
  8
NoLayerName_001
 62
     3
370
    50
100
AcDbMText
 10
202.9121121294828
 20
24.35
 30
0.0
 40
2.206896584609459
 41
0.0
 71
     5
 72
     5
  1
\fＭＳ Ｐゴシック|b0|c128|p50;\A1;ＶＥ管用
 73
     1
 44
1.299389002163688
1001
ACAD
1000
ACAD_MTEXT_DEFINED_HEIGHT_BEGIN
1070
    46
1040
3.200000047683716
1000
ACAD_MTEXT_DEFINED_HEIGHT_END
  0
LINE
  5
28E
330
1F
100
AcDbEntity
  8
NoLayerName_002
  6
Continuous
 62
     7
370
   100
100
AcDbLine
 10
126.5
 20
40.0
 30
0.0
 11
126.5
 21
-5.299999999999983
 31
0.0
  0
LINE
  5
28F
330
1F
100
AcDbEntity
  8
NoLayerName_002
  6
Continuous
 62
     7
370
   100
100
AcDbLine
 10
126.5
 20
27.0
 30
0.0
 11
216.1
 21
27.0
 31
0.0
  0
LINE
  5
290
330
1F
100
AcDbEntity
  8
NoLayerName_002
  6
Continuous
 62
     7
370
    25
100
AcDbLine
 10
189.9
 20
-10.59999999999998
 30
0.0
 11
163.7
 21
-10.59999999999998
 31
0.0
  0
LINE
  5
291
330
1F
100
AcDbEntity
  8
NoLayerName_002
  6
Continuous
 62
     7
370
   100
100
AcDbLine
 10
189.9
 20
15.90000000000001
 30
0.0
 11
189.9
 21
-15.89999999999998
 31
0.0
  0
LINE
  5
292
330
1F
100
AcDbEntity
  8
NoLayerName_002
  6
Continuous
 62
     7
370
   100
100
AcDbLine
 10
189.9
 20
-15.89999999999998
 30
0.0
 11
163.7
 21
-15.89999999999998
 31
0.0
  0
LINE
  5
293
330
1F
100
AcDbEntity
  8
NoLayerName_002
  6
Continuous
 62
     7
370
    25
100
AcDbLine
 10
163.7
 20
-5.299999999999983
 30
0.0
 11
189.9
 21
-5.299999999999983
 31
0.0
  0
LINE
  5
294
330
1F
100
AcDbEntity
  8
NoLayerName_002
  6
Continuous
 62
     7
370
   100
100
AcDbLine
 10
163.7
 20
-5.299999999999983
 30
0.0
 11
126.5
 21
-5.299999999999983
 31
0.0
  0
LINE
  5
295
330
1F
100
AcDbEntity
  8
NoLayerName_002
  6
Continuous
 62
     7
370
    50
100
AcDbLine
 10
163.7
 20
-5.299999999999983
 30
0.0
 11
163.7
 21
27.0
 31
0.0
  0
LINE
  5
296
330
1F
100
AcDbEntity
  8
NoLayerName_002
  6
Continuous
 62
     7
370
   100
100
AcDbLine
 10
163.7
 20
-5.299999999999983
 30
0.0
 11
163.7
 21
-15.89999999999998
 31
0.0
  0
MTEXT
  5
297
330
1F
100
AcDbEntity
  8
NoLayerName_001
 62
     3
370
    50
100
AcDbMText
 10
150.5748481968745
 20
18.55
 30
0.0
 40
2.206896584609459
 41
0.0
 71
     5
 72
     5
  1
\fＭＳ Ｐゴシック|b0|c128|p50;\A1;ＳＡ－１９Ｓ
 73
     1
 44
1.299389002163688
1001
ACAD
1000
ACAD_MTEXT_DEFINED_HEIGHT_BEGIN
1070
    46
1040
3.200000047683716
1000
ACAD_MTEXT_DEFINED_HEIGHT_END
  0
MTEXT
  5
298
330
1F
100
AcDbEntity
  8
NoLayerName_001
 62
     3
370
    50
100
AcDbMText
 10
150.5748481968744
 20
13.25000000000001
 30
0.0
 40
2.206896584609459
 41
0.0
 71
     5
 72
     5
  1
\fＭＳ Ｐゴシック|b0|c128|p50;\A1;ＳＡ－２５Ｓ
 73
     1
 44
1.299389002163688
1001
ACAD
1000
ACAD_MTEXT_DEFINED_HEIGHT_BEGIN
1070
    46
1040
3.200000047683716
1000
ACAD_MTEXT_DEFINED_HEIGHT_END
  0
MTEXT
  5
299
330
1F
100
AcDbEntity
  8
NoLayerName_001
 62
     3
370
    50
100
AcDbMText
 10
150.5748481968744
 20
7.95000000000001
 30
0.0
 40
2.206896584609459
 41
0.0
 71
     5
 72
     5
  1
\fＭＳ Ｐゴシック|b0|c128|p50;\A1;ＳＡ－３１Ｓ
 73
     1
 44
1.299389002163688
1001
ACAD
1000
ACAD_MTEXT_DEFINED_HEIGHT_BEGIN
1070
    46
1040
3.200000047683716
1000
ACAD_MTEXT_DEFINED_HEIGHT_END
  0
MTEXT
  5
29A
330
1F
100
AcDbEntity
  8
NoLayerName_001
 62
     3
370
    50
100
AcDbMText
 10
150.5748481968745
 20
2.650000000000013
 30
0.0
 40
2.206896584609459
 41
0.0
 71
     5
 72
     5
  1
\fＭＳ Ｐゴシック|b0|c128|p50;\A1;ＳＡ－３９Ｓ
 73
     1
 44
1.299389002163688
1001
ACAD
1000
ACAD_MTEXT_DEFINED_HEIGHT_BEGIN
1070
    46
1040
3.200000047683716
1000
ACAD_MTEXT_DEFINED_HEIGHT_END
  0
MTEXT
  5
29B
330
1F
100
AcDbEntity
  8
NoLayerName_001
 62
     3
370
    50
100
AcDbMText
 10
150.5748481968744
 20
-2.649999999999984
 30
0.0
 40
2.206896584609459
 41
0.0
 71
     5
 72
     5
  1
\fＭＳ Ｐゴシック|b0|c128|p50;\A1;ＳＡ－５１Ｓ
 73
     1
 44
1.299389002163688
1001
ACAD
1000
ACAD_MTEXT_DEFINED_HEIGHT_BEGIN
1070
    46
1040
3.200000047683716
1000
ACAD_MTEXT_DEFINED_HEIGHT_END
  0
MTEXT
  5
29C
330
1F
100
AcDbEntity
  8
NoLayerName_001
 62
     3
370
    50
100
AcDbMText
 10
176.6645518598841
 20
18.55
 30
0.0
 40
2.206896584609459
 41
0.0
 71
     5
 72
     5
  1
\fＭＳ Ｐゴシック|b0|c128|p50;\A1;ＳＡ－１６Ｓ
 73
     1
 44
1.299389002163688
1001
ACAD
1000
ACAD_MTEXT_DEFINED_HEIGHT_BEGIN
1070
    46
1040
3.200000047683716
1000
ACAD_MTEXT_DEFINED_HEIGHT_END
  0
MTEXT
  5
29D
330
1F
100
AcDbEntity
  8
NoLayerName_001
 62
     3
370
    50
100
AcDbMText
 10
176.6645518598841
 20
13.25000000000001
 30
0.0
 40
2.206896584609459
 41
0.0
 71
     5
 72
     5
  1
\fＭＳ Ｐゴシック|b0|c128|p50;\A1;ＳＡ－２２Ｓ
 73
     1
 44
1.299389002163688
1001
ACAD
1000
ACAD_MTEXT_DEFINED_HEIGHT_BEGIN
1070
    46
1040
3.200000047683716
1000
ACAD_MTEXT_DEFINED_HEIGHT_END
  0
MTEXT
  5
29E
330
1F
100
AcDbEntity
  8
NoLayerName_001
 62
     3
370
    50
100
AcDbMText
 10
176.6645518598841
 20
7.95000000000001
 30
0.0
 40
2.206896584609459
 41
0.0
 71
     5
 72
     5
  1
\fＭＳ Ｐゴシック|b0|c128|p50;\A1;ＳＡ－２８Ｓ
 73
     1
 44
1.299389002163688
1001
ACAD
1000
ACAD_MTEXT_DEFINED_HEIGHT_BEGIN
1070
    46
1040
3.200000047683716
1000
ACAD_MTEXT_DEFINED_HEIGHT_END
  0
MTEXT
  5
29F
330
1F
100
AcDbEntity
  8
NoLayerName_001
 62
     3
370
    50
100
AcDbMText
 10
176.6645518598842
 20
2.650000000000013
 30
0.0
 40
2.206896584609459
 41
0.0
 71
     5
 72
     5
  1
\fＭＳ Ｐゴシック|b0|c128|p50;\A1;ＳＡ－３６Ｓ
 73
     1
 44
1.299389002163688
1001
ACAD
1000
ACAD_MTEXT_DEFINED_HEIGHT_BEGIN
1070
    46
1040
3.200000047683716
1000
ACAD_MTEXT_DEFINED_HEIGHT_END
  0
MTEXT
  5
2A0
330
1F
100
AcDbEntity
  8
NoLayerName_001
 62
     3
370
    50
100
AcDbMText
 10
176.6645518598841
 20
-2.649999999999984
 30
0.0
 40
2.206896584609459
 41
0.0
 71
     5
 72
     5
  1
\fＭＳ Ｐゴシック|b0|c128|p50;\A1;ＳＡ－４２Ｓ
 73
     1
 44
1.299389002163688
1001
ACAD
1000
ACAD_MTEXT_DEFINED_HEIGHT_BEGIN
1070
    46
1040
3.200000047683716
1000
ACAD_MTEXT_DEFINED_HEIGHT_END
  0
MTEXT
  5
2A1
330
1F
100
AcDbEntity
  8
NoLayerName_001
 62
     3
370
    50
100
AcDbMText
 10
176.6645518598842
 20
-7.949999999999982
 30
0.0
 40
2.206896584609459
 41
0.0
 71
     5
 72
     5
  1
\fＭＳ Ｐゴシック|b0|c128|p50;\A1;ＳＡ－５４Ｓ
 73
     1
 44
1.299389002163688
1001
ACAD
1000
ACAD_MTEXT_DEFINED_HEIGHT_BEGIN
1070
    46
1040
3.200000047683716
1000
ACAD_MTEXT_DEFINED_HEIGHT_END
  0
MTEXT
  5
2A2
330
1F
100
AcDbEntity
  8
NoLayerName_001
 62
     3
370
    50
100
AcDbMText
 10
176.6645518598841
 20
-13.24999999999998
 30
0.0
 40
2.206896584609459
 41
0.0
 71
     5
 72
     5
  1
\fＭＳ Ｐゴシック|b0|c128|p50;\A1;ＳＡ－７０Ｓ
 73
     1
 44
1.299389002163688
1001
ACAD
1000
ACAD_MTEXT_DEFINED_HEIGHT_BEGIN
1070
    46
1040
3.200000047683716
1000
ACAD_MTEXT_DEFINED_HEIGHT_END
  0
MTEXT
  5
2A3
330
1F
100
AcDbEntity
  8
NoLayerName_001
 62
     3
370
    50
100
AcDbMText
 10
194.442808903874
 20
18.61440578751611
 30
0.0
 40
2.206896584609459
 41
0.0
 71
     4
 72
     5
  1
\fＭＳ Ｐゴシック|b0|c128|p50;\A1;ＳＡ－Ｖ１６Ｓ
 73
     1
 44
1.299389002163688
1001
ACAD
1000
ACAD_MTEXT_DEFINED_HEIGHT_BEGIN
1070
    46
1040
3.200000047683716
1000
ACAD_MTEXT_DEFINED_HEIGHT_END
  0
MTEXT
  5
2A4
330
1F
100
AcDbEntity
  8
NoLayerName_001
 62
     7
370
    50
100
AcDbMText
 10
161.750000146617
 20
33.50000002384186
 30
0.0
 40
2.206896584609459
 41
0.0
 71
     5
 72
     5
  1
\fＭＳ Ｐゴシック|b0|c128|p50;\A1;サドルエース\P（ステンレス仕様）
 73
     1
 44
0.9745417371009623
1001
ACAD
1000
ACAD_MTEXT_DEFINED_HEIGHT_BEGIN
1070
    46
1040
6.400000095367432
1000
ACAD_MTEXT_DEFINED_HEIGHT_END
  0
MTEXT
  5
2A5
330
1F
100
AcDbEntity
  8
NoLayerName_002
 62
     7
370
    50
100
AcDbMText
 10
127.6480002403259
 20
31.89999997615814
 30
0.0
 40
2.206896584609459
 41
0.0
 71
     7
 72
     5
  1
\fＭＳ Ｐゴシック|b0|c128|p50;\A1;品　名
 73
     1
 44
1.299389002163688
1001
ACAD
1000
ACAD_MTEXT_DEFINED_HEIGHT_BEGIN
1070
    46
1040
3.200000047683716
1000
ACAD_MTEXT_DEFINED_HEIGHT_END
  0
ENDSEC
  0
SECTION
  2
OBJECTS
  0
DICTIONARY
  5
C
330
0
100
AcDbDictionary
281
     1
  3
ACAD_GROUP
350
D
  3
ACAD_LAYOUT
350
1A
  3
ACAD_MATERIAL
350
3B
  3
ACAD_MLEADERSTYLE
350
2CA
  3
ACAD_MLINESTYLE
350
17
  3
ACAD_PLOTSETTINGS
350
19
  3
ACAD_PLOTSTYLENAME
350
E
  3
ACAD_SCALELIST
350
2A6
  3
ACAD_VISUALSTYLE
350
2A
  3
AcDbVariableDictionary
350
2C8
  3
DWGPROPS
350
2D0
  0
DICTIONARY
  5
D
102
{ACAD_REACTORS
330
C
102
}
330
C
100
AcDbDictionary
281
     1
  0
DICTIONARY
  5
1A
102
{ACAD_REACTORS
330
C
102
}
330
C
100
AcDbDictionary
281
     1
  3
Layout1
350
1E
  3
Model
350
22
  0
DICTIONARY
  5
3B
102
{ACAD_REACTORS
330
C
102
}
330
C
100
AcDbDictionary
281
     1
  3
ByBlock
350
3D
  3
ByLayer
350
3C
  3
Global
350
3E
  0
DICTIONARY
  5
2CA
102
{ACAD_REACTORS
330
C
102
}
330
C
100
AcDbDictionary
281
     1
  0
DICTIONARY
  5
17
102
{ACAD_REACTORS
330
C
102
}
330
C
100
AcDbDictionary
281
     1
  3
Standard
350
18
  0
DICTIONARY
  5
19
102
{ACAD_REACTORS
330
C
102
}
330
C
100
AcDbDictionary
281
     1
  0
ACDBDICTIONARYWDFLT
  5
E
102
{ACAD_REACTORS
330
C
102
}
330
C
100
AcDbDictionary
281
     1
  3
Normal
350
F
100
AcDbDictionaryWithDefault
340
F
  0
DICTIONARY
  5
2A6
102
{ACAD_REACTORS
330
C
102
}
330
C
100
AcDbDictionary
281
     1
  3
A0
350
2A7
  3
A1
350
2A8
  3
A2
350
2A9
  3
A3
350
2AA
  3
A4
350
2AB
  3
A5
350
2AC
  3
A6
350
2AD
  3
A7
350
2AE
  3
A8
350
2AF
  3
A9
350
2B0
  3
B0
350
2B1
  3
B1
350
2B2
  3
B2
350
2B3
  3
B3
350
2B4
  3
B4
350
2B5
  3
B5
350
2B6
  3
B6
350
2B7
  3
B7
350
2B8
  3
B8
350
2B9
  3
B9
350
2BA
  3
C0
350
2BB
  3
C1
350
2BC
  3
C2
350
2BD
  3
C3
350
2BE
  3
C4
350
2BF
  3
C5
350
2C0
  3
C6
350
2C1
  3
C7
350
2C2
  3
C8
350
2C3
  3
C9
350
2C4
  3
D0
350
2C5
  3
D1
350
2C6
  3
D2
350
2C7
  0
DICTIONARY
  5
2A
102
{ACAD_REACTORS
330
C
102
}
330
C
100
AcDbDictionary
281
     1
  3
2dWireframe
350
2F
  3
3D Hidden
350
31
  3
3dWireframe
350
30
  3
Basic
350
32
  3
Brighten
350
36
  3
ColorChange
350
3A
  3
Conceptual
350
34
  3
Dim
350
35
  3
Facepattern
350
39
  3
Flat
350
2B
  3
FlatWithEdges
350
2C
  3
Gouraud
350
2D
  3
GouraudWithEdges
350
2E
  3
Linepattern
350
38
  3
Realistic
350
33
  3
Thicken
350
37
  0
DICTIONARY
  5
2C8
102
{ACAD_REACTORS
330
C
102
}
330
C
100
AcDbDictionary
281
     1
  3
CANNOSCALE
350
2CD
  3
DIMASSOC
350
2CE
  3
HIDETEXT
350
2CF
  3
PSOLHEIGHT
350
2CC
  3
PSOLWIDTH
350
2CB
  0
XRECORD
  5
2D0
102
{ACAD_REACTORS
330
C
102
}
330
C
100
AcDbXrecord
280
     1
  1
DWGPROPS COOKIE
  2

  3

  4

  6
File was created by TR2_DExp
  7

  8

  9

300
=
301
=
302
=
303
=
304
=
305
=
306
=
307
=
308
=
309
=
 40
0.0
 41
2458383.329504109
 42
2458383.329504734
  1

 90
        0
  0
LAYOUT
  5
1E
102
{ACAD_REACTORS
330
1A
102
}
330
1A
100
AcDbPlotSettings
  1

  2
none_device
  4

  6

 40
0.0
 41
0.0
 42
0.0
 43
0.0
 44
0.0
 45
0.0
 46
0.0
 47
0.0
 48
0.0
 49
0.0
140
0.0
141
0.0
142
1.0
143
1.0
 70
   688
 72
     0
 73
     0
 74
     5
  7

 75
    16
147
1.0
148
0.0
149
0.0
100
AcDbLayout
  1
Layout1
 70
     0
 71
     1
 10
0.0
 20
0.0
 11
420.0
 21
297.0
 12
0.0
 22
0.0
 32
0.0
 14
1.000000000000000E+20
 24
1.000000000000000E+20
 34
1.000000000000000E+20
 15
-1.000000000000000E+20
 25
-1.000000000000000E+20
 35
-1.000000000000000E+20
146
0.0
 13
0.0
 23
0.0
 33
0.0
 16
1.0
 26
0.0
 36
0.0
 17
0.0
 27
1.0
 37
0.0
 76
     0
330
1B
  0
LAYOUT
  5
22
102
{ACAD_REACTORS
330
1A
102
}
330
1A
100
AcDbPlotSettings
  1

  2
none_device
  4

  6

 40
0.0
 41
0.0
 42
0.0
 43
0.0
 44
0.0
 45
0.0
 46
0.0
 47
0.0
 48
0.0
 49
0.0
140
0.0
141
0.0
142
1.0
143
1.0
 70
  1712
 72
     0
 73
     0
 74
     0
  7

 75
     0
147
1.0
148
0.0
149
0.0
100
AcDbLayout
  1
Model
 70
     1
 71
     0
 10
57.72210859759373
 20
-15.89999999999998
 11
216.1
 21
285.4400556747397
 12
0.0
 22
0.0
 32
0.0
 14
57.72210859759373
 24
-15.89999999999998
 34
0.0
 15
216.1
 25
285.4400556747397
 35
0.0
146
0.0
 13
0.0
 23
0.0
 33
0.0
 16
1.0
 26
0.0
 36
0.0
 17
0.0
 27
1.0
 37
0.0
 76
     0
330
1F
331
29
  0
MATERIAL
  5
3D
102
{ACAD_REACTORS
330
3B
102
}
102
{ACAD_XDICTIONARY
360
2F3
102
}
330
3B
100
AcDbMaterial
  1
ByBlock
  0
MATERIAL
  5
3C
102
{ACAD_REACTORS
330
3B
102
}
102
{ACAD_XDICTIONARY
360
2F1
102
}
330
3B
100
AcDbMaterial
  1
ByLayer
  0
MATERIAL
  5
3E
102
{ACAD_REACTORS
330
3B
102
}
102
{ACAD_XDICTIONARY
360
2F5
102
}
330
3B
100
AcDbMaterial
  1
Global
  0
MLINESTYLE
  5
18
102
{ACAD_REACTORS
330
17
102
}
330
17
100
AcDbMlineStyle
  2
Standard
 70
     0
  3

 62
   256
 51
90.0
 52
90.0
 71
     2
 49
0.5
 62
   256
  6
BYLAYER
 49
-0.5
 62
   256
  6
BYLAYER
  0
ACDBPLACEHOLDER
  5
F
102
{ACAD_REACTORS
330
E
102
}
330
E
  0
SCALE
  5
2A7
102
{ACAD_REACTORS
330
2A6
102
}
330
2A6
100
AcDbScale
 70
     0
300
1:1
140
1.0
141
1.0
290
     1
  0
SCALE
  5
2A8
102
{ACAD_REACTORS
330
2A6
102
}
330
2A6
100
AcDbScale
 70
     0
300
1:2
140
1.0
141
2.0
290
     0
  0
SCALE
  5
2A9
102
{ACAD_REACTORS
330
2A6
102
}
330
2A6
100
AcDbScale
 70
     0
300
1:4
140
1.0
141
4.0
290
     0
  0
SCALE
  5
2AA
102
{ACAD_REACTORS
330
2A6
102
}
330
2A6
100
AcDbScale
 70
     0
300
1:5
140
1.0
141
5.0
290
     0
  0
SCALE
  5
2AB
102
{ACAD_REACTORS
330
2A6
102
}
330
2A6
100
AcDbScale
 70
     0
300
1:8
140
1.0
141
8.0
290
     0
  0
SCALE
  5
2AC
102
{ACAD_REACTORS
330
2A6
102
}
330
2A6
100
AcDbScale
 70
     0
300
1:10
140
1.0
141
10.0
290
     0
  0
SCALE
  5
2AD
102
{ACAD_REACTORS
330
2A6
102
}
330
2A6
100
AcDbScale
 70
     0
300
1:16
140
1.0
141
16.0
290
     0
  0
SCALE
  5
2AE
102
{ACAD_REACTORS
330
2A6
102
}
330
2A6
100
AcDbScale
 70
     0
300
1:20
140
1.0
141
20.0
290
     0
  0
SCALE
  5
2AF
102
{ACAD_REACTORS
330
2A6
102
}
330
2A6
100
AcDbScale
 70
     0
300
1:30
140
1.0
141
30.0
290
     0
  0
SCALE
  5
2B0
102
{ACAD_REACTORS
330
2A6
102
}
330
2A6
100
AcDbScale
 70
     0
300
1:40
140
1.0
141
40.0
290
     0
  0
SCALE
  5
2B1
102
{ACAD_REACTORS
330
2A6
102
}
330
2A6
100
AcDbScale
 70
     0
300
1:50
140
1.0
141
50.0
290
     0
  0
SCALE
  5
2B2
102
{ACAD_REACTORS
330
2A6
102
}
330
2A6
100
AcDbScale
 70
     0
300
1:100
140
1.0
141
100.0
290
     0
  0
SCALE
  5
2B3
102
{ACAD_REACTORS
330
2A6
102
}
330
2A6
100
AcDbScale
 70
     0
300
2:1
140
2.0
141
1.0
290
     0
  0
SCALE
  5
2B4
102
{ACAD_REACTORS
330
2A6
102
}
330
2A6
100
AcDbScale
 70
     0
300
4:1
140
4.0
141
1.0
290
     0
  0
SCALE
  5
2B5
102
{ACAD_REACTORS
330
2A6
102
}
330
2A6
100
AcDbScale
 70
     0
300
8:1
140
8.0
141
1.0
290
     0
  0
SCALE
  5
2B6
102
{ACAD_REACTORS
330
2A6
102
}
330
2A6
100
AcDbScale
 70
     0
300
10:1
140
10.0
141
1.0
290
     0
  0
SCALE
  5
2B7
102
{ACAD_REACTORS
330
2A6
102
}
330
2A6
100
AcDbScale
 70
     0
300
100:1
140
100.0
141
1.0
290
     0
  0
SCALE
  5
2B8
102
{ACAD_REACTORS
330
2A6
102
}
330
2A6
100
AcDbScale
 70
     0
300
1/128" = 1'-0"
140
0.0078125
141
12.0
290
     0
  0
SCALE
  5
2B9
102
{ACAD_REACTORS
330
2A6
102
}
330
2A6
100
AcDbScale
 70
     0
300
1/64" = 1'-0"
140
0.015625
141
12.0
290
     0
  0
SCALE
  5
2BA
102
{ACAD_REACTORS
330
2A6
102
}
330
2A6
100
AcDbScale
 70
     0
300
1/32" = 1'-0"
140
0.03125
141
12.0
290
     0
  0
SCALE
  5
2BB
102
{ACAD_REACTORS
330
2A6
102
}
330
2A6
100
AcDbScale
 70
     0
300
1/16" = 1'-0"
140
0.0625
141
12.0
290
     0
  0
SCALE
  5
2BC
102
{ACAD_REACTORS
330
2A6
102
}
330
2A6
100
AcDbScale
 70
     0
300
3/32" = 1'-0"
140
0.09375
141
12.0
290
     0
  0
SCALE
  5
2BD
102
{ACAD_REACTORS
330
2A6
102
}
330
2A6
100
AcDbScale
 70
     0
300
1/8" = 1'-0"
140
0.125
141
12.0
290
     0
  0
SCALE
  5
2BE
102
{ACAD_REACTORS
330
2A6
102
}
330
2A6
100
AcDbScale
 70
     0
300
3/16" = 1'-0"
140
0.1875
141
12.0
290
     0
  0
SCALE
  5
2BF
102
{ACAD_REACTORS
330
2A6
102
}
330
2A6
100
AcDbScale
 70
     0
300
1/4" = 1'-0"
140
0.25
141
12.0
290
     0
  0
SCALE
  5
2C0
102
{ACAD_REACTORS
330
2A6
102
}
330
2A6
100
AcDbScale
 70
     0
300
3/8" = 1'-0"
140
0.375
141
12.0
290
     0
  0
SCALE
  5
2C1
102
{ACAD_REACTORS
330
2A6
102
}
330
2A6
100
AcDbScale
 70
     0
300
1/2" = 1'-0"
140
0.5
141
12.0
290
     0
  0
SCALE
  5
2C2
102
{ACAD_REACTORS
330
2A6
102
}
330
2A6
100
AcDbScale
 70
     0
300
3/4" = 1'-0"
140
0.75
141
12.0
290
     0
  0
SCALE
  5
2C3
102
{ACAD_REACTORS
330
2A6
102
}
330
2A6
100
AcDbScale
 70
     0
300
1" = 1'-0"
140
1.0
141
12.0
290
     0
  0
SCALE
  5
2C4
102
{ACAD_REACTORS
330
2A6
102
}
330
2A6
100
AcDbScale
 70
     0
300
1-1/2" = 1'-0"
140
1.5
141
12.0
290
     0
  0
SCALE
  5
2C5
102
{ACAD_REACTORS
330
2A6
102
}
330
2A6
100
AcDbScale
 70
     0
300
3" = 1'-0"
140
3.0
141
12.0
290
     0
  0
SCALE
  5
2C6
102
{ACAD_REACTORS
330
2A6
102
}
330
2A6
100
AcDbScale
 70
     0
300
6" = 1'-0"
140
6.0
141
12.0
290
     0
  0
SCALE
  5
2C7
102
{ACAD_REACTORS
330
2A6
102
}
330
2A6
100
AcDbScale
 70
     0
300
1'-0" = 1'-0"
140
12.0
141
12.0
290
     0
  0
VISUALSTYLE
  5
2F
102
{ACAD_REACTORS
330
2A
102
}
102
{ACAD_XDICTIONARY
360
2D9
102
}
330
2A
100
AcDbVisualStyle
  2
2dWireframe
 70
     4
 71
     0
 72
     2
 73
     0
 90
        0
 40
-0.6
 41
-30.0
 62
     5
 63
     7
 74
     1
 91
        4
 64
     7
 65
   257
 75
     1
175
     1
 42
1.0
 92
        0
 66
   257
 43
1.0
 76
     1
 77
     6
 78
     2
 67
     7
 79
     5
170
     0
171
     0
290
     0
174
     0
 93
        1
 44
0.0
173
     0
291
     0
 45
0.0
1001
ACAD
1000
AcDbSavedByObjectVersion
1070
     0
  0
VISUALSTYLE
  5
31
102
{ACAD_REACTORS
330
2A
102
}
102
{ACAD_XDICTIONARY
360
2DD
102
}
330
2A
100
AcDbVisualStyle
  2
3D Hidden
 70
     6
 71
     1
 72
     2
 73
     2
 90
        0
 40
-0.6
 41
-30.0
 62
     5
 63
     7
 74
     2
 91
        2
 64
     7
 65
   257
 75
     2
175
     1
 42
40.0
 92
        0
 66
   257
 43
1.0
 76
     1
 77
     6
 78
     2
 67
     7
 79
     3
170
     0
171
     0
290
     0
174
     0
 93
        1
 44
0.0
173
     0
291
     0
 45
0.0
1001
ACAD
1000
AcDbSavedByObjectVersion
1070
     0
  0
VISUALSTYLE
  5
30
102
{ACAD_REACTORS
330
2A
102
}
102
{ACAD_XDICTIONARY
360
2DB
102
}
330
2A
100
AcDbVisualStyle
  2
3dWireframe
 70
     5
 71
     0
 72
     2
 73
     0
 90
        0
 40
-0.6
 41
-30.0
 62
     5
 63
     7
 74
     1
 91
        4
 64
     7
 65
   257
 75
     1
175
     1
 42
1.0
 92
        0
 66
   257
 43
1.0
 76
     1
 77
     6
 78
     2
 67
     7
 79
     5
170
     0
171
     0
290
     0
174
     0
 93
        1
 44
0.0
173
     0
291
     0
 45
0.0
1001
ACAD
1000
AcDbSavedByObjectVersion
1070
     0
  0
VISUALSTYLE
  5
32
102
{ACAD_REACTORS
330
2A
102
}
102
{ACAD_XDICTIONARY
360
2DF
102
}
330
2A
100
AcDbVisualStyle
  2
Basic
 70
     7
 71
     1
 72
     0
 73
     1
 90
        0
 40
-0.6
 41
-30.0
 62
     5
 63
     7
 74
     0
 91
        4
 64
     7
 65
   257
 75
     1
175
     1
 42
1.0
 92
        8
 66
     7
 43
1.0
 76
     1
 77
     6
 78
     2
 67
     7
 79
     5
170
     0
171
     0
290
     0
174
     0
 93
        1
 44
0.0
173
     0
291
     1
 45
0.0
1001
ACAD
1000
AcDbSavedByObjectVersion
1070
     0
  0
VISUALSTYLE
  5
36
102
{ACAD_REACTORS
330
2A
102
}
102
{ACAD_XDICTIONARY
360
2E7
102
}
330
2A
100
AcDbVisualStyle
  2
Brighten
 70
    12
 71
     2
 72
     2
 73
     0
 90
        0
 40
-0.6
 41
-30.0
 62
     5
 63
     7
 74
     1
 91
        4
 64
     7
 65
   257
 75
     1
175
     1
 42
1.0
 92
        8
 66
     7
 43
1.0
 76
     1
 77
     6
 78
     2
 67
     7
 79
     5
170
     0
171
     0
290
     0
174
     0
 93
        1
 44
50.0
173
     0
291
     1
 45
0.0
1001
ACAD
1000
AcDbSavedByObjectVersion
1070
     0
  0
VISUALSTYLE
  5
3A
102
{ACAD_REACTORS
330
2A
102
}
102
{ACAD_XDICTIONARY
360
2EF
102
}
330
2A
100
AcDbVisualStyle
  2
ColorChange
 70
    16
 71
     2
 72
     2
 73
     3
 90
        0
 40
-0.6
 41
-30.0
 62
     5
 63
     8
 74
     1
 91
        4
 64
     7
 65
   257
 75
     1
175
     1
 42
1.0
 92
        8
 66
     8
 43
1.0
 76
     1
 77
     6
 78
     2
 67
     7
 79
     5
170
     0
171
     0
290
     0
174
     0
 93
        1
 44
0.0
173
     0
291
     1
 45
0.0
1001
ACAD
1000
AcDbSavedByObjectVersion
1070
     0
  0
VISUALSTYLE
  5
34
102
{ACAD_REACTORS
330
2A
102
}
102
{ACAD_XDICTIONARY
360
2E3
102
}
330
2A
100
AcDbVisualStyle
  2
Conceptual
 70
     9
 71
     3
 72
     2
 73
     0
 90
        0
 40
-0.6
 41
-30.0
 62
     5
 63
     7
 74
     2
 91
        2
 64
     7
 65
   257
 75
     1
175
     1
 42
40.0
 92
        8
 66
     7
 43
1.0
 76
     1
 77
     6
 78
     2
 67
     7
 79
     3
170
     0
171
     0
290
     0
174
     0
 93
        1
 44
0.0
173
     0
291
     0
 45
0.0
1001
ACAD
1000
AcDbSavedByObjectVersion
1070
     0
  0
VISUALSTYLE
  5
35
102
{ACAD_REACTORS
330
2A
102
}
102
{ACAD_XDICTIONARY
360
2E5
102
}
330
2A
100
AcDbVisualStyle
  2
Dim
 70
    11
 71
     2
 72
     2
 73
     0
 90
        0
 40
-0.6
 41
-30.0
 62
     5
 63
     7
 74
     1
 91
        4
 64
     7
 65
   257
 75
     1
175
     1
 42
1.0
 92
        8
 66
     7
 43
1.0
 76
     1
 77
     6
 78
     2
 67
     7
 79
     5
170
     0
171
     0
290
     0
174
     0
 93
        1
 44
-50.0
173
     0
291
     1
 45
0.0
1001
ACAD
1000
AcDbSavedByObjectVersion
1070
     0
  0
VISUALSTYLE
  5
39
102
{ACAD_REACTORS
330
2A
102
}
102
{ACAD_XDICTIONARY
360
2ED
102
}
330
2A
100
AcDbVisualStyle
  2
Facepattern
 70
    15
 71
     2
 72
     2
 73
     0
 90
        0
 40
-0.6
 41
-30.0
 62
     5
 63
     7
 74
     1
 91
        4
 64
     7
 65
   257
 75
     1
175
     1
 42
1.0
 92
        8
 66
     7
 43
1.0
 76
     1
 77
     6
 78
     2
 67
     7
 79
     5
170
     0
171
     0
290
     0
174
     0
 93
        1
 44
0.0
173
     0
291
     1
 45
0.0
1001
ACAD
1000
AcDbSavedByObjectVersion
1070
     0
  0
VISUALSTYLE
  5
2B
102
{ACAD_REACTORS
330
2A
102
}
102
{ACAD_XDICTIONARY
360
2D1
102
}
330
2A
100
AcDbVisualStyle
  2
Flat
 70
     0
 71
     2
 72
     1
 73
     1
 90
        2
 40
-0.6
 41
30.0
 62
     5
 63
     7
 74
     0
 91
        4
 64
     7
 65
   257
 75
     1
175
     1
 42
1.0
 92
        8
 66
     7
 43
1.0
 76
     1
 77
     6
 78
     2
 67
     7
 79
     5
170
     0
171
     0
290
     0
174
     0
 93
       13
 44
0.0
173
     0
291
     1
 45
0.0
1001
ACAD
1000
AcDbSavedByObjectVersion
1070
     0
  0
VISUALSTYLE
  5
2C
102
{ACAD_REACTORS
330
2A
102
}
102
{ACAD_XDICTIONARY
360
2D3
102
}
330
2A
100
AcDbVisualStyle
  2
FlatWithEdges
 70
     1
 71
     2
 72
     1
 73
     1
 90
        2
 40
-0.6
 41
30.0
 62
     5
 63
     7
 74
     1
 91
        4
 64
     7
 65
   257
 75
     1
175
     1
 42
1.0
 92
        0
 66
   257
 43
1.0
 76
     1
 77
     6
 78
     2
 67
     7
 79
     5
170
     0
171
     0
290
     0
174
     0
 93
       13
 44
0.0
173
     0
291
     1
 45
0.0
1001
ACAD
1000
AcDbSavedByObjectVersion
1070
     0
  0
VISUALSTYLE
  5
2D
102
{ACAD_REACTORS
330
2A
102
}
102
{ACAD_XDICTIONARY
360
2D5
102
}
330
2A
100
AcDbVisualStyle
  2
Gouraud
 70
     2
 71
     2
 72
     2
 73
     1
 90
        2
 40
-0.6
 41
30.0
 62
     5
 63
     7
 74
     0
 91
        4
 64
     7
 65
   257
 75
     1
175
     1
 42
1.0
 92
        0
 66
     7
 43
1.0
 76
     1
 77
     6
 78
     2
 67
     7
 79
     5
170
     0
171
     0
290
     0
174
     0
 93
       13
 44
0.0
173
     0
291
     1
 45
0.0
1001
ACAD
1000
AcDbSavedByObjectVersion
1070
     0
  0
VISUALSTYLE
  5
2E
102
{ACAD_REACTORS
330
2A
102
}
102
{ACAD_XDICTIONARY
360
2D7
102
}
330
2A
100
AcDbVisualStyle
  2
GouraudWithEdges
 70
     3
 71
     2
 72
     2
 73
     1
 90
        2
 40
-0.6
 41
30.0
 62
     5
 63
     7
 74
     1
 91
        4
 64
     7
 65
   257
 75
     1
175
     1
 42
1.0
 92
        0
 66
   257
 43
1.0
 76
     1
 77
     6
 78
     2
 67
     7
 79
     5
170
     0
171
     0
290
     0
174
     0
 93
       13
 44
0.0
173
     0
291
     1
 45
0.0
1001
ACAD
1000
AcDbSavedByObjectVersion
1070
     0
  0
VISUALSTYLE
  5
38
102
{ACAD_REACTORS
330
2A
102
}
102
{ACAD_XDICTIONARY
360
2EB
102
}
330
2A
100
AcDbVisualStyle
  2
Linepattern
 70
    14
 71
     2
 72
     2
 73
     0
 90
        0
 40
-0.6
 41
-30.0
 62
     5
 63
     7
 74
     1
 91
        4
 64
     7
 65
   257
 75
     7
175
     7
 42
1.0
 92
        8
 66
     7
 43
1.0
 76
     1
 77
     6
 78
     2
 67
     7
 79
     5
170
     0
171
     0
290
     0
174
     0
 93
        1
 44
0.0
173
     0
291
     1
 45
0.0
1001
ACAD
1000
AcDbSavedByObjectVersion
1070
     0
  0
VISUALSTYLE
  5
33
102
{ACAD_REACTORS
330
2A
102
}
102
{ACAD_XDICTIONARY
360
2E1
102
}
330
2A
100
AcDbVisualStyle
  2
Realistic
 70
     8
 71
     2
 72
     2
 73
     0
 90
        0
 40
-0.6
 41
-30.0
 62
     5
 63
     7
 74
     1
 91
        0
 64
     7
 65
   257
 75
     1
175
     1
 42
1.0
 92
        8
 66
     8
 43
1.0
 76
     1
 77
     6
 78
     2
 67
     7
 79
     5
170
     0
171
     0
290
     0
174
     0
 93
       13
 44
0.0
173
     0
291
     0
 45
0.0
1001
ACAD
1000
AcDbSavedByObjectVersion
1070
     0
  0
VISUALSTYLE
  5
37
102
{ACAD_REACTORS
330
2A
102
}
102
{ACAD_XDICTIONARY
360
2E9
102
}
330
2A
100
AcDbVisualStyle
  2
Thicken
 70
    13
 71
     2
 72
     2
 73
     0
 90
        0
 40
-0.6
 41
-30.0
 62
     5
 63
     7
 74
     1
 91
        4
 64
     7
 65
   257
 75
     1
175
     1
 42
1.0
 92
       12
 66
     7
 43
1.0
 76
     1
 77
     6
 78
     2
 67
     7
 79
     5
170
     0
171
     0
290
     0
174
     0
 93
        1
 44
0.0
173
     0
291
     1
 45
0.0
1001
ACAD
1000
AcDbSavedByObjectVersion
1070
     0
  0
DICTIONARYVAR
  5
2CD
102
{ACAD_REACTORS
330
2C8
102
}
330
2C8
100
DictionaryVariables
280
     0
  1
1:1
  0
DICTIONARYVAR
  5
2CE
102
{ACAD_REACTORS
330
2C8
102
}
330
2C8
100
DictionaryVariables
280
     0
  1
2
  0
DICTIONARYVAR
  5
2CF
102
{ACAD_REACTORS
330
2C8
102
}
330
2C8
100
DictionaryVariables
280
     0
  1
1
  0
DICTIONARYVAR
  5
2CC
102
{ACAD_REACTORS
330
2C8
102
}
330
2C8
100
DictionaryVariables
280
     0
  1
80.000000
  0
DICTIONARYVAR
  5
2CB
102
{ACAD_REACTORS
330
2C8
102
}
330
2C8
100
DictionaryVariables
280
     0
  1
5.000000
  0
DICTIONARY
  5
2F3
330
3D
100
AcDbDictionary
280
     1
281
     1
  3
ACAD_XREC_ROUNDTRIP
360
2F4
  0
DICTIONARY
  5
2F1
330
3C
100
AcDbDictionary
280
     1
281
     1
  3
ACAD_XREC_ROUNDTRIP
360
2F2
  0
DICTIONARY
  5
2F5
330
3E
100
AcDbDictionary
280
     1
281
     1
  3
ACAD_XREC_ROUNDTRIP
360
2F6
  0
DICTIONARY
  5
2D9
330
2F
100
AcDbDictionary
280
     1
281
     1
  3
ACAD_XREC_ROUNDTRIP
360
2DA
  0
DICTIONARY
  5
2DD
330
31
100
AcDbDictionary
280
     1
281
     1
  3
ACAD_XREC_ROUNDTRIP
360
2DE
  0
DICTIONARY
  5
2DB
330
30
100
AcDbDictionary
280
     1
281
     1
  3
ACAD_XREC_ROUNDTRIP
360
2DC
  0
DICTIONARY
  5
2DF
330
32
100
AcDbDictionary
280
     1
281
     1
  3
ACAD_XREC_ROUNDTRIP
360
2E0
  0
DICTIONARY
  5
2E7
330
36
100
AcDbDictionary
280
     1
281
     1
  3
ACAD_XREC_ROUNDTRIP
360
2E8
  0
DICTIONARY
  5
2EF
330
3A
100
AcDbDictionary
280
     1
281
     1
  3
ACAD_XREC_ROUNDTRIP
360
2F0
  0
DICTIONARY
  5
2E3
330
34
100
AcDbDictionary
280
     1
281
     1
  3
ACAD_XREC_ROUNDTRIP
360
2E4
  0
DICTIONARY
  5
2E5
330
35
100
AcDbDictionary
280
     1
281
     1
  3
ACAD_XREC_ROUNDTRIP
360
2E6
  0
DICTIONARY
  5
2ED
330
39
100
AcDbDictionary
280
     1
281
     1
  3
ACAD_XREC_ROUNDTRIP
360
2EE
  0
DICTIONARY
  5
2D1
330
2B
100
AcDbDictionary
280
     1
281
     1
  3
ACAD_XREC_ROUNDTRIP
360
2D2
  0
DICTIONARY
  5
2D3
330
2C
100
AcDbDictionary
280
     1
281
     1
  3
ACAD_XREC_ROUNDTRIP
360
2D4
  0
DICTIONARY
  5
2D5
330
2D
100
AcDbDictionary
280
     1
281
     1
  3
ACAD_XREC_ROUNDTRIP
360
2D6
  0
DICTIONARY
  5
2D7
330
2E
100
AcDbDictionary
280
     1
281
     1
  3
ACAD_XREC_ROUNDTRIP
360
2D8
  0
DICTIONARY
  5
2EB
330
38
100
AcDbDictionary
280
     1
281
     1
  3
ACAD_XREC_ROUNDTRIP
360
2EC
  0
DICTIONARY
  5
2E1
330
33
100
AcDbDictionary
280
     1
281
     1
  3
ACAD_XREC_ROUNDTRIP
360
2E2
  0
DICTIONARY
  5
2E9
330
37
100
AcDbDictionary
280
     1
281
     1
  3
ACAD_XREC_ROUNDTRIP
360
2EA
  0
XRECORD
  5
2F4
102
{ACAD_REACTORS
330
2F3
102
}
330
2F3
100
AcDbXrecord
280
     1
102
MATERIAL
148
0.0
149
0.0
149
0.0
 93
        0
 94
      127
282
     0
 72
     1
 77
     1
171
     1
175
     1
179
     1
273
     0
  0
XRECORD
  5
2F2
102
{ACAD_REACTORS
330
2F1
102
}
330
2F1
100
AcDbXrecord
280
     1
102
MATERIAL
148
0.0
149
0.0
149
0.0
 93
        0
 94
      127
282
     0
 72
     1
 77
     1
171
     1
175
     1
179
     1
273
     0
  0
XRECORD
  5
2F6
102
{ACAD_REACTORS
330
2F5
102
}
330
2F5
100
AcDbXrecord
280
     1
102
MATERIAL
148
0.0
149
0.0
149
0.0
 93
        0
 94
      127
282
     0
 72
     1
 77
     1
171
     1
175
     1
179
     1
273
     0
  0
XRECORD
  5
2DA
102
{ACAD_REACTORS
330
2D9
102
}
330
2D9
100
AcDbXrecord
280
     1
102
RTVSPropertyOp0
 70
     1
102
RTVSPropertyOp1
 70
     1
102
RTVSPropertyOp2
 70
     1
102
RTVSPropertyOp3
 70
     1
102
RTVSPropertyOp4
 70
     1
102
RTVSPropertyOp5
 70
     1
102
RTVSPropertyOp6
 70
     1
102
RTVSPropertyOp7
 70
     1
102
RTVSPropertyOp8
 70
     1
102
RTVSPropertyOp9
 70
     1
102
RTVSPropertyOp10
 70
     1
102
RTVSPropertyOp11
 70
     1
102
RTVSPropertyOp12
 70
     1
102
RTVSPropertyOp13
 70
     1
102
RTVSPropertyOp14
 70
     1
102
RTVSPropertyOp15
 70
     1
102
RTVSPropertyOp16
 70
     1
102
RTVSPropertyOp17
 70
     1
102
RTVSPropertyOp18
 70
     1
102
RTVSPropertyOp19
 70
     1
102
RTVSPropertyOp20
 70
     1
102
RTVSPropertyOp21
 70
     1
102
RTVSPropertyOp22
 70
     1
102
RTVSPropertyOp23
 70
     1
102
RTVSPropertyOp24
 70
     1
102
RTVSPropertyOp25
 70
     1
102
RTVSPropertyOp26
 70
     1
102
RTVSPropertyOp27
 70
     1
102
RTVSPropertyOp28
 70
     1
102
RTVSPropertyOp29
 70
     1
102
RTVSPropertyOp30
 70
     1
102
RTVSPropertyOp31
 70
     1
102
RTVSPropertyOp32
 70
     1
  0
XRECORD
  5
2DE
102
{ACAD_REACTORS
330
2DD
102
}
330
2DD
100
AcDbXrecord
280
     1
102
RTVSPropertyOp0
 70
     1
102
RTVSPropertyOp1
 70
     1
102
RTVSPropertyOp2
 70
     1
102
RTVSPropertyOp3
 70
     1
102
RTVSPropertyOp4
 70
     1
102
RTVSPropertyOp5
 70
     1
102
RTVSPropertyOp6
 70
     1
102
RTVSPropertyOp7
 70
     1
102
RTVSPropertyOp8
 70
     1
102
RTVSPropertyOp9
 70
     1
102
RTVSPropertyOp10
 70
     1
102
RTVSPropertyOp11
 70
     1
102
RTVSPropertyOp12
 70
     1
102
RTVSPropertyOp13
 70
     1
102
RTVSPropertyOp14
 70
     1
102
RTVSPropertyOp15
 70
     1
102
RTVSPropertyOp16
 70
     1
102
RTVSPropertyOp17
 70
     1
102
RTVSPropertyOp18
 70
     1
102
RTVSPropertyOp19
 70
     1
102
RTVSPropertyOp20
 70
     1
102
RTVSPropertyOp21
 70
     1
102
RTVSPropertyOp22
 70
     1
102
RTVSPropertyOp23
 70
     1
102
RTVSPropertyOp24
 70
     1
102
RTVSPropertyOp25
 70
     1
102
RTVSPropertyOp26
 70
     1
102
RTVSPropertyOp27
 70
     1
102
RTVSPropertyOp28
 70
     1
102
RTVSPropertyOp29
 70
     1
102
RTVSPropertyOp30
 70
     1
102
RTVSPropertyOp31
 70
     1
102
RTVSPropertyOp32
 70
     1
  0
XRECORD
  5
2DC
102
{ACAD_REACTORS
330
2DB
102
}
330
2DB
100
AcDbXrecord
280
     1
102
RTVSPropertyOp0
 70
     1
102
RTVSPropertyOp1
 70
     1
102
RTVSPropertyOp2
 70
     1
102
RTVSPropertyOp3
 70
     1
102
RTVSPropertyOp4
 70
     1
102
RTVSPropertyOp5
 70
     1
102
RTVSPropertyOp6
 70
     1
102
RTVSPropertyOp7
 70
     1
102
RTVSPropertyOp8
 70
     1
102
RTVSPropertyOp9
 70
     1
102
RTVSPropertyOp10
 70
     1
102
RTVSPropertyOp11
 70
     1
102
RTVSPropertyOp12
 70
     1
102
RTVSPropertyOp13
 70
     1
102
RTVSPropertyOp14
 70
     1
102
RTVSPropertyOp15
 70
     1
102
RTVSPropertyOp16
 70
     1
102
RTVSPropertyOp17
 70
     1
102
RTVSPropertyOp18
 70
     1
102
RTVSPropertyOp19
 70
     1
102
RTVSPropertyOp20
 70
     1
102
RTVSPropertyOp21
 70
     1
102
RTVSPropertyOp22
 70
     1
102
RTVSPropertyOp23
 70
     1
102
RTVSPropertyOp24
 70
     1
102
RTVSPropertyOp25
 70
     1
102
RTVSPropertyOp26
 70
     1
102
RTVSPropertyOp27
 70
     1
102
RTVSPropertyOp28
 70
     1
102
RTVSPropertyOp29
 70
     1
102
RTVSPropertyOp30
 70
     1
102
RTVSPropertyOp31
 70
     1
102
RTVSPropertyOp32
 70
     1
  0
XRECORD
  5
2E0
102
{ACAD_REACTORS
330
2DF
102
}
330
2DF
100
AcDbXrecord
280
     1
102
RTVSPropertyOp0
 70
     1
102
RTVSPropertyOp1
 70
     1
102
RTVSPropertyOp2
 70
     1
102
RTVSPropertyOp3
 70
     1
102
RTVSPropertyOp4
 70
     1
102
RTVSPropertyOp5
 70
     1
102
RTVSPropertyOp6
 70
     1
102
RTVSPropertyOp7
 70
     1
102
RTVSPropertyOp8
 70
     1
102
RTVSPropertyOp9
 70
     1
102
RTVSPropertyOp10
 70
     1
102
RTVSPropertyOp11
 70
     1
102
RTVSPropertyOp12
 70
     1
102
RTVSPropertyOp13
 70
     1
102
RTVSPropertyOp14
 70
     1
102
RTVSPropertyOp15
 70
     1
102
RTVSPropertyOp16
 70
     1
102
RTVSPropertyOp17
 70
     1
102
RTVSPropertyOp18
 70
     1
102
RTVSPropertyOp19
 70
     1
102
RTVSPropertyOp20
 70
     1
102
RTVSPropertyOp21
 70
     1
102
RTVSPropertyOp22
 70
     1
102
RTVSPropertyOp23
 70
     1
102
RTVSPropertyOp24
 70
     1
102
RTVSPropertyOp25
 70
     1
102
RTVSPropertyOp26
 70
     1
102
RTVSPropertyOp27
 70
     1
102
RTVSPropertyOp28
 70
     1
102
RTVSPropertyOp29
 70
     1
102
RTVSPropertyOp30
 70
     1
102
RTVSPropertyOp31
 70
     1
102
RTVSPropertyOp32
 70
     1
  0
XRECORD
  5
2E8
102
{ACAD_REACTORS
330
2E7
102
}
330
2E7
100
AcDbXrecord
280
     1
102
RTVSPropertyOp0
 70
     1
102
RTVSPropertyOp1
 70
     1
102
RTVSPropertyOp2
 70
     1
102
RTVSPropertyOp3
 70
     1
102
RTVSPropertyOp4
 70
     1
102
RTVSPropertyOp5
 70
     1
102
RTVSPropertyOp6
 70
     1
102
RTVSPropertyOp7
 70
     1
102
RTVSPropertyOp8
 70
     1
102
RTVSPropertyOp9
 70
     1
102
RTVSPropertyOp10
 70
     1
102
RTVSPropertyOp11
 70
     1
102
RTVSPropertyOp12
 70
     1
102
RTVSPropertyOp13
 70
     1
102
RTVSPropertyOp14
 70
     1
102
RTVSPropertyOp15
 70
     1
102
RTVSPropertyOp16
 70
     1
102
RTVSPropertyOp17
 70
     1
102
RTVSPropertyOp18
 70
     1
102
RTVSPropertyOp19
 70
     1
102
RTVSPropertyOp20
 70
     1
102
RTVSPropertyOp21
 70
     1
102
RTVSPropertyOp22
 70
     1
102
RTVSPropertyOp23
 70
     1
102
RTVSPropertyOp24
 70
     1
102
RTVSPropertyOp25
 70
     1
102
RTVSPropertyOp26
 70
     1
102
RTVSPropertyOp27
 70
     1
102
RTVSPropertyOp28
 70
     1
102
RTVSPropertyOp29
 70
     1
102
RTVSPropertyOp30
 70
     1
102
RTVSPropertyOp31
 70
     1
102
RTVSPropertyOp32
 70
     1
  0
XRECORD
  5
2F0
102
{ACAD_REACTORS
330
2EF
102
}
330
2EF
100
AcDbXrecord
280
     1
102
RTVSPropertyOp0
 70
     1
102
RTVSPropertyOp1
 70
     1
102
RTVSPropertyOp2
 70
     1
102
RTVSPropertyOp3
 70
     1
102
RTVSPropertyOp4
 70
     1
102
RTVSPropertyOp5
 70
     1
102
RTVSPropertyOp6
 70
     1
102
RTVSPropertyOp7
 70
     1
102
RTVSPropertyOp8
 70
     1
102
RTVSPropertyOp9
 70
     1
102
RTVSPropertyOp10
 70
     1
102
RTVSPropertyOp11
 70
     1
102
RTVSPropertyOp12
 70
     1
102
RTVSPropertyOp13
 70
     1
102
RTVSPropertyOp14
 70
     1
102
RTVSPropertyOp15
 70
     1
102
RTVSPropertyOp16
 70
     1
102
RTVSPropertyOp17
 70
     1
102
RTVSPropertyOp18
 70
     1
102
RTVSPropertyOp19
 70
     1
102
RTVSPropertyOp20
 70
     1
102
RTVSPropertyOp21
 70
     1
102
RTVSPropertyOp22
 70
     1
102
RTVSPropertyOp23
 70
     1
102
RTVSPropertyOp24
 70
     1
102
RTVSPropertyOp25
 70
     1
102
RTVSPropertyOp26
 70
     1
102
RTVSPropertyOp27
 70
     1
102
RTVSPropertyOp28
 70
     1
102
RTVSPropertyOp29
 70
     1
102
RTVSPropertyOp30
 70
     1
102
RTVSPropertyOp31
 70
     1
102
RTVSPropertyOp32
 70
     1
  0
XRECORD
  5
2E4
102
{ACAD_REACTORS
330
2E3
102
}
330
2E3
100
AcDbXrecord
280
     1
102
RTVSPropertyOp0
 70
     1
102
RTVSPropertyOp1
 70
     1
102
RTVSPropertyOp2
 70
     1
102
RTVSPropertyOp3
 70
     1
102
RTVSPropertyOp4
 70
     1
102
RTVSPropertyOp5
 70
     1
102
RTVSPropertyOp6
 70
     1
102
RTVSPropertyOp7
 70
     1
102
RTVSPropertyOp8
 70
     1
102
RTVSPropertyOp9
 70
     1
102
RTVSPropertyOp10
 70
     1
102
RTVSPropertyOp11
 70
     1
102
RTVSPropertyOp12
 70
     1
102
RTVSPropertyOp13
 70
     1
102
RTVSPropertyOp14
 70
     1
102
RTVSPropertyOp15
 70
     1
102
RTVSPropertyOp16
 70
     1
102
RTVSPropertyOp17
 70
     1
102
RTVSPropertyOp18
 70
     1
102
RTVSPropertyOp19
 70
     1
102
RTVSPropertyOp20
 70
     1
102
RTVSPropertyOp21
 70
     1
102
RTVSPropertyOp22
 70
     1
102
RTVSPropertyOp23
 70
     1
102
RTVSPropertyOp24
 70
     1
102
RTVSPropertyOp25
 70
     1
102
RTVSPropertyOp26
 70
     1
102
RTVSPropertyOp27
 70
     1
102
RTVSPropertyOp28
 70
     1
102
RTVSPropertyOp29
 70
     1
102
RTVSPropertyOp30
 70
     1
102
RTVSPropertyOp31
 70
     1
102
RTVSPropertyOp32
 70
     1
  0
XRECORD
  5
2E6
102
{ACAD_REACTORS
330
2E5
102
}
330
2E5
100
AcDbXrecord
280
     1
102
RTVSPropertyOp0
 70
     1
102
RTVSPropertyOp1
 70
     1
102
RTVSPropertyOp2
 70
     1
102
RTVSPropertyOp3
 70
     1
102
RTVSPropertyOp4
 70
     1
102
RTVSPropertyOp5
 70
     1
102
RTVSPropertyOp6
 70
     1
102
RTVSPropertyOp7
 70
     1
102
RTVSPropertyOp8
 70
     1
102
RTVSPropertyOp9
 70
     1
102
RTVSPropertyOp10
 70
     1
102
RTVSPropertyOp11
 70
     1
102
RTVSPropertyOp12
 70
     1
102
RTVSPropertyOp13
 70
     1
102
RTVSPropertyOp14
 70
     1
102
RTVSPropertyOp15
 70
     1
102
RTVSPropertyOp16
 70
     1
102
RTVSPropertyOp17
 70
     1
102
RTVSPropertyOp18
 70
     1
102
RTVSPropertyOp19
 70
     1
102
RTVSPropertyOp20
 70
     1
102
RTVSPropertyOp21
 70
     1
102
RTVSPropertyOp22
 70
     1
102
RTVSPropertyOp23
 70
     1
102
RTVSPropertyOp24
 70
     1
102
RTVSPropertyOp25
 70
     1
102
RTVSPropertyOp26
 70
     1
102
RTVSPropertyOp27
 70
     1
102
RTVSPropertyOp28
 70
     1
102
RTVSPropertyOp29
 70
     1
102
RTVSPropertyOp30
 70
     1
102
RTVSPropertyOp31
 70
     1
102
RTVSPropertyOp32
 70
     1
  0
XRECORD
  5
2EE
102
{ACAD_REACTORS
330
2ED
102
}
330
2ED
100
AcDbXrecord
280
     1
102
RTVSPropertyOp0
 70
     1
102
RTVSPropertyOp1
 70
     1
102
RTVSPropertyOp2
 70
     1
102
RTVSPropertyOp3
 70
     1
102
RTVSPropertyOp4
 70
     1
102
RTVSPropertyOp5
 70
     1
102
RTVSPropertyOp6
 70
     1
102
RTVSPropertyOp7
 70
     1
102
RTVSPropertyOp8
 70
     1
102
RTVSPropertyOp9
 70
     1
102
RTVSPropertyOp10
 70
     1
102
RTVSPropertyOp11
 70
     1
102
RTVSPropertyOp12
 70
     1
102
RTVSPropertyOp13
 70
     1
102
RTVSPropertyOp14
 70
     1
102
RTVSPropertyOp15
 70
     1
102
RTVSPropertyOp16
 70
     1
102
RTVSPropertyOp17
 70
     1
102
RTVSPropertyOp18
 70
     1
102
RTVSPropertyOp19
 70
     1
102
RTVSPropertyOp20
 70
     1
102
RTVSPropertyOp21
 70
     1
102
RTVSPropertyOp22
 70
     1
102
RTVSPropertyOp23
 70
     1
102
RTVSPropertyOp24
 70
     1
102
RTVSPropertyOp25
 70
     1
102
RTVSPropertyOp26
 70
     1
102
RTVSPropertyOp27
 70
     1
102
RTVSPropertyOp28
 70
     1
102
RTVSPropertyOp29
 70
     1
102
RTVSPropertyOp30
 70
     1
102
RTVSPropertyOp31
 70
     1
102
RTVSPropertyOp32
 70
     1
  0
XRECORD
  5
2D2
102
{ACAD_REACTORS
330
2D1
102
}
330
2D1
100
AcDbXrecord
280
     1
102
RTVSPropertyOp0
 70
     1
102
RTVSPropertyOp1
 70
     1
102
RTVSPropertyOp2
 70
     1
102
RTVSPropertyOp3
 70
     1
102
RTVSPropertyOp4
 70
     1
102
RTVSPropertyOp5
 70
     1
102
RTVSPropertyOp6
 70
     1
102
RTVSPropertyOp7
 70
     1
102
RTVSPropertyOp8
 70
     1
102
RTVSPropertyOp9
 70
     1
102
RTVSPropertyOp10
 70
     1
102
RTVSPropertyOp11
 70
     1
102
RTVSPropertyOp12
 70
     1
102
RTVSPropertyOp13
 70
     1
102
RTVSPropertyOp14
 70
     1
102
RTVSPropertyOp15
 70
     1
102
RTVSPropertyOp16
 70
     1
102
RTVSPropertyOp17
 70
     1
102
RTVSPropertyOp18
 70
     1
102
RTVSPropertyOp19
 70
     1
102
RTVSPropertyOp20
 70
     1
102
RTVSPropertyOp21
 70
     1
102
RTVSPropertyOp22
 70
     1
102
RTVSPropertyOp23
 70
     1
102
RTVSPropertyOp24
 70
     1
102
RTVSPropertyOp25
 70
     1
102
RTVSPropertyOp26
 70
     1
102
RTVSPropertyOp27
 70
     1
102
RTVSPropertyOp28
 70
     1
102
RTVSPropertyOp29
 70
     1
102
RTVSPropertyOp30
 70
     1
102
RTVSPropertyOp31
 70
     1
102
RTVSPropertyOp32
 70
     1
  0
XRECORD
  5
2D4
102
{ACAD_REACTORS
330
2D3
102
}
330
2D3
100
AcDbXrecord
280
     1
102
RTVSPropertyOp0
 70
     1
102
RTVSPropertyOp1
 70
     1
102
RTVSPropertyOp2
 70
     1
102
RTVSPropertyOp3
 70
     1
102
RTVSPropertyOp4
 70
     1
102
RTVSPropertyOp5
 70
     1
102
RTVSPropertyOp6
 70
     1
102
RTVSPropertyOp7
 70
     1
102
RTVSPropertyOp8
 70
     1
102
RTVSPropertyOp9
 70
     1
102
RTVSPropertyOp10
 70
     1
102
RTVSPropertyOp11
 70
     1
102
RTVSPropertyOp12
 70
     1
102
RTVSPropertyOp13
 70
     1
102
RTVSPropertyOp14
 70
     1
102
RTVSPropertyOp15
 70
     1
102
RTVSPropertyOp16
 70
     1
102
RTVSPropertyOp17
 70
     1
102
RTVSPropertyOp18
 70
     1
102
RTVSPropertyOp19
 70
     1
102
RTVSPropertyOp20
 70
     1
102
RTVSPropertyOp21
 70
     1
102
RTVSPropertyOp22
 70
     1
102
RTVSPropertyOp23
 70
     1
102
RTVSPropertyOp24
 70
     1
102
RTVSPropertyOp25
 70
     1
102
RTVSPropertyOp26
 70
     1
102
RTVSPropertyOp27
 70
     1
102
RTVSPropertyOp28
 70
     1
102
RTVSPropertyOp29
 70
     1
102
RTVSPropertyOp30
 70
     1
102
RTVSPropertyOp31
 70
     1
102
RTVSPropertyOp32
 70
     1
  0
XRECORD
  5
2D6
102
{ACAD_REACTORS
330
2D5
102
}
330
2D5
100
AcDbXrecord
280
     1
102
RTVSPropertyOp0
 70
     1
102
RTVSPropertyOp1
 70
     1
102
RTVSPropertyOp2
 70
     1
102
RTVSPropertyOp3
 70
     1
102
RTVSPropertyOp4
 70
     1
102
RTVSPropertyOp5
 70
     1
102
RTVSPropertyOp6
 70
     1
102
RTVSPropertyOp7
 70
     1
102
RTVSPropertyOp8
 70
     1
102
RTVSPropertyOp9
 70
     1
102
RTVSPropertyOp10
 70
     1
102
RTVSPropertyOp11
 70
     1
102
RTVSPropertyOp12
 70
     1
102
RTVSPropertyOp13
 70
     1
102
RTVSPropertyOp14
 70
     1
102
RTVSPropertyOp15
 70
     1
102
RTVSPropertyOp16
 70
     1
102
RTVSPropertyOp17
 70
     1
102
RTVSPropertyOp18
 70
     1
102
RTVSPropertyOp19
 70
     1
102
RTVSPropertyOp20
 70
     1
102
RTVSPropertyOp21
 70
     1
102
RTVSPropertyOp22
 70
     1
102
RTVSPropertyOp23
 70
     1
102
RTVSPropertyOp24
 70
     1
102
RTVSPropertyOp25
 70
     1
102
RTVSPropertyOp26
 70
     1
102
RTVSPropertyOp27
 70
     1
102
RTVSPropertyOp28
 70
     1
102
RTVSPropertyOp29
 70
     1
102
RTVSPropertyOp30
 70
     1
102
RTVSPropertyOp31
 70
     1
102
RTVSPropertyOp32
 70
     1
  0
XRECORD
  5
2D8
102
{ACAD_REACTORS
330
2D7
102
}
330
2D7
100
AcDbXrecord
280
     1
102
RTVSPropertyOp0
 70
     1
102
RTVSPropertyOp1
 70
     1
102
RTVSPropertyOp2
 70
     1
102
RTVSPropertyOp3
 70
     1
102
RTVSPropertyOp4
 70
     1
102
RTVSPropertyOp5
 70
     1
102
RTVSPropertyOp6
 70
     1
102
RTVSPropertyOp7
 70
     1
102
RTVSPropertyOp8
 70
     1
102
RTVSPropertyOp9
 70
     1
102
RTVSPropertyOp10
 70
     1
102
RTVSPropertyOp11
 70
     1
102
RTVSPropertyOp12
 70
     1
102
RTVSPropertyOp13
 70
     1
102
RTVSPropertyOp14
 70
     1
102
RTVSPropertyOp15
 70
     1
102
RTVSPropertyOp16
 70
     1
102
RTVSPropertyOp17
 70
     1
102
RTVSPropertyOp18
 70
     1
102
RTVSPropertyOp19
 70
     1
102
RTVSPropertyOp20
 70
     1
102
RTVSPropertyOp21
 70
     1
102
RTVSPropertyOp22
 70
     1
102
RTVSPropertyOp23
 70
     1
102
RTVSPropertyOp24
 70
     1
102
RTVSPropertyOp25
 70
     1
102
RTVSPropertyOp26
 70
     1
102
RTVSPropertyOp27
 70
     1
102
RTVSPropertyOp28
 70
     1
102
RTVSPropertyOp29
 70
     1
102
RTVSPropertyOp30
 70
     1
102
RTVSPropertyOp31
 70
     1
102
RTVSPropertyOp32
 70
     1
  0
XRECORD
  5
2EC
102
{ACAD_REACTORS
330
2EB
102
}
330
2EB
100
AcDbXrecord
280
     1
102
RTVSPropertyOp0
 70
     1
102
RTVSPropertyOp1
 70
     1
102
RTVSPropertyOp2
 70
     1
102
RTVSPropertyOp3
 70
     1
102
RTVSPropertyOp4
 70
     1
102
RTVSPropertyOp5
 70
     1
102
RTVSPropertyOp6
 70
     1
102
RTVSPropertyOp7
 70
     1
102
RTVSPropertyOp8
 70
     1
102
RTVSPropertyOp9
 70
     1
102
RTVSPropertyOp10
 70
     1
102
RTVSPropertyOp11
 70
     1
102
RTVSPropertyOp12
 70
     1
102
RTVSPropertyOp13
 70
     1
102
RTVSPropertyOp14
 70
     1
102
RTVSPropertyOp15
 70
     1
102
RTVSPropertyOp16
 70
     1
102
RTVSPropertyOp17
 70
     1
102
RTVSPropertyOp18
 70
     1
102
RTVSPropertyOp19
 70
     1
102
RTVSPropertyOp20
 70
     1
102
RTVSPropertyOp21
 70
     1
102
RTVSPropertyOp22
 70
     1
102
RTVSPropertyOp23
 70
     1
102
RTVSPropertyOp24
 70
     1
102
RTVSPropertyOp25
 70
     1
102
RTVSPropertyOp26
 70
     1
102
RTVSPropertyOp27
 70
     1
102
RTVSPropertyOp28
 70
     1
102
RTVSPropertyOp29
 70
     1
102
RTVSPropertyOp30
 70
     1
102
RTVSPropertyOp31
 70
     1
102
RTVSPropertyOp32
 70
     1
  0
XRECORD
  5
2E2
102
{ACAD_REACTORS
330
2E1
102
}
330
2E1
100
AcDbXrecord
280
     1
102
RTVSPropertyOp0
 70
     1
102
RTVSPropertyOp1
 70
     1
102
RTVSPropertyOp2
 70
     1
102
RTVSPropertyOp3
 70
     1
102
RTVSPropertyOp4
 70
     1
102
RTVSPropertyOp5
 70
     1
102
RTVSPropertyOp6
 70
     1
102
RTVSPropertyOp7
 70
     1
102
RTVSPropertyOp8
 70
     1
102
RTVSPropertyOp9
 70
     1
102
RTVSPropertyOp10
 70
     1
102
RTVSPropertyOp11
 70
     1
102
RTVSPropertyOp12
 70
     1
102
RTVSPropertyOp13
 70
     1
102
RTVSPropertyOp14
 70
     1
102
RTVSPropertyOp15
 70
     1
102
RTVSPropertyOp16
 70
     1
102
RTVSPropertyOp17
 70
     1
102
RTVSPropertyOp18
 70
     1
102
RTVSPropertyOp19
 70
     1
102
RTVSPropertyOp20
 70
     1
102
RTVSPropertyOp21
 70
     1
102
RTVSPropertyOp22
 70
     1
102
RTVSPropertyOp23
 70
     1
102
RTVSPropertyOp24
 70
     1
102
RTVSPropertyOp25
 70
     1
102
RTVSPropertyOp26
 70
     1
102
RTVSPropertyOp27
 70
     1
102
RTVSPropertyOp28
 70
     1
102
RTVSPropertyOp29
 70
     1
102
RTVSPropertyOp30
 70
     1
102
RTVSPropertyOp31
 70
     1
102
RTVSPropertyOp32
 70
     1
  0
XRECORD
  5
2EA
102
{ACAD_REACTORS
330
2E9
102
}
330
2E9
100
AcDbXrecord
280
     1
102
RTVSPropertyOp0
 70
     1
102
RTVSPropertyOp1
 70
     1
102
RTVSPropertyOp2
 70
     1
102
RTVSPropertyOp3
 70
     1
102
RTVSPropertyOp4
 70
     1
102
RTVSPropertyOp5
 70
     1
102
RTVSPropertyOp6
 70
     1
102
RTVSPropertyOp7
 70
     1
102
RTVSPropertyOp8
 70
     1
102
RTVSPropertyOp9
 70
     1
102
RTVSPropertyOp10
 70
     1
102
RTVSPropertyOp11
 70
     1
102
RTVSPropertyOp12
 70
     1
102
RTVSPropertyOp13
 70
     1
102
RTVSPropertyOp14
 70
     1
102
RTVSPropertyOp15
 70
     1
102
RTVSPropertyOp16
 70
     1
102
RTVSPropertyOp17
 70
     1
102
RTVSPropertyOp18
 70
     1
102
RTVSPropertyOp19
 70
     1
102
RTVSPropertyOp20
 70
     1
102
RTVSPropertyOp21
 70
     1
102
RTVSPropertyOp22
 70
     1
102
RTVSPropertyOp23
 70
     1
102
RTVSPropertyOp24
 70
     1
102
RTVSPropertyOp25
 70
     1
102
RTVSPropertyOp26
 70
     1
102
RTVSPropertyOp27
 70
     1
102
RTVSPropertyOp28
 70
     1
102
RTVSPropertyOp29
 70
     1
102
RTVSPropertyOp30
 70
     1
102
RTVSPropertyOp31
 70
     1
102
RTVSPropertyOp32
 70
     1
  0
ENDSEC
  0
SECTION
  2
THUMBNAILIMAGE
 90
    16364
310
28000000B40000005500000001000800000000000000000000000000000000000000000000000000FFFFFF00FF000000FFFF000000FF000000FFFF000000FF00FF00FF000000000080808000C0C0C000FF000000FF7F7F00A5000000A55252007F0000007F3F3F004C0000004C2626002600000026131300FF3F0000FF9F7F
310
00A5290000A56752007F1F00007F4F3F004C1300004C2F26002609000026171300FF7F0000FFBF7F00A5520000A57C52007F3F00007F5F3F004C2600004C39260026130000261C1300FFBF0000FFDF7F00A57C0000A59152007F5F00007F6F3F004C3900004C422600261C000026211300FFFF0000FFFF7F00A5A50000A5A5
310
52007F7F00007F7F3F004C4C00004C4C26002626000026261300BFFF0000DFFF7F007CA5000091A552005F7F00006F7F3F00394C0000424C26001C260000212613007FFF0000BFFF7F0052A500007CA552003F7F00005F7F3F00264C0000394C2600132600001C2613003FFF00009FFF7F0029A5000067A552001F7F00004F
310
7F3F00134C00002F4C2600092600001726130000FF00007FFF7F0000A5000052A55200007F00003F7F3F00004C0000264C2600002600001326130000FF3F007FFF9F0000A5290052A56700007F1F003F7F4F00004C1300264C2F00002609001326170000FF7F007FFFBF0000A5520052A57C00007F3F003F7F5F00004C2600
310
264C39000026130013261C0000FFBF007FFFDF0000A57C0052A59100007F5F003F7F6F00004C3900264C420000261C001326210000FFFF007FFFFF0000A5A50052A5A500007F7F003F7F7F00004C4C00264C4C00002626001326260000BFFF007FDFFF00007CA5005291A500005F7F003F6F7F0000394C0026424C00001C26
310
0013212600007FFF007FBFFF000052A500527CA500003F7F003F5F7F0000264C0026394C0000132600131C2600003FFF007F9FFF000029A5005267A500001F7F003F4F7F0000134C00262F4C0000092600131726000000FF007F7FFF000000A5005252A50000007F003F3F7F0000004C0026264C0000002600131326003F00
310
FF009F7FFF002900A5006752A5001F007F004F3F7F0013004C002F264C0009002600171326007F00FF00BF7FFF005200A5007C52A5003F007F005F3F7F0026004C0039264C00130026001C132600BF00FF00DF7FFF007C00A5009152A5005F007F006F3F7F0039004C0042264C001C00260021132600FF00FF00FF7FFF00A5
310
00A500A552A5007F007F007F3F7F004C004C004C264C002600260026132600FF00BF00FF7FDF00A5007C00A55291007F005F007F3F6F004C0039004C26420026001C0026132100FF007F00FF7FBF00A5005200A5527C007F003F007F3F5F004C0026004C2639002600130026131C00FF003F00FF7F9F00A5002900A5526700
310
7F001F007F3F4F004C0013004C262F002600090026131700000000002D2D2D005B5B5B0089898900B7B7B700B3B3B30000000000000000000000000000000000000000000000000000000000000000000000000000000000000000000000000000000000000000000000000000000000000000000000000000000000000000
310
00000000000000000000000000000000000000000000000000000000000000000000000000000000000000000000000000000000000000000000000000000000000000000000000000000000000000000000000000000000000000000000000000000000000000000000000000000000000000000000000000000000000000
310
00000000000000000000000000000000000000000000000000000000000000000000000000000000000000000000000000000000000000000000000000000000000000000000000000000000000000000000000000000000000000000000000000000000000000000000000000000000000000000000000000000000000000
310
00000000000000000000000000000000000000000000000000000000000000000000000000000000000000000000000000000000000000000000000000000000000000000000000000000000000000000000000000000000000000000000000000000000000000000000000000000000000000000000000000000000000000
310
00000000000000000000000000000000000000000000000000000000000000000000000000000000000000000000000000000000000000000000000000000000000000000000000000000000000000000000000000000000000000000000000000000000000000000000000000000000000000000000000000000000000000
310
00000000000000000000000000000000000000000000000000000000000000000000000000000000000000000000000000000003030303030000000000000000000000000000000000000000000000000000000000000000000000000000000000000000000000000000000000000000000000000000000000000000000000
310
00000000000000000000000000000000000000000000000000000000000000000000000000000000000000000000000000000000000000000000000000000000000000000000000000000000000000000000000000000000000000000000000000000000000000070303030303070700000000000000000000000000000000
310
00000000000000000000000000000000000000000000000000000000000000000000000000000000000000000000000000000000000000000000000000000000000000000000000000000000000000000000000000000000000000000000000000000000000000000000000000000000000000000000000000000000000000
310
00000000000000000000000000000000000000000000000000000000000703030303030707000000000000000000000000000000000000000000000000000000000000000000000000000000000000000000000000000000000000000000000000000000000000000000000000000000000000000000000000000000000000
310
00000000000000000000000000000000000000000000000000000000000000000000000000000000000000000000000000000000000000000000000000000000000000000000000000000000000303030300070303030303000700000000000000000000000000000000000000000000000000000000000000000000000000
310
00000000000000000000000000000000000000000000000000000000000000000000000000000000000000000000000000000000000000000000000000000000000000000000000000000000000000000000000000000000000000000000000000000000000000000000000000000000000000000000000000000000000707
310
07070703030303070703030303030707000000000000000000000000000000000000000000000000000000000000000000000000000000000000000000000000000000000000000000000000000000000000000000000000000000000000000000000000000000000000000000000000000000000000000000000000000000
310
00000000000000000000000000000000000000000000000000000000000000000000000000000000000000000000000000000007000007070303030307070303030303070700000000000000000000000000000000000000000000000000000000000000000000000000000000000000000000000000000000000000000000
310
00000000000000000000000000000000000000000000000000000000000000000000000000000000000000000000000000000000000000000000000000000000000000000000000000000000000000000000000000000000000000000000000000000000000000000707070707030303030707030303030307070000000000
310
00000000000000000000000000000000000000000000000000000000000000000000000000000000000000000000000000000000000000000000000000000000000000000000000000000000000000000000000000000000000000000000000000000000000000000000000000000000000000000000000000000000000000
310
00000000000000000000000000000000000000000000000000000000000007070707000303030300070303030303000700000000000000000000000000000000000000000000000000000000000000000000000000000000000000000000000000000000000000000000000000000000000000000000000000000000000000
310
00000000000000000000000000000000000000000000000000000000000000000000000000000000000000000000000000000000000000000000000000000000000000000000000000000000000000000000000700000707030303030707030303030307070303030303000000000000000000000000000000000000000000
310
00000000000000000000000000000000000000000000000000000000000000000000000000000000000000000000000000000000000000000000000000000000000000000000000000000000000000000000000000000000000000000000000000000000000000000000000000000000000000000000000000000000000000
310
00000000000000000007000007070303030307070303030303070703030303030700000000000000000000000000000000000000000000000000000000000000000000000000000000000000000000000000000000000000000000000000000000000000000000000000000000000000000000000000000000000000000000
310
00000000000000000000000000000000000000000000000000000000000000000000000000000000000000000000000000000000000000000000000000000700000707030303030707070303030707070703030307070000000000000000000000000000000000000000000000000000000000000000000000000000000000
310
00000000000000000000000000000000000000000000000000000000000000000000000000000000000000000000000000000000000000000000000000000000000000000000000000000000000000000000000000000000000000000000000000000000000000000000000000000000000000070000070703030303070707
310
03030307070707070303070700000000000000000000000000000000000000000000000000000000000000000000000000000000000000000000000000000000000000000000000000000000000000000000000000000000000000000000000000000000000000000000000000000000000000000000000000000000000000
310
00000000000000000000000000000000000000000000000000000000000000000000000000000000000707070707070707070707070707070707070707070707070000000000000000000000000000000000000000000000000000000000000000000000000000000000000000000000000000000000000000000000000000
310
00000000000000000000000000000000000000000000000000000000000000000000000000000000000000000000000000000000000000000000000000000000000000000000000000000000000000000000000000000000000000000000070707070000000707070707070000000700000000000000000000000000000000
310
00000000000000000000000000000000000000000000000000000000000000000000000000000000000000000000000000000000000000000000000000000000000000000000000000000000000000000000000000000000000000000000000000000000000000000000000000000000000000000000000000000000000000
310
00000000000000000000000000000000000000000700000700000000000000000000000007000000000000000000000000000000000000000000000000000000000000000000000000000000000000000000000000000000000000000000000000000000000000000000000000000000000000000000000000000000000000
310
00000000000000000000000000000000000000000000000000000000000000000000000000000000000000000000000000000000000000000000000000000000000000000000000000070707070707070707070707070707070700000000000000000000000000000000000000000000000000000000000000000000000000
310
00000000000000000000000000000000000000000000000000000000000000000000000000000000000000000000000000000000000000000000000000000000000000000000000000000000000000000000000000000000000000000000000000000000000000000000000000000000000000000000000000000000000000
310
00000000000000000000000000000000000000000000000000000000000000000000000000000000000000000000000000000000000000000000000000000000000000000000000000000000000000000000000000000000000000000000000000000000000000000000000000000000000000000000000000000000000000
310
00000000000000000000000000000000000000000000000000000000000000000000000000000000000000000000000000000000000000000000000000000000000000000000000000000000000000000000000000000000000000000000000000000000000000000000000000000000000000000000000000000000000000
310
00000000000000000000000000000000000000000000000000000000000000000000000000000000000000000000000000000000000000000000000000000000000000000000000000000000000000000000000000000000000000000000000000000000000000000000000000000000000000000000000000000000000000
310
00000000000000000000000000000000000000000000000000000000000000000000000000000000000000000000000000000000000000000000000000000000000000000000000000000000000000000000000000000000000000000000000000000000000000000000000000000000000000000000000000000000000000
310
00000000000000000000000000000000000000000000000000000000000000000000000000000000000000000000000000000000000000000000000000000000000000000000000000000000000000000000000000000000000000000000000000000000000000000000000000000000000000000000000000000000000000
310
00000000000000000000000000000000000000000000000000000000000000000000000000000000000000000000000000000000000000000000000000000000000000000000000000000000000000000000000000000000000000000000000000000000000000000000000000000000000000000000000000000000000000
310
00000000000000000000000000000000000000000000000000000000000000000000000000000000000000000000000000000000000000000000000000000000000000000000000000000000000000000000000000000000000000000000000000000000000000000000000000000000000000000000000000000000000000
310
00000000000000000000000000000000000000000000000000000000000000000000000000000000000000000000000000000000000000000000000000000000000000000000000000000000000000000000000000000000000000000000000000000000000000000000000000000000000000000000000000000000000000
310
00000000000000000000000000000000000000000000000000000000000000000000000000000000000000000000000000000000000000000000000000000000000000000000000000000000000000000000000000000000000000000000000000000000000000000000000000000000000000000000000000000000000000
310
00000000000000000000000000000000000000000000000000000000000000000000000000000000000000000000000000000000000000000000000000000000000000000000000000000000000000000000000000000000000000000000000000000000000000000000000000000000000000000000000000000000000000
310
00000000000000000000000000000000000000000000000000000000000000000000000000000000000000000000000000000000000000000000000000000000000000000000000000000000000000000000000000000000000000000000000000000000000000000000000000000000000000000000000000000000000000
310
00000000000000000000000000000000000000000000000000000000000000000000000000000000000000000000000000000000000000000000000000000000000000000000000000000000000000000000000000000000000000000000000000000000000000000000000000000000000000000000000000000000000000
310
00000000000000000000000000000000000000000000000000000000000000000000000000000000000000000000000000000000000000000000000000000000000000000000000000000000000000000000000000000000000000000000000000000000000000000000000000000000000000000000000000000000000000
310
00000000000000000000000000000000000000000000000000000000000000000000000000000000000000000000000000000000000000000000000000000000000000000000000000000000000000000000000000000000000000000000000000000000000000000000000000000000000000000000000000000000000000
310
00000000000000000000000000000000000000000000000000000000000000000000000000000000000000000000000000000000000000000000000000000000000000000000000000000000000000000000000000000000000000000000000000000000000000000000000000000000000000000000000000000000000000
310
00000000000000000000000000000000000000000000000000000000000000000000000000000000000000000000000000000000000000000000000000000000000000000000000000000000000000000000000000000000000000000000000000000000000000000000000000000000000000000000000000000000000000
310
00000000000000000000000000000000000000000000000000000000000000000000000000000000000000000000000000000000000000000000000000000000000000000000000000000000000000000000000000000000000000000000000000000000000000000000000000000000000000000000000000000000000000
310
00000000000000000000000000000000000000000000000000000000000000000000000000000000000000000000000000000000000000000000000000000000000000000000000000000000000000000000000000000000000000000000000000000000000000000000000000000000000000000000000000000000000000
310
00000000000000000000000000000000000000000000000000000000000000000000000000000000000000000000000000000000000000000000000000000000000000000000000000000000000000000000000000000000000000000000000000000000000000000000000000000000000000000000000000000000000000
310
00000000000000000000000000000000000000000000000000000000000000000000000000000000000000000000000000000000000000000000000000000000000000000000000000000000000000000000000000000000000000000000000000000000000000000000000000000000000000000000000000000000000000
310
00000000000000000000000000000000000000000000000000000000000000000000000000000000000000000000000000000000000000000000000000000000000000000000000000000000000000000000000000000000000000000000000000000000000000000000000000000000000000000000000000000000000000
310
00000000000000000000000000000000000000000000000000000000000000000000000000000000000000000000000000000000000000000000000000000000000000000000000000000000000000000000000000000000000000000000000000000000000000000000000000000000000000000000000000000000000000
310
00000000000000000000000000000000000000000000000000000000000000000000000000000000000000000000000000000000000000000000000000000000000000000000000000000000000707070707070707070707000000000000000000000000000000000000000000000000000000000000000000000000000000
310
00000000000000000000000000000000000000000000000000000000000000000000000000000000000000000000000000000000000000000000000000000000000000000000000000000000000000000000000000000000000000000000000000000000000000000000000000000000000000000000000000000000000000
310
00000007070707070707070707070000000000000000000000000000000000000000000000000000000000000000000000000000000000000000000000000000000000000000000000000000000000000000000000000000000000000000000000000000000000000000000000000000000000000000000000000000000000
310
00000000000000000000000000000000000000000000000000000000000000000000000000000000000000000000000000000000000000000000000000000000000000000000000000000000000000000000000000000000000000000000000000000000000000000000000000000000000000000000000000000000000000
310
00000000000000000000000000000000000000000000000000000000000000000000000000000000000000000000000000000000000000000000000000000000000000000000000000000000000000000000000000000000000000000000000000000000000000000000000000000000000000000000000000000000000000
310
00000000000000000000000000000000000000000000000000000000000000000000000000000000000000000000000000000000000000000000000000000000000000000000000000000000000000000000000000000000000000000000000000000000000000000000000000000000000000000000000000000000000000
310
00000000000000000000000000000000000000000000000000009696969696969696969696969696000000000000969603969600000000000000000000000000000000000000000000000000000000000000000000000000000000000000000000000000000000000000000000000000000000000000000000000000000000
310
00000000000000000000000000000000000000000000000000000000000000000000000000000000000000000000000000000000000000000000000000000000000000000000000000000000000000960300000000030000000000009600000000000096969696960000000000000000000000000000000000000000000000
310
00000000000000000000000000000000000000000000000000000000000000000000000000000000000000000000000000000000000000000000000000000000000000000000000000000000000000000000000000000000000000000000000000000000000000000000000000000000000000000000000000000000000000
310
00000000009603039696960396969696969696000000000000009696960000000000000000000000000000000000000000000000000000000000000000000000000000000000000000000000000000000000000000000000000000000000000000000000000000000000000000000000000000000000000000000000000000
310
00000000000000000000000000000000000000000000000000000000000000000000000000000000000000000000000000000000000000000000000000960000030000960000000000000000000000969696000000000000000000000000000000000000000000000000000000000000000000000000000000000000000000
310
00000000000000000000000000000000000000000000000000000000000000000000000000000000000000000000000000000000000000000000000000000000000000000000000000000000000000000000000000000000000000000000000000000000000000000000000000000000000096030303030396030000000000
310
00000000030303030300000000000000000000000000000000000000000000000000000000000000000000000000000000000000000000000000000000000000000000000000000000000000000000000000000000000000000000000000000000000000000000000000000000000000000000000000000000000000000000
310
00000000000000000000000000000000000000000000000000000000000000000000000000000000969600030000960000000000000000000000969696000000000000000000000000000000000000000000000000000000000000000000000000000000000000000000000000000000000000000000000000000000000000
310
00000000000000000000000000000000000000000000000000000000000000000000000000000000000000000000000000000000000000000000000000000000000000000000000000000000000000000000000000000000000000000000960003969696000000000000000000000096969600000000000000000000000000
310
00000000000000000000000000000000000000000000000000000000000000000000000000000000000000000000000000000000000000000000000000000000000000000000000000000000000000000000000000000000000000000000000000000000000000000000000000000000000000000000000000000000000000
310
00000000000000000000000000000000000000009696969696960000000000000000000000969696000000000000000000000000000000000000000000000000000000000000000000000000000000000000000000000000000000000000000000000000000000000000000000000000000000000000000000000000000000
310
00000000000000000000000000000000000000000000000000000000000000000000000000000000000000000000000000000000000000000000000000000000000000000000000000009696960000000000000000000000000096969600000000000000000000000000000000000000000000000000000000000000000000
310
00000000000000000000000000000000000000000000000000000000000000000000000000000000000000000000000000000000000000000000000000000000000000000000000000000000000000000000000000000000000000000000000000000000000000000000000000000000000000000000000000000000000000
310
00000000000000000000000000000000000000000000000000000000000000000000000000000000000000000000000000000000000000000000000000000000000000000000000000000000000000000000000000000000000000000000000000000000000000000000000000000000000000000000000000000000000000
310
00000000000000000000000000000000000000000000000000000000000000000000000000000000000000000000000000000000000000000000000000000000000000000000000000000000000000000000000000000000000000000000000000000000000000000000000000000000000000000000000000000000000000
310
00000000000000000000000000000000000000000000000000000000000000000000000000000000000000000000000000000000000000000000000000000000000000000000000000000000000000000000000000000000000000000000000000000000000000000000000000000000000000000000000000000000000000
310
00000000000000000000000000000000000000000000000000000000000000000000000000000000000000000000000000000000000000000000000000000000000000000000000000000000000000000000000000000000000000000000000000000000000000000000000000000000000000000000000000000000000000
310
00000000000000000000000000000000000000000000000000000000000000000003000000000000000000000000000000000000000000000000000000000000000000000000000000000000000000000000000000000000000000000000000000000000000000000000000000000000000000000000000000000000000000
310
00000000000000000000000000000000000000000000000000000000000000000000000000000000000000000000000000000000000000000000000000000000000000000000000000000000000000009696969696969696969696969696000000000000000000000000000000000000000000000000000000000000000000
310
00000000000000000000000000000000000000000000000000000000000000000000000000000000000000000000000000000000000000000000000000000000000000000000000000000000000000000000000000000000000000000000000000000000000000000000000000000000000000000000000000000000000000
310
00000000000096030396030303030396039603030000000007070707070707000000000000000000000000000000000000000000000000000000000000000000000000000000000000000000000000000000000000000000000000000000000000000000000000000000000000000000000000000000000000000000000000
310
00000000000000000000000000000000000000000000000000000000000000000000000000000000000000000000000000000000000000000000009603039696969696969696960096000000000707070707070796000000000000000000000000000000000000000000000000000000000000000000000000000000000000
310
00000000000000000000000000000000000000000000000000000000000000000000000000000000000000000000000000000000000000000000000000000000000000000000000000000000000000000000000000000000000000000000000000000000000000000000000000000000969696969696039696969696969600
310
00000000009696969696960000000000000000000000000000000000000000000000000000000000000000000000000000000000000000000000000000000000000000000000000000000000000000000000000000000000000000000000000000000000000000000000000000000000000000000000000000000000000000
310
00000000000000000000000000000000000000000000000000000000000000000000000000000000000000000000000000000000000000000000000000000000000000000000000000000000000000000000000000000000000000000000000000000000000000000000000000000000000000000000000000000000000000
310
00000000000000000000000000000000000000000000000000000000000000000000000000000000000000000000000000000000000000000000000000000000000000000000000000000000000000000000000000000000000000000000000000000000000000000000000000000000000000000000000000000000000000
310
00000000000000000000000000000000000000000000000000000000000000000000000000000000000000000000000000000000000000000000000000000000000000000000000000000000000000000000000000000000000000000000000000000000000000000000000000000000000000000000000000000000000000
310
00000000000000000000000000000000000000000000000000000000000000000000000000000000000000000000000000000000000000000000000000000000000000000000000000000000000000000000000000000000000000000000000000000000000000000000000000000000000000000000000000000000000000
310
00000000000000000000000000000000000000000000000000000000000000000000000000000000000000000000000000000000000000000000000000000000000000000000000000000000000000000000000000000000000000000000000000000000000000000000000000000000000000000000000000000000000000
310
00000000000000000000000000000000000000000000000000000000000000000000000000000000000000000000000000000000000000000000000000000000000000000000000000000000000000000000000000000000000000000000000000000000000000000000000000000000000000000000000000000000000000
310
00000000000000000000000000000000000000000000000000000000000000000000000000000000000000000000000000000000000000000000000000000000000000000000000000000000000000000000000000000000000000000000000000000000000000000000000000000000000000000000000000000000000000
310
00000000000000000000000000000000000000000000000000000000000000000000000000000000000000000000000000000000000707070707070707070707070707070707070707070000000000000000000000000000000000000000000000000000000000000000000000000000000000000000000000000000000000
310
00000000000000000000000000000000000000000000000000000000000000000000000000000000000000000000000000000000000000000000000000000000000000000000000000000000000000000000000000000000000000000000000000000000000000000000070707070707070707070707070707070707070707
310
00000000000000000000000000000000000000000000000000000000000000000000000000000000000000000000000000000000000000000000000000000000000000000000000000000000000000000000000000000000000000000000000000000000000000000000000000000000000000000000000000000000000000
310
00000000000000000000000000000000000000000000000000000000000000000000000000000000000000000000000000000000000000000000000000000000000000000000000000000000000000000000000000000000000000000000000000000000000000000000000000000000000000000000000000000000000000
310
00000000000000000000000000000000000000000000000000000000000000000000000000000000000000000000000000000000000000000000000000000000000000000000000000000000000000000000000000000000000000000000000000000000000000000000000000000000000000000000000000000000000000
310
00000000000000000000000000000000000000000000000000000000000000000000000000000000000000000000000000000000000000000000000000000000000000000000000000000000000000000000000000000000000000000000000000000000000000000000000000000000000000000000000000000000000000
310
00000000000000000000000000000000000000000000000000000000000000000000000000000000000000000000000000000000000000000000000000000000000000000000000000000000000000000000000000000000000000000000000000000000000000000000000000000000000000000000000000000000000000
310
00000000000000000000000000000000000000000000000000000000000000000000000000000000000000000000000000000000000000000000000003030303030303030303030303000000000000000300030003000000000000000000000000000000000000000000000000000000000000000000000000000000000000
310
00000000000000000000000000000000000000000000000000000000000000000000000000000000000000000000000000000000000000000000000000000000000000000000000000000000000000000000000000000000000000000000000000000000000000000000000000000000000396039603030303039603960300
310
00000000000003960396030000000000000000000000000000000000000000000000000000000000000000000000000000000000000000000000000000000000000000000000000000000000000000000000000000000000000000000000000000000000000000000000000000000000000000000000000000000000000000
310
00000000000000000000000000000000000000000000000000000000000000000000000000000000960396960003000096969600000000000000009696039696000000000000000000000000000000000000000000000000000000000000000000000000000000000000000000000000000000000000000000000000000000
310
00000000000000000000000000000000000000000000000000000000000000000000000000000000000000000000000000000000000000000000000000000000000000000000000000000000000000000000000000000000000000000000009696000300009600000000000000000000969603969600000000000000000000
310
00000000000000000000000000000000000000000000000000000000000000000000000000000000000000000000000000000000000000000000000000000000000000000000000000000000000000000000000000000000000000000000000000000000000000000000000000000000000000000000000000000000000000
310
00000000000000000000000000000000000000000003030303030303030000000000000000000303030303000000000000000000000000000000000000000000000000000000000000000000000000000000000000000000000000000000000000000000000000000000000000000000000000000000000000000000000000
310
00000000000000000000000000000000000000000000000000000000000000000000000000000000000000000000000000000000000000000000000000000000000000000000000000000096960396969600000000000000000000969603969600000000000000000000000000000000000000000000000000000000000000
310
00000000000000000000000000000000000000000000000000000000000000000000000000000000000000000000000000000000000000000000000000000000000000000000000000000000000000000000000000000000000000000000000000000000000000000000000000000000000000000000000000000000000000
310
00969603969600000000000000000000009696039696000000000000000000000000000000000000000000000000000000000000000000000000000000000000000000000000000000000000000000000000000000000000000000000000000000000000000000000000000000000000000000000000000000000000000000
310
00000000000000000000000000000000000000000000000000000000000000000000000000000000000000000000000000000000000000960300000000000000000000000000000003000000000000000000000000000000000000000000000000000000000000000000000000000000000000000000000000000000000000
310
00000000000000000000000000000000000000000000000000000000000000000000000000000000000000000000000000000000000000000000000000000000000000000000000000000000000000000000000000000000000000000000000000000000000000000000000000000000000000000000000000000000000000
310
00000000000000000000000000000000000000000000000000000000000000000000000000000000000000000000000000000000000000000000000000000000000000000000000000000000000000000000000000000000000000000000000000000000000000000000000000000000000000000000000000000000000000
310
00000000000000000000000000000000000000000000000000000000000000000000000000000000000000000000000000000000000000000000000000000000000000000000000000000000000000000000000000000000000000000000000000000000000000000000000000000000000000000000000000000000000000
310
00000000000000000000000000000000000000000000000000000000000000000000000000000000000000000000000000000000000000000000000000000000000000000000000000000000000000000000030303030303030303030303030000000000070707070707000700000000000000000000000000000000000000
310
00000000000000000000000000000000000000000000000000000000000000000000000000000000000000000000000000000000000000000000000000000000000000000000000000000000000000000000000000000000000000000000000000000000000000000000000000000000000000000000000000000000000000
310
00000000000000000396969696960396969696960300000000000707070707070707000000000000000000000000000000000000000000000000000000000000000000000000000000000000000000000000000000000000000000000000000000000000000000000000000000000000000000000000000000000000000000
310
00000000000000000000000000000000000000000000000000000000000000000000000000000000000000000000000000000000000000000000000000039603960303030303030303030300000000000096000000000000000000000000000000000000000000000000000000000000000000000000000000000000000000
310
00000000000000000000000000000000000000000000000000000000000000000000000000000000000000000000000000000000000000000000000000000000000000000000000000000000000000000000000000000000000000000000000000000000000000000000000000000000000003960396969603969696009603
310
00000000000003969696969600000000000000000000000000000000000000000000000000000000000000000000000000000000000000000000000000000000000000000000000000000000000000000000000000000000000000000000000000000000000000000000000000000000000000000000000000000000000000
310
00000000000000000000000000000000000000000000000000000000000000000000000000000000039696969696039696969603030000000000000096969696960000000000000000000000000000000000000000000000000000000000000000000000000000000000000000000000000000000000000000000000000000
310
00000000000000000000000000000000000000000000000000000000000000000000000000000000000000000000000000000000000000000000000000000000000000000000000000000000000000000000000000000000000000000003030303030303030303030303000000000000000000000000000000000000000000
310
00000000000000000000000000000000000000000000000000000000000000000000000000000000000000000000000000000000000000000000000000000000000000000000000000000000000000000000000000000000000000000000000000000000000000000000000000000000000000000000000000000000000000
310
00000000000000000000000000000000000000000000000000000000000000000000000000000000000000000000000000000000000000000000000000000000000000000000000000000000000000000000000000000000000000000000000000000000000000000000000000000000000000000000000000000000000000
310
00000000000000000000000000000000000000000000000000000000000000000000000000000000000000000000000000000000000000000000000000000000000000000000000000000000000000000000000000000000000000000000000000000000000000000000000000000000000000000000000000000000000000
310
00000000000000000000000000000000000000000000000000000000000000000000000000000000000000000000000000000000000000000000000000000000000000000000000000000000000000000000000000000000000000000000000000000000000000000000000000000000000000000000000000000000000000
310
000000000000000000000000000000000000000000000000000000000000000000000000000000000000000000000000000000000000000000000000000000000000000000000000000000000000000000000000000000000000000000000000000000000000000000000000
  0
ENDSEC
  0
EOF
