  0
SECTION
  2
HEADER
  9
$ACADVER
  1
AC1015
  9
$ACADMAINTVER
 70
     6
  9
$DWGCODEPAGE
  3
ANSI_932
  9
$INSBASE
 10
0.0
 20
0.0
 30
0.0
  9
$EXTMIN
 10
27.37953700167746
 20
20.0
 30
0.0
  9
$EXTMAX
 10
186.0
 20
250.6621839881421
 30
0.0
  9
$LIMMIN
 10
27.37953700167746
 20
20.0
  9
$LIMMAX
 10
186.0
 20
250.6621839881421
  9
$ORTHOMODE
 70
     0
  9
$REGENMODE
 70
     1
  9
$FILLMODE
 70
     1
  9
$QTEXTMODE
 70
     0
  9
$MIRRTEXT
 70
     1
  9
$LTSCALE
 40
0.1331907624078511
  9
$ATTMODE
 70
     1
  9
$TEXTSIZE
 40
2.5
  9
$TRACEWID
 40
1.0
  9
$TEXTSTYLE
  7
Standard
  9
$CLAYER
  8
0
  9
$CELTYPE
  6
ByLayer
  9
$CECOLOR
 62
   256
  9
$CELTSCALE
 40
1.0
  9
$DISPSILH
 70
     0
  9
$DIMSCALE
 40
1.0
  9
$DIMASZ
 40
2.5
  9
$DIMEXO
 40
0.625
  9
$DIMDLI
 40
3.75
  9
$DIMRND
 40
0.0
  9
$DIMDLE
 40
0.0
  9
$DIMEXE
 40
1.25
  9
$DIMTP
 40
0.0
  9
$DIMTM
 40
0.0
  9
$DIMTXT
 40
2.5
  9
$DIMCEN
 40
2.5
  9
$DIMTSZ
 40
0.0
  9
$DIMTOL
 70
     0
  9
$DIMLIM
 70
     0
  9
$DIMTIH
 70
     0
  9
$DIMTOH
 70
     0
  9
$DIMSE1
 70
     0
  9
$DIMSE2
 70
     0
  9
$DIMTAD
 70
     1
  9
$DIMZIN
 70
     0
  9
$DIMBLK
  1

  9
$DIMASO
 70
     1
  9
$DIMSHO
 70
     1
  9
$DIMPOST
  1

  9
$DIMAPOST
  1

  9
$DIMALT
 70
     0
  9
$DIMALTD
 70
     3
  9
$DIMALTF
 40
0.03937007874016
  9
$DIMLFAC
 40
1.0
  9
$DIMTOFL
 70
     1
  9
$DIMTVP
 40
0.0
  9
$DIMTIX
 70
     0
  9
$DIMSOXD
 70
     0
  9
$DIMSAH
 70
     0
  9
$DIMBLK1
  1

  9
$DIMBLK2
  1

  9
$DIMSTYLE
  2
Standard
  9
$DIMCLRD
 70
     0
  9
$DIMCLRE
 70
     0
  9
$DIMCLRT
 70
     0
  9
$DIMTFAC
 40
0.75
  9
$DIMGAP
 40
0.625
  9
$DIMJUST
 70
     0
  9
$DIMSD1
 70
     0
  9
$DIMSD2
 70
     0
  9
$DIMTOLJ
 70
     0
  9
$DIMTZIN
 70
     8
  9
$DIMALTZ
 70
     0
  9
$DIMALTTZ
 70
     0
  9
$DIMUPT
 70
     0
  9
$DIMDEC
 70
     2
  9
$DIMTDEC
 70
     2
  9
$DIMALTU
 70
     2
  9
$DIMALTTD
 70
     3
  9
$DIMTXSTY
  7
Standard
  9
$DIMAUNIT
 70
     0
  9
$DIMADEC
 70
     0
  9
$DIMALTRND
 40
0.0
  9
$DIMAZIN
 70
     0
  9
$DIMDSEP
 70
    46
  9
$DIMATFIT
 70
     3
  9
$DIMFRAC
 70
     0
  9
$DIMLDRBLK
  1

  9
$DIMLUNIT
 70
     2
  9
$DIMLWD
 70
    -2
  9
$DIMLWE
 70
    -2
  9
$DIMTMOVE
 70
     0
  9
$LUNITS
 70
     2
  9
$LUPREC
 70
     4
  9
$SKETCHINC
 40
1.0
  9
$FILLETRAD
 40
10.0
  9
$AUNITS
 70
     0
  9
$AUPREC
 70
     0
  9
$MENU
  1
.
  9
$ELEVATION
 40
0.0
  9
$PELEVATION
 40
0.0
  9
$THICKNESS
 40
0.0
  9
$LIMCHECK
 70
     0
  9
$CHAMFERA
 40
10.0
  9
$CHAMFERB
 40
10.0
  9
$CHAMFERC
 40
20.0
  9
$CHAMFERD
 40
0.0
  9
$SKPOLY
 70
     0
  9
$TDCREATE
 40
2457922.721744989
  9
$TDUCREATE
 40
2457922.346744989
  9
$TDUPDATE
 40
2457922.721745706
  9
$TDUUPDATE
 40
2457922.346745706
  9
$TDINDWG
 40
0.0000000116
  9
$TDUSRTIMER
 40
0.0000000116
  9
$USRTIMER
 70
     1
  9
$ANGBASE
 50
0.0
  9
$ANGDIR
 70
     0
  9
$PDMODE
 70
     0
  9
$PDSIZE
 40
0.0
  9
$PLINEWID
 40
0.0
  9
$SPLFRAME
 70
     0
  9
$SPLINETYPE
 70
     6
  9
$SPLINESEGS
 70
     8
  9
$HANDSEED
  5
254
  9
$SURFTAB1
 70
     6
  9
$SURFTAB2
 70
     6
  9
$SURFTYPE
 70
     6
  9
$SURFU
 70
     6
  9
$SURFV
 70
     6
  9
$UCSBASE
  2

  9
$UCSNAME
  2

  9
$UCSORG
 10
0.0
 20
0.0
 30
0.0
  9
$UCSXDIR
 10
1.0
 20
0.0
 30
0.0
  9
$UCSYDIR
 10
0.0
 20
1.0
 30
0.0
  9
$UCSORTHOREF
  2

  9
$UCSORTHOVIEW
 70
     0
  9
$UCSORGTOP
 10
0.0
 20
0.0
 30
0.0
  9
$UCSORGBOTTOM
 10
0.0
 20
0.0
 30
0.0
  9
$UCSORGLEFT
 10
0.0
 20
0.0
 30
0.0
  9
$UCSORGRIGHT
 10
0.0
 20
0.0
 30
0.0
  9
$UCSORGFRONT
 10
0.0
 20
0.0
 30
0.0
  9
$UCSORGBACK
 10
0.0
 20
0.0
 30
0.0
  9
$PUCSBASE
  2

  9
$PUCSNAME
  2

  9
$PUCSORG
 10
0.0
 20
0.0
 30
0.0
  9
$PUCSXDIR
 10
1.0
 20
0.0
 30
0.0
  9
$PUCSYDIR
 10
0.0
 20
1.0
 30
0.0
  9
$PUCSORTHOREF
  2

  9
$PUCSORTHOVIEW
 70
     0
  9
$PUCSORGTOP
 10
0.0
 20
0.0
 30
0.0
  9
$PUCSORGBOTTOM
 10
0.0
 20
0.0
 30
0.0
  9
$PUCSORGLEFT
 10
0.0
 20
0.0
 30
0.0
  9
$PUCSORGRIGHT
 10
0.0
 20
0.0
 30
0.0
  9
$PUCSORGFRONT
 10
0.0
 20
0.0
 30
0.0
  9
$PUCSORGBACK
 10
0.0
 20
0.0
 30
0.0
  9
$USERI1
 70
     0
  9
$USERI2
 70
     0
  9
$USERI3
 70
     0
  9
$USERI4
 70
     0
  9
$USERI5
 70
     0
  9
$USERR1
 40
0.0
  9
$USERR2
 40
0.0
  9
$USERR3
 40
0.0
  9
$USERR4
 40
0.0
  9
$USERR5
 40
0.0
  9
$WORLDVIEW
 70
     1
  9
$SHADEDGE
 70
     3
  9
$SHADEDIF
 70
    70
  9
$TILEMODE
 70
     1
  9
$MAXACTVP
 70
    64
  9
$PINSBASE
 10
0.0
 20
0.0
 30
0.0
  9
$PLIMCHECK
 70
     0
  9
$PEXTMIN
 10
1.000000000000000E+20
 20
1.000000000000000E+20
 30
1.000000000000000E+20
  9
$PEXTMAX
 10
-1.000000000000000E+20
 20
-1.000000000000000E+20
 30
-1.000000000000000E+20
  9
$PLIMMIN
 10
0.0
 20
0.0
  9
$PLIMMAX
 10
420.0
 20
297.0
  9
$UNITMODE
 70
     0
  9
$VISRETAIN
 70
     1
  9
$PLINEGEN
 70
     0
  9
$PSLTSCALE
 70
     0
  9
$TREEDEPTH
 70
  3020
  9
$CMLSTYLE
  2
Standard
  9
$CMLJUST
 70
     0
  9
$CMLSCALE
 40
20.0
  9
$PROXYGRAPHICS
 70
     1
  9
$MEASUREMENT
 70
     1
  9
$CELWEIGHT
370
    -1
  9
$ENDCAPS
280
     0
  9
$JOINSTYLE
280
     0
  9
$LWDISPLAY
290
     0
  9
$INSUNITS
 70
     4
  9
$HYPERLINKBASE
  1

  9
$STYLESHEET
  1

  9
$XEDIT
290
     1
  9
$CEPSNTYPE
380
     0
  9
$PSTYLEMODE
290
     1
  9
$FINGERPRINTGUID
  2
{8D85AF23-2F2C-4425-A271-7A50887E3D55}
  9
$VERSIONGUID
  2
{FAEB1C32-E019-11D5-929B-00C0DF256EC4}
  9
$EXTNAMES
290
     1
  9
$PSVPSCALE
 40
0.0
  9
$OLESTARTUP
290
     0
  0
ENDSEC
  0
SECTION
  2
CLASSES
  0
CLASS
  1
ACDBDICTIONARYWDFLT
  2
AcDbDictionaryWithDefault
  3
ObjectDBX Classes
 90
        0
280
     0
281
     0
  0
CLASS
  1
VISUALSTYLE
  2
AcDbVisualStyle
  3
ObjectDBX Classes
 90
     4095
280
     0
281
     0
  0
CLASS
  1
MATERIAL
  2
AcDbMaterial
  3
ObjectDBX Classes
 90
     1153
280
     0
281
     0
  0
CLASS
  1
SCALE
  2
AcDbScale
  3
ObjectDBX Classes
 90
     1153
280
     0
281
     0
  0
CLASS
  1
DICTIONARYVAR
  2
AcDbDictionaryVar
  3
ObjectDBX Classes
 90
        0
280
     0
281
     0
  0
CLASS
  1
ACDBPLACEHOLDER
  2
AcDbPlaceHolder
  3
ObjectDBX Classes
 90
        0
280
     0
281
     0
  0
CLASS
  1
LAYOUT
  2
AcDbLayout
  3
ObjectDBX Classes
 90
        0
280
     0
281
     0
  0
ENDSEC
  0
SECTION
  2
TABLES
  0
TABLE
  2
VPORT
  5
8
330
0
100
AcDbSymbolTable
 70
     1
  0
VPORT
  5
29
330
8
100
AcDbSymbolTableRecord
100
AcDbViewportTableRecord
  2
*Active
 70
     0
 10
0.0
 20
0.0
 11
1.0
 21
1.0
 12
106.6897685008387
 22
135.3310919940711
 13
0.0
 23
0.0
 14
10.0
 24
10.0
 15
10.0
 25
10.0
 16
0.0
 26
0.0
 36
1.0
 17
0.0
 27
0.0
 37
0.0
 40
253.7284023869564
 41
1.333333333333333
 42
50.0
 43
0.0
 44
0.0
 50
0.0
 51
0.0
 71
     0
 72
 20000
 73
     1
 74
     3
 75
     0
 76
     0
 77
     0
 78
     0
281
     0
 65
     1
110
0.0
120
0.0
130
0.0
111
1.0
121
0.0
131
0.0
112
0.0
122
1.0
132
0.0
 79
     0
146
0.0
  0
ENDTAB
  0
TABLE
  2
LTYPE
  5
5
330
0
100
AcDbSymbolTable
 70
     7
  0
LTYPE
  5
14
330
5
100
AcDbSymbolTableRecord
100
AcDbLinetypeTableRecord
  2
ByBlock
 70
     0
  3

 72
    65
 73
     0
 40
0.0
  0
LTYPE
  5
15
330
5
100
AcDbSymbolTableRecord
100
AcDbLinetypeTableRecord
  2
ByLayer
 70
     0
  3

 72
    65
 73
     0
 40
0.0
  0
LTYPE
  5
16
330
5
100
AcDbSymbolTableRecord
100
AcDbLinetypeTableRecord
  2
Continuous
 70
     0
  3
Solid line
 72
    65
 73
     0
 40
0.0
  0
LTYPE
  5
40
330
5
100
AcDbSymbolTableRecord
100
AcDbLinetypeTableRecord
  2
DASHED
 70
     0
  3
ICAD/SX(2) Dashed __ __ __ __ __ __ __ __ __ __ __ __ __ _
 72
    65
 73
     2
 40
19.05
 49
12.7
 74
     0
 49
-6.35
 74
     0
  0
LTYPE
  5
41
330
5
100
AcDbSymbolTableRecord
100
AcDbLinetypeTableRecord
  2
CENTER
 70
     0
  3
ICAD/SX(3) Center ____ _ ____ _ ____ _ ____ _ ____ _ ____
 72
    65
 73
     4
 40
50.8
 49
31.75
 74
     0
 49
-6.35
 74
     0
 49
6.35
 74
     0
 49
-6.35
 74
     0
  0
LTYPE
  5
42
330
5
100
AcDbSymbolTableRecord
100
AcDbLinetypeTableRecord
  2
PHANTOM
 70
     0
  3
ICAD/SX(4) Phantom ______  __  __  ______  __  __  ______
 72
    65
 73
     6
 40
63.5
 49
31.75
 74
     0
 49
-6.35
 74
     0
 49
6.35
 74
     0
 49
-6.35
 74
     0
 49
6.35
 74
     0
 49
-6.35
 74
     0
  0
LTYPE
  5
43
330
5
100
AcDbSymbolTableRecord
100
AcDbLinetypeTableRecord
  2
DOT
 70
     0
  3
ICAD/SX(5) Dot . . . . . . . . . . . . . . . . . . . . . . . .
 72
    65
 73
     2
 40
6.35
 49
0.0
 74
     0
 49
-6.35
 74
     0
  0
LTYPE
  5
44
330
5
100
AcDbSymbolTableRecord
100
AcDbLinetypeTableRecord
  2
HIDDEN
 70
     0
  3
ICAD/SX(6) Hidden __ __ __ __ __ __ __ __ __ __ __ __ __ __
 72
    65
 73
     2
 40
9.525
 49
6.35
 74
     0
 49
-3.175
 74
     0
  0
LTYPE
  5
45
330
5
100
AcDbSymbolTableRecord
100
AcDbLinetypeTableRecord
  2
DOTSX
 70
     0
  3
ICAD/SX(5) Dot . . . . . . . . . . . . . . . . . . . . . . . .
 72
    65
 73
     2
 40
6.35
 49
3.175
 74
     0
 49
-3.175
 74
     0
  0
ENDTAB
  0
TABLE
  2
LAYER
  5
2
330
0
100
AcDbSymbolTable
 70
     6
  0
LAYER
  5
10
330
2
100
AcDbSymbolTableRecord
100
AcDbLayerTableRecord
  2
0
 70
     0
 62
     7
  6
Continuous
370
    -3
390
F
  0
LAYER
  5
46
330
2
100
AcDbSymbolTableRecord
100
AcDbLayerTableRecord
  2
NoLayerName_001
 70
     0
 62
     7
  6
Continuous
370
    -3
390
F
  0
LAYER
  5
47
330
2
100
AcDbSymbolTableRecord
100
AcDbLayerTableRecord
  2
NoLayerName_002
 70
     0
 62
     7
  6
Continuous
370
    -3
390
F
  0
LAYER
  5
48
330
2
100
AcDbSymbolTableRecord
100
AcDbLayerTableRecord
  2
NoLayerName_003
 70
     0
 62
     7
  6
Continuous
370
    -3
390
F
  0
LAYER
  5
49
330
2
100
AcDbSymbolTableRecord
100
AcDbLayerTableRecord
  2
Defpoints
 70
     0
 62
     7
  6
Continuous
290
     0
370
    -3
390
F
  0
LAYER
  5
4A
330
2
100
AcDbSymbolTableRecord
100
AcDbLayerTableRecord
  2
SX_DraftLine
 70
     0
 62
     7
  6
Continuous
290
     0
370
    -3
390
F
  0
ENDTAB
  0
TABLE
  2
STYLE
  5
3
330
0
100
AcDbSymbolTable
 70
     2
  0
STYLE
  5
11
330
3
100
AcDbSymbolTableRecord
100
AcDbTextStyleTableRecord
  2
Standard
 70
     0
 40
0.0
 41
1.0
 50
0.0
 71
     0
 42
2.5
  3
txt
  4
extfont2
  0
STYLE
  5
3F
330
3
100
AcDbSymbolTableRecord
100
AcDbTextStyleTableRecord
  2

 70
     1
 40
0.0
 41
1.0
 50
0.0
 71
     0
 42
2.5
  3
ltypeshp.shx
  4

  0
ENDTAB
  0
TABLE
  2
VIEW
  5
6
330
0
100
AcDbSymbolTable
 70
     0
  0
ENDTAB
  0
TABLE
  2
UCS
  5
7
330
0
100
AcDbSymbolTable
 70
     0
  0
ENDTAB
  0
TABLE
  2
APPID
  5
9
330
0
100
AcDbSymbolTable
 70
     1
  0
APPID
  5
12
330
9
100
AcDbSymbolTableRecord
100
AcDbRegAppTableRecord
  2
ACAD
 70
     0
  0
ENDTAB
  0
TABLE
  2
DIMSTYLE
  5
A
330
0
100
AcDbSymbolTable
 70
     1
100
AcDbDimStyleTable
  0
DIMSTYLE
105
27
330
A
100
AcDbSymbolTableRecord
100
AcDbDimStyleTableRecord
  2
Standard
 70
     0
 41
2.5
 42
0.625
 43
3.75
 44
1.25
 73
     0
 74
     0
 77
     1
140
2.5
141
2.5
143
0.03937007874016
146
0.75
147
0.625
171
     3
172
     1
178
     0
271
     2
272
     2
274
     3
283
     0
284
     8
340
11
  0
ENDTAB
  0
TABLE
  2
BLOCK_RECORD
  5
1
330
0
100
AcDbSymbolTable
 70
    13
  0
BLOCK_RECORD
  5
1F
330
1
100
AcDbSymbolTableRecord
100
AcDbBlockTableRecord
  2
*Model_Space
340
22
  0
BLOCK_RECORD
  5
1B
330
1
100
AcDbSymbolTableRecord
100
AcDbBlockTableRecord
  2
*Paper_Space
340
1E
  0
BLOCK_RECORD
  5
23
330
1
100
AcDbSymbolTableRecord
100
AcDbBlockTableRecord
  2
*Paper_Space0
340
0
  0
BLOCK_RECORD
  5
113
330
1
100
AcDbSymbolTableRecord
100
AcDbBlockTableRecord
  2
*X1
340
0
102
{BLKREFS
331
123
102
}
  0
BLOCK_RECORD
  5
124
330
1
100
AcDbSymbolTableRecord
100
AcDbBlockTableRecord
  2
*X2
340
0
102
{BLKREFS
331
134
102
}
  0
BLOCK_RECORD
  5
136
330
1
100
AcDbSymbolTableRecord
100
AcDbBlockTableRecord
  2
*X3
340
0
102
{BLKREFS
331
146
102
}
  0
BLOCK_RECORD
  5
147
330
1
100
AcDbSymbolTableRecord
100
AcDbBlockTableRecord
  2
*X4
340
0
102
{BLKREFS
331
157
102
}
  0
BLOCK_RECORD
  5
15C
330
1
100
AcDbSymbolTableRecord
100
AcDbBlockTableRecord
  2
*X5
340
0
102
{BLKREFS
331
16C
102
}
  0
BLOCK_RECORD
  5
16D
330
1
100
AcDbSymbolTableRecord
100
AcDbBlockTableRecord
  2
*X6
340
0
102
{BLKREFS
331
17D
102
}
  0
BLOCK_RECORD
  5
17F
330
1
100
AcDbSymbolTableRecord
100
AcDbBlockTableRecord
  2
*X7
340
0
102
{BLKREFS
331
18F
102
}
  0
BLOCK_RECORD
  5
190
330
1
100
AcDbSymbolTableRecord
100
AcDbBlockTableRecord
  2
*X8
340
0
102
{BLKREFS
331
1A0
102
}
  0
BLOCK_RECORD
  5
1A7
330
1
100
AcDbSymbolTableRecord
100
AcDbBlockTableRecord
  2
*X9
340
0
102
{BLKREFS
331
1B7
102
}
  0
BLOCK_RECORD
  5
1B8
330
1
100
AcDbSymbolTableRecord
100
AcDbBlockTableRecord
  2
*X10
340
0
102
{BLKREFS
331
1C8
102
}
  0
BLOCK_RECORD
  5
1CA
330
1
100
AcDbSymbolTableRecord
100
AcDbBlockTableRecord
  2
*X11
340
0
102
{BLKREFS
331
1DA
102
}
  0
BLOCK_RECORD
  5
1DB
330
1
100
AcDbSymbolTableRecord
100
AcDbBlockTableRecord
  2
*X12
340
0
102
{BLKREFS
331
1EB
102
}
  0
ENDTAB
  0
ENDSEC
  0
SECTION
  2
BLOCKS
  0
BLOCK
  5
20
330
1F
100
AcDbEntity
  8
0
100
AcDbBlockBegin
  2
*Model_Space
 70
     0
 10
0.0
 20
0.0
 30
0.0
  3
*Model_Space
  1

  0
ENDBLK
  5
21
330
1F
100
AcDbEntity
  8
0
100
AcDbBlockEnd
  0
BLOCK
  5
1C
330
1B
100
AcDbEntity
 67
     1
  8
0
100
AcDbBlockBegin
  2
*Paper_Space
 70
     0
 10
0.0
 20
0.0
 30
0.0
  3
*Paper_Space
  1

  0
ENDBLK
  5
1D
330
1B
100
AcDbEntity
 67
     1
  8
0
100
AcDbBlockEnd
  0
BLOCK
  5
24
330
23
100
AcDbEntity
  8
0
100
AcDbBlockBegin
  2
*Paper_Space0
 70
     0
 10
0.0
 20
0.0
 30
0.0
  3
*Paper_Space0
  1

  0
ENDBLK
  5
25
330
23
100
AcDbEntity
  8
0
100
AcDbBlockEnd
  0
BLOCK
  5
114
330
113
100
AcDbEntity
  8
0
100
AcDbBlockBegin
  2
*X1
 70
     1
 10
0.0
 20
0.0
 30
0.0
  3
*X1
  1

  0
LINE
  5
116
330
113
100
AcDbEntity
  8
0
  6
Continuous
 62
     7
370
    25
100
AcDbLine
 10
0.0000004016457353
 20
0.0377363827612669
 30
0.0
 11
0.5224848958132715
 21
0.560220876928803
 31
0.0
  0
LINE
  5
117
330
113
100
AcDbEntity
  8
0
  6
Continuous
 62
     7
370
    25
100
AcDbLine
 10
0.054995923928189
 20
0.9412600424675759
 30
0.0
 11
0.6460626294101767
 21
1.532326747949563
 31
0.0
  0
LINE
  5
118
330
113
100
AcDbEntity
  8
0
  6
Continuous
 62
     7
370
    25
100
AcDbLine
 10
0.2215347818755333
 20
1.956327037838747
 30
0.0
 11
0.9302879986039928
 21
2.665080254567207
 31
0.0
  0
LINE
  5
119
330
113
100
AcDbEntity
  8
0
  6
Continuous
 62
     7
370
    25
100
AcDbLine
 10
0.5682513868512729
 20
3.151571780238356
 30
0.0
 11
1.550104032867472
 21
4.133424426254555
 31
0.0
  0
LINE
  5
11A
330
113
100
AcDbEntity
  8
0
  6
Continuous
 62
     7
370
    25
100
AcDbLine
 10
1.3295590966855
 20
4.761407627496425
 30
0.0
 11
1.481128914362446
 21
4.91297744517337
 31
0.0
  0
LINE
  5
11B
330
113
100
AcDbEntity
  8
0
  6
Continuous
 62
     7
370
    25
100
AcDbLine
 10
0.4996018952788575
 20
0.0000000692857327
 30
0.0
 11
0.0163151832141184
 21
0.4832867813504718
 31
0.0
  0
LINE
  5
11C
330
113
100
AcDbEntity
  8
0
  6
Continuous
 62
     7
370
    25
100
AcDbLine
 10
0.5434629149892629
 20
0.8046671869991826
 30
0.0
 11
0.0942849060008161
 21
1.25384519598763
 31
0.0
  0
LINE
  5
11D
330
113
100
AcDbEntity
  8
0
  6
Continuous
 62
     7
370
    25
100
AcDbLine
 10
0.6488992835117529
 20
1.547758955900548
 30
0.0
 11
0.2249383621385094
 21
1.971719877273792
 31
0.0
  0
LINE
  5
11E
330
113
100
AcDbEntity
  8
0
  6
Continuous
 62
     7
370
    25
100
AcDbLine
 10
0.805212662001324
 20
2.239973714834832
 30
0.0
 11
0.400425305592773
 21
2.644761071243383
 31
0.0
  0
LINE
  5
11F
330
113
100
AcDbEntity
  8
0
  6
Continuous
 62
     7
370
    25
100
AcDbLine
 10
1.005267000156053
 20
2.888447514103945
 30
0.0
 11
0.615280049955838
 21
3.278434464304159
 31
0.0
  0
LINE
  5
120
330
113
100
AcDbEntity
  8
0
  6
Continuous
 62
     7
370
    25
100
AcDbLine
 10
1.244090482767049
 20
3.498152168916789
 30
0.0
 11
0.8655748211979224
 21
3.876667830485916
 31
0.0
  0
LINE
  5
121
330
113
100
AcDbEntity
  8
0
  6
Continuous
 62
     7
370
    25
100
AcDbLine
 10
1.518129047033923
 20
4.072641742073785
 30
0.0
 11
1.148436884639493
 21
4.442333904468216
 31
0.0
  0
LINE
  5
122
330
113
100
AcDbEntity
  8
0
  6
Continuous
 62
     7
370
    25
100
AcDbLine
 10
1.824817393977014
 20
4.614481532554549
 30
0.0
 11
1.526321481358133
 21
4.91297744517343
 31
0.0
  0
ENDBLK
  5
115
330
113
100
AcDbEntity
  8
0
100
AcDbBlockEnd
  0
BLOCK
  5
125
330
124
100
AcDbEntity
  8
0
100
AcDbBlockBegin
  2
*X2
 70
     1
 10
0.0
 20
0.0
 30
0.0
  3
*X2
  1

  0
LINE
  5
127
330
124
100
AcDbEntity
  8
0
  6
Continuous
 62
     7
370
    25
100
AcDbLine
 10
0.373273080268774
 20
-0.0000016808031944
 30
0.0
 11
0.4980320178566538
 21
0.1247572567846853
 31
0.0
  0
LINE
  5
128
330
124
100
AcDbEntity
  8
0
  6
Continuous
 62
     7
370
    25
100
AcDbLine
 10
0.0089420012226498
 20
0.4841953775745367
 30
0.0
 11
0.5530275401390988
 21
1.028280916490986
 31
0.0
  0
LINE
  5
129
330
124
100
AcDbEntity
  8
0
  6
Continuous
 62
     7
370
    25
100
AcDbLine
 10
0.098936777415858
 20
1.422718291191615
 30
0.0
 11
0.7195663980864354
 21
2.043347911862192
 31
0.0
  0
LINE
  5
12A
330
124
100
AcDbEntity
  8
0
  6
Continuous
 62
     7
370
    25
100
AcDbLine
 10
0.310274896323449
 20
2.482584547523032
 30
0.0
 11
1.066283003062185
 21
3.238592654261769
 31
0.0
  0
LINE
  5
12B
330
124
100
AcDbEntity
  8
0
  6
Continuous
 62
     7
370
    25
100
AcDbLine
 10
0.7254744225963918
 20
3.746312211219816
 30
0.0
 11
1.827590712896413
 21
4.848428501519837
 31
0.0
  0
LINE
  5
12C
330
124
100
AcDbEntity
  8
0
  6
Continuous
 62
     7
370
    25
100
AcDbLine
 10
0.2361279981782047
 20
-0.0000016808031944
 30
0.0
 11
0.00000097029186
 21
0.2361253470831504
 31
0.0
  0
LINE
  5
12D
330
124
100
AcDbEntity
  8
0
  6
Continuous
 62
     7
370
    25
100
AcDbLine
 10
0.5143467994249846
 20
0.5703076553738526
 30
0.0
 11
0.0507993514506082
 21
1.033855103348229
 31
0.0
  0
LINE
  5
12E
330
124
100
AcDbEntity
  8
0
  6
Continuous
 62
     7
370
    25
100
AcDbLine
 10
0.5923165222116751
 20
1.340866070011003
 30
0.0
 11
0.1563379643314007
 21
1.776844627891278
 31
0.0
  0
LINE
  5
12F
330
124
100
AcDbEntity
  8
0
  6
Continuous
 62
     7
370
    25
100
AcDbLine
 10
0.7229699783493686
 20
2.058740751297165
 30
0.0
 11
0.3080040057177661
 21
2.473706723928768
 31
0.0
  0
LINE
  5
130
330
124
100
AcDbEntity
  8
0
  6
Continuous
 62
     7
370
    25
100
AcDbLine
 10
0.8984569218036427
 20
2.731781945266761
 30
0.0
 11
0.499820098186159
 21
3.130418768884244
 31
0.0
  0
LINE
  5
131
330
124
100
AcDbEntity
  8
0
  6
Continuous
 62
     7
370
    25
100
AcDbLine
 10
1.113311666166709
 20
3.365455338327536
 30
0.0
 11
0.7274843263640711
 21
3.751282678130174
 31
0.0
  0
LINE
  5
132
330
124
100
AcDbEntity
  8
0
  6
Continuous
 62
     7
370
    25
100
AcDbLine
 10
1.363606437408791
 20
3.963688704509309
 30
0.0
 11
0.9878281434661076
 21
4.339466998451992
 31
0.0
  0
LINE
  5
133
330
124
100
AcDbEntity
  8
0
  6
Continuous
 62
     7
370
    25
100
AcDbLine
 10
1.646468500850347
 20
4.52935477849158
 30
0.0
 11
1.278490612416613
 21
4.897332666925315
 31
0.0
  0
ENDBLK
  5
126
330
124
100
AcDbEntity
  8
0
100
AcDbBlockEnd
  0
BLOCK
  5
137
330
136
100
AcDbEntity
  8
0
100
AcDbBlockBegin
  2
*X3
 70
     1
 10
0.0
 20
0.0
 30
0.0
  3
*X3
  1

  0
LINE
  5
139
330
136
100
AcDbEntity
  8
0
  6
Continuous
 62
     7
370
    25
100
AcDbLine
 10
1.824816094385056
 20
0.0377363827612669
 30
0.0
 11
1.30233160021752
 21
0.5602208769288031
 31
0.0
  0
LINE
  5
13A
330
136
100
AcDbEntity
  8
0
  6
Continuous
 62
     7
370
    25
100
AcDbLine
 10
1.769820572102603
 20
0.9412600424675759
 30
0.0
 11
1.178753866620616
 21
1.532326747949564
 31
0.0
  0
LINE
  5
13B
330
136
100
AcDbEntity
  8
0
  6
Continuous
 62
     7
370
    25
100
AcDbLine
 10
1.603281714155259
 20
1.956327037838747
 30
0.0
 11
0.8945284974267999
 21
2.665080254567207
 31
0.0
  0
LINE
  5
13C
330
136
100
AcDbEntity
  8
0
  6
Continuous
 62
     7
370
    25
100
AcDbLine
 10
1.25656510917952
 20
3.151571780238356
 30
0.0
 11
0.2747124631633214
 21
4.133424426254556
 31
0.0
  0
LINE
  5
13D
330
136
100
AcDbEntity
  8
0
  6
Continuous
 62
     7
370
    25
100
AcDbLine
 10
0.4952573993452933
 20
4.761407627496425
 30
0.0
 11
0.3436875816683479
 21
4.91297744517337
 31
0.0
  0
LINE
  5
13E
330
136
100
AcDbEntity
  8
0
  6
Continuous
 62
     7
370
    25
100
AcDbLine
 10
1.325214600751934
 20
0.0000000692857327
 30
0.0
 11
1.808501312816674
 21
0.4832867813504717
 31
0.0
  0
LINE
  5
13F
330
136
100
AcDbEntity
  8
0
  6
Continuous
 62
     7
370
    25
100
AcDbLine
 10
1.281353581041529
 20
0.8046671869991826
 30
0.0
 11
1.730531590029976
 21
1.253845195987629
 31
0.0
  0
LINE
  5
140
330
136
100
AcDbEntity
  8
0
  6
Continuous
 62
     7
370
    25
100
AcDbLine
 10
1.17591721251904
 20
1.547758955900548
 30
0.0
 11
1.599878133892283
 21
1.971719877273791
 31
0.0
  0
LINE
  5
141
330
136
100
AcDbEntity
  8
0
  6
Continuous
 62
     7
370
    25
100
AcDbLine
 10
1.019603834029469
 20
2.239973714834832
 30
0.0
 11
1.42439119043802
 21
2.644761071243383
 31
0.0
  0
LINE
  5
142
330
136
100
AcDbEntity
  8
0
  6
Continuous
 62
     7
370
    25
100
AcDbLine
 10
0.81954949587474
 20
2.888447514103945
 30
0.0
 11
1.209536446074955
 21
3.278434464304159
 31
0.0
  0
LINE
  5
143
330
136
100
AcDbEntity
  8
0
  6
Continuous
 62
     7
370
    25
100
AcDbLine
 10
0.5807260132637437
 20
3.498152168916789
 30
0.0
 11
0.9592416748328709
 21
3.876667830485916
 31
0.0
  0
LINE
  5
144
330
136
100
AcDbEntity
  8
0
  6
Continuous
 62
     7
370
    25
100
AcDbLine
 10
0.3066874489968698
 20
4.072641742073785
 30
0.0
 11
0.6763796113913009
 21
4.442333904468216
 31
0.0
  0
LINE
  5
145
330
136
100
AcDbEntity
  8
0
  6
Continuous
 62
     7
370
    25
100
AcDbLine
 10
-0.0000008979462205
 20
4.614481532554549
 30
0.0
 11
0.2984950146726608
 21
4.91297744517343
 31
0.0
  0
ENDBLK
  5
138
330
136
100
AcDbEntity
  8
0
100
AcDbBlockEnd
  0
BLOCK
  5
148
330
147
100
AcDbEntity
  8
0
100
AcDbBlockBegin
  2
*X4
 70
     1
 10
0.0
 20
0.0
 30
0.0
  3
*X4
  1

  0
LINE
  5
14A
330
147
100
AcDbEntity
  8
0
  6
Continuous
 62
     7
370
    25
100
AcDbLine
 10
1.454316700674127
 20
-0.0000016808031944
 30
0.0
 11
1.329557763086247
 21
0.1247572567846854
 31
0.0
  0
LINE
  5
14B
330
147
100
AcDbEntity
  8
0
  6
Continuous
 62
     7
370
    25
100
AcDbLine
 10
1.818647779720252
 20
0.4841953775745366
 30
0.0
 11
1.274562240803803
 21
1.028280916490986
 31
0.0
  0
LINE
  5
14C
330
147
100
AcDbEntity
  8
0
  6
Continuous
 62
     7
370
    25
100
AcDbLine
 10
1.728653003527044
 20
1.422718291191615
 30
0.0
 11
1.108023382856466
 21
2.043347911862192
 31
0.0
  0
LINE
  5
14D
330
147
100
AcDbEntity
  8
0
  6
Continuous
 62
     7
370
    25
100
AcDbLine
 10
1.517314884619453
 20
2.482584547523032
 30
0.0
 11
0.7613067778807169
 21
3.238592654261769
 31
0.0
  0
LINE
  5
14E
330
147
100
AcDbEntity
  8
0
  6
Continuous
 62
     7
370
    25
100
AcDbLine
 10
1.102115358346511
 20
3.746312211219816
 30
0.0
 11
-0.0000009319535099
 21
4.848428501519837
 31
0.0
  0
LINE
  5
14F
330
147
100
AcDbEntity
  8
0
  6
Continuous
 62
     7
370
    25
100
AcDbLine
 10
1.591461782764696
 20
-0.0000016808031944
 30
0.0
 11
1.827588810651041
 21
0.2361253470831503
 31
0.0
  0
LINE
  5
150
330
147
100
AcDbEntity
  8
0
  6
Continuous
 62
     7
370
    25
100
AcDbLine
 10
1.313242981517917
 20
0.5703076553738526
 30
0.0
 11
1.776790429492293
 21
1.033855103348229
 31
0.0
  0
LINE
  5
151
330
147
100
AcDbEntity
  8
0
  6
Continuous
 62
     7
370
    25
100
AcDbLine
 10
1.235273258731227
 20
1.340866070011003
 30
0.0
 11
1.671251816611501
 21
1.776844627891278
 31
0.0
  0
LINE
  5
152
330
147
100
AcDbEntity
  8
0
  6
Continuous
 62
     7
370
    25
100
AcDbLine
 10
1.104619802593533
 20
2.058740751297165
 30
0.0
 11
1.519585775225136
 21
2.473706723928768
 31
0.0
  0
LINE
  5
153
330
147
100
AcDbEntity
  8
0
  6
Continuous
 62
     7
370
    25
100
AcDbLine
 10
0.9291328591392595
 20
2.731781945266761
 30
0.0
 11
1.327769682756743
 21
3.130418768884244
 31
0.0
  0
LINE
  5
154
330
147
100
AcDbEntity
  8
0
  6
Continuous
 62
     7
370
    25
100
AcDbLine
 10
0.7142781147761936
 20
3.365455338327536
 30
0.0
 11
1.100105454578832
 21
3.751282678130173
 31
0.0
  0
LINE
  5
155
330
147
100
AcDbEntity
  8
0
  6
Continuous
 62
     7
370
    25
100
AcDbLine
 10
0.4639833435341119
 20
3.963688704509309
 30
0.0
 11
0.8397616374767951
 21
4.339466998451992
 31
0.0
  0
LINE
  5
156
330
147
100
AcDbEntity
  8
0
  6
Continuous
 62
     7
370
    25
100
AcDbLine
 10
0.1811212800925563
 20
4.52935477849158
 30
0.0
 11
0.5490991685262905
 21
4.897332666925315
 31
0.0
  0
ENDBLK
  5
149
330
147
100
AcDbEntity
  8
0
100
AcDbBlockEnd
  0
BLOCK
  5
15D
330
15C
100
AcDbEntity
  8
0
100
AcDbBlockBegin
  2
*X5
 70
     1
 10
0.0
 20
0.0
 30
0.0
  3
*X5
  1

  0
LINE
  5
15F
330
15C
100
AcDbEntity
  8
0
  6
Continuous
 62
     7
370
    25
100
AcDbLine
 10
0.0000004016457353
 20
0.0377363827612669
 30
0.0
 11
0.5224848958132715
 21
0.560220876928803
 31
0.0
  0
LINE
  5
160
330
15C
100
AcDbEntity
  8
0
  6
Continuous
 62
     7
370
    25
100
AcDbLine
 10
0.054995923928189
 20
0.9412600424675759
 30
0.0
 11
0.6460626294101767
 21
1.532326747949563
 31
0.0
  0
LINE
  5
161
330
15C
100
AcDbEntity
  8
0
  6
Continuous
 62
     7
370
    25
100
AcDbLine
 10
0.2215347818755333
 20
1.956327037838747
 30
0.0
 11
0.9302879986039928
 21
2.665080254567207
 31
0.0
  0
LINE
  5
162
330
15C
100
AcDbEntity
  8
0
  6
Continuous
 62
     7
370
    25
100
AcDbLine
 10
0.5682513868512729
 20
3.151571780238356
 30
0.0
 11
1.550104032867472
 21
4.133424426254555
 31
0.0
  0
LINE
  5
163
330
15C
100
AcDbEntity
  8
0
  6
Continuous
 62
     7
370
    25
100
AcDbLine
 10
1.3295590966855
 20
4.761407627496425
 30
0.0
 11
1.481128914362446
 21
4.91297744517337
 31
0.0
  0
LINE
  5
164
330
15C
100
AcDbEntity
  8
0
  6
Continuous
 62
     7
370
    25
100
AcDbLine
 10
0.4996018952788575
 20
0.0000000692857327
 30
0.0
 11
0.0163151832141184
 21
0.4832867813504718
 31
0.0
  0
LINE
  5
165
330
15C
100
AcDbEntity
  8
0
  6
Continuous
 62
     7
370
    25
100
AcDbLine
 10
0.5434629149892629
 20
0.8046671869991826
 30
0.0
 11
0.0942849060008161
 21
1.25384519598763
 31
0.0
  0
LINE
  5
166
330
15C
100
AcDbEntity
  8
0
  6
Continuous
 62
     7
370
    25
100
AcDbLine
 10
0.6488992835117529
 20
1.547758955900548
 30
0.0
 11
0.2249383621385094
 21
1.971719877273792
 31
0.0
  0
LINE
  5
167
330
15C
100
AcDbEntity
  8
0
  6
Continuous
 62
     7
370
    25
100
AcDbLine
 10
0.805212662001324
 20
2.239973714834832
 30
0.0
 11
0.400425305592773
 21
2.644761071243383
 31
0.0
  0
LINE
  5
168
330
15C
100
AcDbEntity
  8
0
  6
Continuous
 62
     7
370
    25
100
AcDbLine
 10
1.005267000156053
 20
2.888447514103945
 30
0.0
 11
0.615280049955838
 21
3.278434464304159
 31
0.0
  0
LINE
  5
169
330
15C
100
AcDbEntity
  8
0
  6
Continuous
 62
     7
370
    25
100
AcDbLine
 10
1.244090482767049
 20
3.498152168916789
 30
0.0
 11
0.8655748211979224
 21
3.876667830485916
 31
0.0
  0
LINE
  5
16A
330
15C
100
AcDbEntity
  8
0
  6
Continuous
 62
     7
370
    25
100
AcDbLine
 10
1.518129047033923
 20
4.072641742073785
 30
0.0
 11
1.148436884639493
 21
4.442333904468216
 31
0.0
  0
LINE
  5
16B
330
15C
100
AcDbEntity
  8
0
  6
Continuous
 62
     7
370
    25
100
AcDbLine
 10
1.824817393977014
 20
4.614481532554549
 30
0.0
 11
1.526321481358133
 21
4.91297744517343
 31
0.0
  0
ENDBLK
  5
15E
330
15C
100
AcDbEntity
  8
0
100
AcDbBlockEnd
  0
BLOCK
  5
16E
330
16D
100
AcDbEntity
  8
0
100
AcDbBlockBegin
  2
*X6
 70
     1
 10
0.0
 20
0.0
 30
0.0
  3
*X6
  1

  0
LINE
  5
170
330
16D
100
AcDbEntity
  8
0
  6
Continuous
 62
     7
370
    25
100
AcDbLine
 10
0.373273080268774
 20
-0.0000016808031944
 30
0.0
 11
0.4980320178566538
 21
0.1247572567846853
 31
0.0
  0
LINE
  5
171
330
16D
100
AcDbEntity
  8
0
  6
Continuous
 62
     7
370
    25
100
AcDbLine
 10
0.0089420012226498
 20
0.4841953775745367
 30
0.0
 11
0.5530275401390988
 21
1.028280916490986
 31
0.0
  0
LINE
  5
172
330
16D
100
AcDbEntity
  8
0
  6
Continuous
 62
     7
370
    25
100
AcDbLine
 10
0.098936777415858
 20
1.422718291191615
 30
0.0
 11
0.7195663980864354
 21
2.043347911862192
 31
0.0
  0
LINE
  5
173
330
16D
100
AcDbEntity
  8
0
  6
Continuous
 62
     7
370
    25
100
AcDbLine
 10
0.310274896323449
 20
2.482584547523032
 30
0.0
 11
1.066283003062185
 21
3.238592654261769
 31
0.0
  0
LINE
  5
174
330
16D
100
AcDbEntity
  8
0
  6
Continuous
 62
     7
370
    25
100
AcDbLine
 10
0.7254744225963918
 20
3.746312211219816
 30
0.0
 11
1.827590712896413
 21
4.848428501519837
 31
0.0
  0
LINE
  5
175
330
16D
100
AcDbEntity
  8
0
  6
Continuous
 62
     7
370
    25
100
AcDbLine
 10
0.2361279981782047
 20
-0.0000016808031944
 30
0.0
 11
0.00000097029186
 21
0.2361253470831504
 31
0.0
  0
LINE
  5
176
330
16D
100
AcDbEntity
  8
0
  6
Continuous
 62
     7
370
    25
100
AcDbLine
 10
0.5143467994249846
 20
0.5703076553738526
 30
0.0
 11
0.0507993514506082
 21
1.033855103348229
 31
0.0
  0
LINE
  5
177
330
16D
100
AcDbEntity
  8
0
  6
Continuous
 62
     7
370
    25
100
AcDbLine
 10
0.5923165222116751
 20
1.340866070011003
 30
0.0
 11
0.1563379643314007
 21
1.776844627891278
 31
0.0
  0
LINE
  5
178
330
16D
100
AcDbEntity
  8
0
  6
Continuous
 62
     7
370
    25
100
AcDbLine
 10
0.7229699783493686
 20
2.058740751297165
 30
0.0
 11
0.3080040057177661
 21
2.473706723928768
 31
0.0
  0
LINE
  5
179
330
16D
100
AcDbEntity
  8
0
  6
Continuous
 62
     7
370
    25
100
AcDbLine
 10
0.8984569218036427
 20
2.731781945266761
 30
0.0
 11
0.499820098186159
 21
3.130418768884244
 31
0.0
  0
LINE
  5
17A
330
16D
100
AcDbEntity
  8
0
  6
Continuous
 62
     7
370
    25
100
AcDbLine
 10
1.113311666166709
 20
3.365455338327536
 30
0.0
 11
0.7274843263640711
 21
3.751282678130174
 31
0.0
  0
LINE
  5
17B
330
16D
100
AcDbEntity
  8
0
  6
Continuous
 62
     7
370
    25
100
AcDbLine
 10
1.363606437408791
 20
3.963688704509309
 30
0.0
 11
0.9878281434661076
 21
4.339466998451992
 31
0.0
  0
LINE
  5
17C
330
16D
100
AcDbEntity
  8
0
  6
Continuous
 62
     7
370
    25
100
AcDbLine
 10
1.646468500850347
 20
4.52935477849158
 30
0.0
 11
1.278490612416613
 21
4.897332666925315
 31
0.0
  0
ENDBLK
  5
16F
330
16D
100
AcDbEntity
  8
0
100
AcDbBlockEnd
  0
BLOCK
  5
180
330
17F
100
AcDbEntity
  8
0
100
AcDbBlockBegin
  2
*X7
 70
     1
 10
0.0
 20
0.0
 30
0.0
  3
*X7
  1

  0
LINE
  5
182
330
17F
100
AcDbEntity
  8
0
  6
Continuous
 62
     7
370
    25
100
AcDbLine
 10
1.824816094385056
 20
0.0377363827612669
 30
0.0
 11
1.30233160021752
 21
0.5602208769288031
 31
0.0
  0
LINE
  5
183
330
17F
100
AcDbEntity
  8
0
  6
Continuous
 62
     7
370
    25
100
AcDbLine
 10
1.769820572102603
 20
0.9412600424675759
 30
0.0
 11
1.178753866620616
 21
1.532326747949564
 31
0.0
  0
LINE
  5
184
330
17F
100
AcDbEntity
  8
0
  6
Continuous
 62
     7
370
    25
100
AcDbLine
 10
1.603281714155259
 20
1.956327037838747
 30
0.0
 11
0.8945284974267999
 21
2.665080254567207
 31
0.0
  0
LINE
  5
185
330
17F
100
AcDbEntity
  8
0
  6
Continuous
 62
     7
370
    25
100
AcDbLine
 10
1.25656510917952
 20
3.151571780238356
 30
0.0
 11
0.2747124631633214
 21
4.133424426254556
 31
0.0
  0
LINE
  5
186
330
17F
100
AcDbEntity
  8
0
  6
Continuous
 62
     7
370
    25
100
AcDbLine
 10
0.4952573993452933
 20
4.761407627496425
 30
0.0
 11
0.3436875816683479
 21
4.91297744517337
 31
0.0
  0
LINE
  5
187
330
17F
100
AcDbEntity
  8
0
  6
Continuous
 62
     7
370
    25
100
AcDbLine
 10
1.325214600751934
 20
0.0000000692857327
 30
0.0
 11
1.808501312816674
 21
0.4832867813504717
 31
0.0
  0
LINE
  5
188
330
17F
100
AcDbEntity
  8
0
  6
Continuous
 62
     7
370
    25
100
AcDbLine
 10
1.281353581041529
 20
0.8046671869991826
 30
0.0
 11
1.730531590029976
 21
1.253845195987629
 31
0.0
  0
LINE
  5
189
330
17F
100
AcDbEntity
  8
0
  6
Continuous
 62
     7
370
    25
100
AcDbLine
 10
1.17591721251904
 20
1.547758955900548
 30
0.0
 11
1.599878133892283
 21
1.971719877273791
 31
0.0
  0
LINE
  5
18A
330
17F
100
AcDbEntity
  8
0
  6
Continuous
 62
     7
370
    25
100
AcDbLine
 10
1.019603834029469
 20
2.239973714834832
 30
0.0
 11
1.42439119043802
 21
2.644761071243383
 31
0.0
  0
LINE
  5
18B
330
17F
100
AcDbEntity
  8
0
  6
Continuous
 62
     7
370
    25
100
AcDbLine
 10
0.81954949587474
 20
2.888447514103945
 30
0.0
 11
1.209536446074955
 21
3.278434464304159
 31
0.0
  0
LINE
  5
18C
330
17F
100
AcDbEntity
  8
0
  6
Continuous
 62
     7
370
    25
100
AcDbLine
 10
0.5807260132637437
 20
3.498152168916789
 30
0.0
 11
0.9592416748328709
 21
3.876667830485916
 31
0.0
  0
LINE
  5
18D
330
17F
100
AcDbEntity
  8
0
  6
Continuous
 62
     7
370
    25
100
AcDbLine
 10
0.3066874489968698
 20
4.072641742073785
 30
0.0
 11
0.6763796113913009
 21
4.442333904468216
 31
0.0
  0
LINE
  5
18E
330
17F
100
AcDbEntity
  8
0
  6
Continuous
 62
     7
370
    25
100
AcDbLine
 10
-0.0000008979462205
 20
4.614481532554549
 30
0.0
 11
0.2984950146726608
 21
4.91297744517343
 31
0.0
  0
ENDBLK
  5
181
330
17F
100
AcDbEntity
  8
0
100
AcDbBlockEnd
  0
BLOCK
  5
191
330
190
100
AcDbEntity
  8
0
100
AcDbBlockBegin
  2
*X8
 70
     1
 10
0.0
 20
0.0
 30
0.0
  3
*X8
  1

  0
LINE
  5
193
330
190
100
AcDbEntity
  8
0
  6
Continuous
 62
     7
370
    25
100
AcDbLine
 10
1.454316700674127
 20
-0.0000016808031944
 30
0.0
 11
1.329557763086247
 21
0.1247572567846854
 31
0.0
  0
LINE
  5
194
330
190
100
AcDbEntity
  8
0
  6
Continuous
 62
     7
370
    25
100
AcDbLine
 10
1.818647779720252
 20
0.4841953775745366
 30
0.0
 11
1.274562240803803
 21
1.028280916490986
 31
0.0
  0
LINE
  5
195
330
190
100
AcDbEntity
  8
0
  6
Continuous
 62
     7
370
    25
100
AcDbLine
 10
1.728653003527044
 20
1.422718291191615
 30
0.0
 11
1.108023382856466
 21
2.043347911862192
 31
0.0
  0
LINE
  5
196
330
190
100
AcDbEntity
  8
0
  6
Continuous
 62
     7
370
    25
100
AcDbLine
 10
1.517314884619453
 20
2.482584547523032
 30
0.0
 11
0.7613067778807169
 21
3.238592654261769
 31
0.0
  0
LINE
  5
197
330
190
100
AcDbEntity
  8
0
  6
Continuous
 62
     7
370
    25
100
AcDbLine
 10
1.102115358346511
 20
3.746312211219816
 30
0.0
 11
-0.0000009319535099
 21
4.848428501519837
 31
0.0
  0
LINE
  5
198
330
190
100
AcDbEntity
  8
0
  6
Continuous
 62
     7
370
    25
100
AcDbLine
 10
1.591461782764696
 20
-0.0000016808031944
 30
0.0
 11
1.827588810651041
 21
0.2361253470831503
 31
0.0
  0
LINE
  5
199
330
190
100
AcDbEntity
  8
0
  6
Continuous
 62
     7
370
    25
100
AcDbLine
 10
1.313242981517917
 20
0.5703076553738526
 30
0.0
 11
1.776790429492293
 21
1.033855103348229
 31
0.0
  0
LINE
  5
19A
330
190
100
AcDbEntity
  8
0
  6
Continuous
 62
     7
370
    25
100
AcDbLine
 10
1.235273258731227
 20
1.340866070011003
 30
0.0
 11
1.671251816611501
 21
1.776844627891278
 31
0.0
  0
LINE
  5
19B
330
190
100
AcDbEntity
  8
0
  6
Continuous
 62
     7
370
    25
100
AcDbLine
 10
1.104619802593533
 20
2.058740751297165
 30
0.0
 11
1.519585775225136
 21
2.473706723928768
 31
0.0
  0
LINE
  5
19C
330
190
100
AcDbEntity
  8
0
  6
Continuous
 62
     7
370
    25
100
AcDbLine
 10
0.9291328591392595
 20
2.731781945266761
 30
0.0
 11
1.327769682756743
 21
3.130418768884244
 31
0.0
  0
LINE
  5
19D
330
190
100
AcDbEntity
  8
0
  6
Continuous
 62
     7
370
    25
100
AcDbLine
 10
0.7142781147761936
 20
3.365455338327536
 30
0.0
 11
1.100105454578832
 21
3.751282678130173
 31
0.0
  0
LINE
  5
19E
330
190
100
AcDbEntity
  8
0
  6
Continuous
 62
     7
370
    25
100
AcDbLine
 10
0.4639833435341119
 20
3.963688704509309
 30
0.0
 11
0.8397616374767951
 21
4.339466998451992
 31
0.0
  0
LINE
  5
19F
330
190
100
AcDbEntity
  8
0
  6
Continuous
 62
     7
370
    25
100
AcDbLine
 10
0.1811212800925563
 20
4.52935477849158
 30
0.0
 11
0.5490991685262905
 21
4.897332666925315
 31
0.0
  0
ENDBLK
  5
192
330
190
100
AcDbEntity
  8
0
100
AcDbBlockEnd
  0
BLOCK
  5
1A8
330
1A7
100
AcDbEntity
  8
0
100
AcDbBlockBegin
  2
*X9
 70
     1
 10
0.0
 20
0.0
 30
0.0
  3
*X9
  1

  0
LINE
  5
1AA
330
1A7
100
AcDbEntity
  8
0
  6
Continuous
 62
     7
370
    25
100
AcDbLine
 10
0.0000004016457353
 20
0.0377363827613806
 30
0.0
 11
0.5224848958132715
 21
0.5602208769289166
 31
0.0
  0
LINE
  5
1AB
330
1A7
100
AcDbEntity
  8
0
  6
Continuous
 62
     7
370
    25
100
AcDbLine
 10
0.054995923928189
 20
0.9412600424676896
 30
0.0
 11
0.6460626294101767
 21
1.532326747949677
 31
0.0
  0
LINE
  5
1AC
330
1A7
100
AcDbEntity
  8
0
  6
Continuous
 62
     7
370
    25
100
AcDbLine
 10
0.2215347818755333
 20
1.956327037838861
 30
0.0
 11
0.9302879986039928
 21
2.66508025456732
 31
0.0
  0
LINE
  5
1AD
330
1A7
100
AcDbEntity
  8
0
  6
Continuous
 62
     7
370
    25
100
AcDbLine
 10
0.5682513868512729
 20
3.15157178023847
 30
0.0
 11
1.550104032867472
 21
4.133424426254669
 31
0.0
  0
LINE
  5
1AE
330
1A7
100
AcDbEntity
  8
0
  6
Continuous
 62
     7
370
    25
100
AcDbLine
 10
1.3295590966855
 20
4.761407627496538
 30
0.0
 11
1.481128914362446
 21
4.912977445173484
 31
0.0
  0
LINE
  5
1AF
330
1A7
100
AcDbEntity
  8
0
  6
Continuous
 62
     7
370
    25
100
AcDbLine
 10
0.4996018952788575
 20
0.0000000692857327
 30
0.0
 11
0.0163151832141184
 21
0.4832867813504718
 31
0.0
  0
LINE
  5
1B0
330
1A7
100
AcDbEntity
  8
0
  6
Continuous
 62
     7
370
    25
100
AcDbLine
 10
0.5434629149892629
 20
0.8046671869991826
 30
0.0
 11
0.0942849060008161
 21
1.25384519598763
 31
0.0
  0
LINE
  5
1B1
330
1A7
100
AcDbEntity
  8
0
  6
Continuous
 62
     7
370
    25
100
AcDbLine
 10
0.6488992835117529
 20
1.547758955900548
 30
0.0
 11
0.2249383621385094
 21
1.971719877273792
 31
0.0
  0
LINE
  5
1B2
330
1A7
100
AcDbEntity
  8
0
  6
Continuous
 62
     7
370
    25
100
AcDbLine
 10
0.805212662001324
 20
2.239973714834832
 30
0.0
 11
0.400425305592773
 21
2.644761071243383
 31
0.0
  0
LINE
  5
1B3
330
1A7
100
AcDbEntity
  8
0
  6
Continuous
 62
     7
370
    25
100
AcDbLine
 10
1.005267000156053
 20
2.888447514103945
 30
0.0
 11
0.615280049955838
 21
3.278434464304159
 31
0.0
  0
LINE
  5
1B4
330
1A7
100
AcDbEntity
  8
0
  6
Continuous
 62
     7
370
    25
100
AcDbLine
 10
1.244090482767049
 20
3.498152168916789
 30
0.0
 11
0.8655748211979224
 21
3.876667830485916
 31
0.0
  0
LINE
  5
1B5
330
1A7
100
AcDbEntity
  8
0
  6
Continuous
 62
     7
370
    25
100
AcDbLine
 10
1.518129047033923
 20
4.072641742073785
 30
0.0
 11
1.148436884639493
 21
4.442333904468216
 31
0.0
  0
LINE
  5
1B6
330
1A7
100
AcDbEntity
  8
0
  6
Continuous
 62
     7
370
    25
100
AcDbLine
 10
1.824817393977014
 20
4.614481532554549
 30
0.0
 11
1.526321481358133
 21
4.91297744517343
 31
0.0
  0
ENDBLK
  5
1A9
330
1A7
100
AcDbEntity
  8
0
100
AcDbBlockEnd
  0
BLOCK
  5
1B9
330
1B8
100
AcDbEntity
  8
0
100
AcDbBlockBegin
  2
*X10
 70
     1
 10
0.0
 20
0.0
 30
0.0
  3
*X10
  1

  0
LINE
  5
1BB
330
1B8
100
AcDbEntity
  8
0
  6
Continuous
 62
     7
370
    25
100
AcDbLine
 10
0.373273080268774
 20
-0.0000016808031944
 30
0.0
 11
0.4980320178566538
 21
0.1247572567846853
 31
0.0
  0
LINE
  5
1BC
330
1B8
100
AcDbEntity
  8
0
  6
Continuous
 62
     7
370
    25
100
AcDbLine
 10
0.0089420012226498
 20
0.4841953775745367
 30
0.0
 11
0.5530275401390988
 21
1.028280916490986
 31
0.0
  0
LINE
  5
1BD
330
1B8
100
AcDbEntity
  8
0
  6
Continuous
 62
     7
370
    25
100
AcDbLine
 10
0.098936777415858
 20
1.422718291191615
 30
0.0
 11
0.7195663980864354
 21
2.043347911862192
 31
0.0
  0
LINE
  5
1BE
330
1B8
100
AcDbEntity
  8
0
  6
Continuous
 62
     7
370
    25
100
AcDbLine
 10
0.310274896323449
 20
2.482584547523032
 30
0.0
 11
1.066283003062185
 21
3.238592654261769
 31
0.0
  0
LINE
  5
1BF
330
1B8
100
AcDbEntity
  8
0
  6
Continuous
 62
     7
370
    25
100
AcDbLine
 10
0.7254744225963918
 20
3.746312211219816
 30
0.0
 11
1.827590712896413
 21
4.848428501519837
 31
0.0
  0
LINE
  5
1C0
330
1B8
100
AcDbEntity
  8
0
  6
Continuous
 62
     7
370
    25
100
AcDbLine
 10
0.2361279981782047
 20
-0.0000016808031944
 30
0.0
 11
0.00000097029186
 21
0.2361253470831504
 31
0.0
  0
LINE
  5
1C1
330
1B8
100
AcDbEntity
  8
0
  6
Continuous
 62
     7
370
    25
100
AcDbLine
 10
0.5143467994249846
 20
0.5703076553738526
 30
0.0
 11
0.0507993514506082
 21
1.033855103348229
 31
0.0
  0
LINE
  5
1C2
330
1B8
100
AcDbEntity
  8
0
  6
Continuous
 62
     7
370
    25
100
AcDbLine
 10
0.5923165222116751
 20
1.340866070011003
 30
0.0
 11
0.1563379643314007
 21
1.776844627891278
 31
0.0
  0
LINE
  5
1C3
330
1B8
100
AcDbEntity
  8
0
  6
Continuous
 62
     7
370
    25
100
AcDbLine
 10
0.7229699783493686
 20
2.058740751297165
 30
0.0
 11
0.3080040057177661
 21
2.473706723928768
 31
0.0
  0
LINE
  5
1C4
330
1B8
100
AcDbEntity
  8
0
  6
Continuous
 62
     7
370
    25
100
AcDbLine
 10
0.8984569218036427
 20
2.731781945266761
 30
0.0
 11
0.499820098186159
 21
3.130418768884244
 31
0.0
  0
LINE
  5
1C5
330
1B8
100
AcDbEntity
  8
0
  6
Continuous
 62
     7
370
    25
100
AcDbLine
 10
1.113311666166709
 20
3.365455338327536
 30
0.0
 11
0.7274843263640711
 21
3.751282678130174
 31
0.0
  0
LINE
  5
1C6
330
1B8
100
AcDbEntity
  8
0
  6
Continuous
 62
     7
370
    25
100
AcDbLine
 10
1.363606437408791
 20
3.963688704509309
 30
0.0
 11
0.9878281434661076
 21
4.339466998451992
 31
0.0
  0
LINE
  5
1C7
330
1B8
100
AcDbEntity
  8
0
  6
Continuous
 62
     7
370
    25
100
AcDbLine
 10
1.646468500850347
 20
4.52935477849158
 30
0.0
 11
1.278490612416613
 21
4.897332666925315
 31
0.0
  0
ENDBLK
  5
1BA
330
1B8
100
AcDbEntity
  8
0
100
AcDbBlockEnd
  0
BLOCK
  5
1CB
330
1CA
100
AcDbEntity
  8
0
100
AcDbBlockBegin
  2
*X11
 70
     1
 10
0.0
 20
0.0
 30
0.0
  3
*X11
  1

  0
LINE
  5
1CD
330
1CA
100
AcDbEntity
  8
0
  6
Continuous
 62
     7
370
    25
100
AcDbLine
 10
1.824816094385056
 20
0.0377363827613806
 30
0.0
 11
1.30233160021752
 21
0.5602208769289168
 31
0.0
  0
LINE
  5
1CE
330
1CA
100
AcDbEntity
  8
0
  6
Continuous
 62
     7
370
    25
100
AcDbLine
 10
1.769820572102603
 20
0.9412600424676896
 30
0.0
 11
1.178753866620616
 21
1.532326747949677
 31
0.0
  0
LINE
  5
1CF
330
1CA
100
AcDbEntity
  8
0
  6
Continuous
 62
     7
370
    25
100
AcDbLine
 10
1.603281714155259
 20
1.956327037838861
 30
0.0
 11
0.8945284974267999
 21
2.665080254567321
 31
0.0
  0
LINE
  5
1D0
330
1CA
100
AcDbEntity
  8
0
  6
Continuous
 62
     7
370
    25
100
AcDbLine
 10
1.25656510917952
 20
3.15157178023847
 30
0.0
 11
0.2747124631633214
 21
4.13342442625467
 31
0.0
  0
LINE
  5
1D1
330
1CA
100
AcDbEntity
  8
0
  6
Continuous
 62
     7
370
    25
100
AcDbLine
 10
0.4952573993452933
 20
4.761407627496538
 30
0.0
 11
0.3436875816683479
 21
4.912977445173484
 31
0.0
  0
LINE
  5
1D2
330
1CA
100
AcDbEntity
  8
0
  6
Continuous
 62
     7
370
    25
100
AcDbLine
 10
1.325214600751934
 20
0.0000000692857327
 30
0.0
 11
1.808501312816674
 21
0.4832867813504717
 31
0.0
  0
LINE
  5
1D3
330
1CA
100
AcDbEntity
  8
0
  6
Continuous
 62
     7
370
    25
100
AcDbLine
 10
1.281353581041529
 20
0.8046671869991826
 30
0.0
 11
1.730531590029976
 21
1.253845195987629
 31
0.0
  0
LINE
  5
1D4
330
1CA
100
AcDbEntity
  8
0
  6
Continuous
 62
     7
370
    25
100
AcDbLine
 10
1.17591721251904
 20
1.547758955900548
 30
0.0
 11
1.599878133892283
 21
1.971719877273791
 31
0.0
  0
LINE
  5
1D5
330
1CA
100
AcDbEntity
  8
0
  6
Continuous
 62
     7
370
    25
100
AcDbLine
 10
1.019603834029469
 20
2.239973714834832
 30
0.0
 11
1.42439119043802
 21
2.644761071243383
 31
0.0
  0
LINE
  5
1D6
330
1CA
100
AcDbEntity
  8
0
  6
Continuous
 62
     7
370
    25
100
AcDbLine
 10
0.81954949587474
 20
2.888447514103945
 30
0.0
 11
1.209536446074955
 21
3.278434464304159
 31
0.0
  0
LINE
  5
1D7
330
1CA
100
AcDbEntity
  8
0
  6
Continuous
 62
     7
370
    25
100
AcDbLine
 10
0.5807260132637437
 20
3.498152168916789
 30
0.0
 11
0.9592416748328709
 21
3.876667830485916
 31
0.0
  0
LINE
  5
1D8
330
1CA
100
AcDbEntity
  8
0
  6
Continuous
 62
     7
370
    25
100
AcDbLine
 10
0.3066874489968698
 20
4.072641742073785
 30
0.0
 11
0.6763796113913009
 21
4.442333904468216
 31
0.0
  0
LINE
  5
1D9
330
1CA
100
AcDbEntity
  8
0
  6
Continuous
 62
     7
370
    25
100
AcDbLine
 10
-0.0000008979462205
 20
4.614481532554549
 30
0.0
 11
0.2984950146726608
 21
4.91297744517343
 31
0.0
  0
ENDBLK
  5
1CC
330
1CA
100
AcDbEntity
  8
0
100
AcDbBlockEnd
  0
BLOCK
  5
1DC
330
1DB
100
AcDbEntity
  8
0
100
AcDbBlockBegin
  2
*X12
 70
     1
 10
0.0
 20
0.0
 30
0.0
  3
*X12
  1

  0
LINE
  5
1DE
330
1DB
100
AcDbEntity
  8
0
  6
Continuous
 62
     7
370
    25
100
AcDbLine
 10
1.454316700674127
 20
-0.0000016808031944
 30
0.0
 11
1.329557763086247
 21
0.1247572567846854
 31
0.0
  0
LINE
  5
1DF
330
1DB
100
AcDbEntity
  8
0
  6
Continuous
 62
     7
370
    25
100
AcDbLine
 10
1.818647779720252
 20
0.4841953775745366
 30
0.0
 11
1.274562240803803
 21
1.028280916490986
 31
0.0
  0
LINE
  5
1E0
330
1DB
100
AcDbEntity
  8
0
  6
Continuous
 62
     7
370
    25
100
AcDbLine
 10
1.728653003527044
 20
1.422718291191615
 30
0.0
 11
1.108023382856466
 21
2.043347911862192
 31
0.0
  0
LINE
  5
1E1
330
1DB
100
AcDbEntity
  8
0
  6
Continuous
 62
     7
370
    25
100
AcDbLine
 10
1.517314884619453
 20
2.482584547523032
 30
0.0
 11
0.7613067778807169
 21
3.238592654261769
 31
0.0
  0
LINE
  5
1E2
330
1DB
100
AcDbEntity
  8
0
  6
Continuous
 62
     7
370
    25
100
AcDbLine
 10
1.102115358346511
 20
3.746312211219816
 30
0.0
 11
-0.0000009319535099
 21
4.848428501519837
 31
0.0
  0
LINE
  5
1E3
330
1DB
100
AcDbEntity
  8
0
  6
Continuous
 62
     7
370
    25
100
AcDbLine
 10
1.591461782764696
 20
-0.0000016808031944
 30
0.0
 11
1.827588810651041
 21
0.2361253470831503
 31
0.0
  0
LINE
  5
1E4
330
1DB
100
AcDbEntity
  8
0
  6
Continuous
 62
     7
370
    25
100
AcDbLine
 10
1.313242981517917
 20
0.5703076553738526
 30
0.0
 11
1.776790429492293
 21
1.033855103348229
 31
0.0
  0
LINE
  5
1E5
330
1DB
100
AcDbEntity
  8
0
  6
Continuous
 62
     7
370
    25
100
AcDbLine
 10
1.235273258731227
 20
1.340866070011003
 30
0.0
 11
1.671251816611501
 21
1.776844627891278
 31
0.0
  0
LINE
  5
1E6
330
1DB
100
AcDbEntity
  8
0
  6
Continuous
 62
     7
370
    25
100
AcDbLine
 10
1.104619802593533
 20
2.058740751297165
 30
0.0
 11
1.519585775225136
 21
2.473706723928768
 31
0.0
  0
LINE
  5
1E7
330
1DB
100
AcDbEntity
  8
0
  6
Continuous
 62
     7
370
    25
100
AcDbLine
 10
0.9291328591392595
 20
2.731781945266761
 30
0.0
 11
1.327769682756743
 21
3.130418768884244
 31
0.0
  0
LINE
  5
1E8
330
1DB
100
AcDbEntity
  8
0
  6
Continuous
 62
     7
370
    25
100
AcDbLine
 10
0.7142781147761936
 20
3.365455338327536
 30
0.0
 11
1.100105454578832
 21
3.751282678130173
 31
0.0
  0
LINE
  5
1E9
330
1DB
100
AcDbEntity
  8
0
  6
Continuous
 62
     7
370
    25
100
AcDbLine
 10
0.4639833435341119
 20
3.963688704509309
 30
0.0
 11
0.8397616374767951
 21
4.339466998451992
 31
0.0
  0
LINE
  5
1EA
330
1DB
100
AcDbEntity
  8
0
  6
Continuous
 62
     7
370
    25
100
AcDbLine
 10
0.1811212800925563
 20
4.52935477849158
 30
0.0
 11
0.5490991685262905
 21
4.897332666925315
 31
0.0
  0
ENDBLK
  5
1DD
330
1DB
100
AcDbEntity
  8
0
100
AcDbBlockEnd
  0
ENDSEC
  0
SECTION
  2
ENTITIES
  0
POINT
  5
4B
330
1F
100
AcDbEntity
  8
NoLayerName_001
  6
Continuous
 62
     7
 60
     1
370
    50
100
AcDbPoint
 10
0.0
 20
0.0
 30
0.0
  0
ARC
  5
4C
330
1F
100
AcDbEntity
  8
NoLayerName_001
  6
Continuous
 62
     7
370
    50
100
AcDbCircle
 10
78.39385211617781
 20
131.9621839881423
 30
0.0
 40
2.0
100
AcDbArc
 50
180.0
 51
270.0
  0
ARC
  5
4D
330
1F
100
AcDbEntity
  8
NoLayerName_001
  6
Continuous
 62
     7
370
    50
100
AcDbCircle
 10
179.3938521161778
 20
131.9621839881423
 30
0.0
 40
2.0
100
AcDbArc
 50
270.0
 51
0.0
  0
ARC
  5
4E
330
1F
100
AcDbEntity
  8
NoLayerName_001
  6
Continuous
 62
     7
370
    50
100
AcDbCircle
 10
83.09385211617774
 20
144.8621839881422
 30
0.0
 40
1.0
100
AcDbArc
 50
180.0
 51
270.0
  0
ARC
  5
4F
330
1F
100
AcDbEntity
  8
NoLayerName_001
  6
Continuous
 62
     7
370
    50
100
AcDbCircle
 10
174.6938521161779
 20
144.8621839881422
 30
0.0
 40
1.0
100
AcDbArc
 50
270.0
 51
0.0
  0
ARC
  5
50
330
1F
100
AcDbEntity
  8
NoLayerName_001
  6
Continuous
 62
     3
370
    25
100
AcDbCircle
 10
78.39385211617781
 20
131.9621839881423
 30
0.0
 40
1.0
100
AcDbArc
 50
180.0
 51
270.0
  0
ARC
  5
51
330
1F
100
AcDbEntity
  8
NoLayerName_001
  6
Continuous
 62
     3
370
    25
100
AcDbCircle
 10
179.3938521161778
 20
131.9621839881424
 30
0.0
 40
1.0
100
AcDbArc
 50
270.0
 51
0.0
  0
LINE
  5
52
330
1F
100
AcDbEntity
  8
NoLayerName_001
  6
Continuous
 62
     7
370
    50
100
AcDbLine
 10
46.87953700167751
 20
164.1621839881421
 30
0.0
 11
27.37953700167752
 21
164.1621839881421
 31
0.0
  0
ARC
  5
53
330
1F
100
AcDbEntity
  8
NoLayerName_001
  6
Continuous
 62
     7
370
    50
100
AcDbCircle
 10
46.87953700167751
 20
150.1621839881421
 30
0.0
 40
3.5
100
AcDbArc
 50
180.0
 51
0.0
  0
ARC
  5
54
330
1F
100
AcDbEntity
  8
NoLayerName_001
  6
Continuous
 62
     7
370
    50
100
AcDbCircle
 10
46.87953700167751
 20
152.1621839881421
 30
0.0
 40
3.5
100
AcDbArc
 50
0.0
 51
180.0
  0
LINE
  5
55
330
1F
100
AcDbEntity
  8
NoLayerName_001
  6
Continuous
 62
     7
370
    50
100
AcDbLine
 10
43.37953700167751
 20
152.1621839881421
 30
0.0
 11
43.37953700167751
 21
150.1621839881421
 31
0.0
  0
LINE
  5
56
330
1F
100
AcDbEntity
  8
NoLayerName_001
  6
Continuous
 62
     7
370
    50
100
AcDbLine
 10
50.37953700167751
 20
152.1621839881421
 30
0.0
 11
50.37953700167751
 21
150.1621839881421
 31
0.0
  0
ARC
  5
57
330
1F
100
AcDbEntity
  8
NoLayerName_001
  6
Continuous
 62
     7
370
    50
100
AcDbCircle
 10
29.37953700167751
 20
131.9621839881423
 30
0.0
 40
2.0
100
AcDbArc
 50
180.0
 51
270.0
  0
LINE
  5
58
330
1F
100
AcDbEntity
  8
NoLayerName_001
  6
Continuous
 62
     7
370
    50
100
AcDbLine
 10
29.37953700167751
 20
129.9621839881423
 30
0.0
 11
68.37953700167746
 21
129.9621839881423
 31
0.0
  0
LINE
  5
59
330
1F
100
AcDbEntity
  8
NoLayerName_001
  6
Continuous
 62
     7
370
    50
100
AcDbLine
 10
83.09385211617774
 20
143.8621839881422
 30
0.0
 11
174.6938521161778
 21
143.8621839881422
 31
0.0
  0
HATCH
  5
5A
330
1F
100
AcDbEntity
  8
NoLayerName_001
  6
Continuous
 62
     7
370
    25
100
AcDbHatch
 10
0.0
 20
0.0
 30
0.0
210
0.0
220
0.0
230
1.0
  2
ANSI31
 70
     0
 71
     0
 91
        1
 92
        1
 93
        8
 72
     2
 10
175.6938521161779
 20
142.8621839881422
 40
1.0
 50
270.0
 51
360.0
 73
     1
 72
     1
 10
176.6938521161779
 20
167.6621839881422
 11
176.6938521161779
 21
142.8621839881422
 72
     1
 10
175.6938521161779
 20
167.6621839881422
 11
176.6938521161779
 21
167.6621839881422
 72
     1
 10
175.6938521161779
 20
143.8621839881422
 11
175.6938521161779
 21
167.6621839881422
 72
     2
 10
174.6938521161779
 20
143.8621839881422
 40
1.0
 50
270.0
 51
360.0
 73
     1
 72
     1
 10
128.8938521161779
 20
142.8621839881422
 11
174.6938521161779
 21
142.8621839881422
 72
     1
 10
128.8938521161779
 20
141.8621839881422
 11
128.8938521161779
 21
142.8621839881422
 72
     1
 10
175.6938521161779
 20
141.8621839881422
 11
128.8938521161779
 21
141.8621839881422
 97
        0
 75
     1
 76
     1
 52
0.0
 41
0.3149999999999898
 77
     0
 78
     1
 53
45.0
 43
0.0
 44
0.0
 45
-0.7071951695341729
 46
0.707195169534173
 79
     0
 98
        1
 10
174.7578775473768
 20
141.8621839881422
  0
HATCH
  5
5B
330
1F
100
AcDbEntity
  8
NoLayerName_001
  6
Continuous
 62
     7
370
    25
100
AcDbHatch
 10
0.0
 20
0.0
 30
0.0
210
0.0
220
0.0
230
1.0
  2
ANSI31
 70
     0
 71
     0
 91
        1
 92
        1
 93
        8
 72
     2
 10
179.3938521161778
 20
131.9621839881423
 40
2.0
 50
270.0
 51
360.0
 73
     1
 72
     1
 10
181.3938521161778
 20
168.6621839881421
 11
181.3938521161778
 21
131.9621839881423
 72
     1
 10
180.3938521161778
 20
168.6621839881421
 11
181.3938521161778
 21
168.6621839881421
 72
     1
 10
180.3938521161778
 20
131.9621839881423
 11
180.3938521161778
 21
168.6621839881421
 72
     2
 10
179.3938521161778
 20
131.9621839881424
 40
1.0
 50
270.0
 51
360.0
 73
     1
 72
     1
 10
128.8938521161778
 20
130.9621839881423
 11
179.3938521161778
 21
130.9621839881423
 72
     1
 10
128.8938521161778
 20
129.9621839881423
 11
128.8938521161778
 21
130.9621839881423
 72
     1
 10
179.3938521161778
 20
129.9621839881423
 11
128.8938521161778
 21
129.9621839881423
 97
        0
 75
     1
 76
     1
 52
0.0
 41
0.3150000000000025
 77
     0
 78
     1
 53
45.0
 43
0.0
 44
0.0
 45
-0.7071951695342014
 46
0.7071951695342015
 79
     0
 98
        1
 10
178.8284402958541
 20
129.9621839881424
  0
HATCH
  5
5C
330
1F
100
AcDbEntity
  8
NoLayerName_001
  6
Continuous
 62
     7
370
    25
100
AcDbHatch
 10
0.0
 20
0.0
 30
0.0
210
0.0
220
0.0
230
1.0
  2
ANSI31
 70
     0
 71
     0
 91
        1
 92
        1
 93
        8
 72
     1
 10
128.8938521161778
 20
142.8621839881422
 11
128.8938521161778
 21
141.8621839881422
 72
     1
 10
83.0938521161778
 20
142.8621839881422
 11
128.8938521161778
 21
142.8621839881422
 72
     2
 10
83.09385211617774
 20
143.8621839881422
 40
1.0
 50
180.0
 51
270.0000000000032
 73
     1
 72
     1
 10
82.0938521161778
 20
167.6621839881422
 11
82.0938521161778
 21
143.8621839881421
 72
     1
 10
81.0938521161778
 20
167.6621839881422
 11
82.0938521161778
 21
167.6621839881422
 72
     1
 10
81.0938521161778
 20
142.8621839881421
 11
81.0938521161778
 21
167.6621839881422
 72
     2
 10
82.09385211617774
 20
142.8621839881422
 40
1.0
 50
180.0
 51
270.0000000000032
 73
     1
 72
     1
 10
128.8938521161778
 20
141.8621839881422
 11
82.0938521161778
 21
141.8621839881421
 97
        0
 75
     1
 76
     1
 52
0.0
 41
0.3150000000000025
 77
     0
 78
     1
 53
45.0
 43
0.0
 44
0.0
 45
-0.7071951695342014
 46
0.7071951695342015
 79
     0
 98
        1
 10
128.0888299890647
 20
141.8621839881422
  0
LINE
  5
5D
330
1F
100
AcDbEntity
  8
NoLayerName_001
  6
Continuous
 62
     7
370
    50
100
AcDbLine
 10
179.3938521161778
 20
129.9621839881423
 30
0.0
 11
78.39385211617781
 21
129.9621839881423
 31
0.0
  0
LINE
  5
5E
330
1F
100
AcDbEntity
  8
NoLayerName_001
  6
Continuous
 62
     3
370
    25
100
AcDbLine
 10
179.3938521161778
 20
130.9621839881423
 30
0.0
 11
78.39385211617781
 21
130.9621839881423
 31
0.0
  0
HATCH
  5
5F
330
1F
100
AcDbEntity
  8
NoLayerName_001
  6
Continuous
 62
     7
370
    25
100
AcDbHatch
 10
0.0
 20
0.0
 30
0.0
210
0.0
220
0.0
230
1.0
  2
ANSI31
 70
     0
 71
     0
 91
        1
 92
        1
 93
        8
 72
     1
 10
128.8938521161778
 20
130.9621839881423
 11
128.8938521161778
 21
129.9621839881423
 72
     1
 10
78.39385211617781
 20
130.9621839881423
 11
128.8938521161778
 21
130.9621839881423
 72
     2
 10
78.39385211617781
 20
131.9621839881423
 40
1.0
 50
180.0
 51
270.0
 73
     1
 72
     1
 10
77.39385211617781
 20
168.6621839881421
 11
77.39385211617781
 21
131.9621839881424
 72
     1
 10
76.39385211617781
 20
168.6621839881421
 11
77.39385211617781
 21
168.6621839881421
 72
     1
 10
76.39385211617781
 20
131.9621839881423
 11
76.39385211617781
 21
168.6621839881421
 72
     2
 10
78.39385211617781
 20
131.9621839881423
 40
2.0
 50
180.0
 51
270.0
 73
     1
 72
     1
 10
128.8938521161778
 20
129.9621839881423
 11
78.39385211617781
 21
129.9621839881423
 97
        0
 75
     1
 76
     1
 52
0.0
 41
0.3149999999999931
 77
     0
 78
     1
 53
45.0
 43
0.0
 44
0.0
 45
-0.7071951695341802
 46
0.7071951695341803
 79
     0
 98
        1
 10
127.9167520504228
 20
129.9621839881423
  0
ARC
  5
60
330
1F
100
AcDbEntity
  8
NoLayerName_001
  6
Continuous
 62
     7
370
    50
100
AcDbCircle
 10
46.87953700167751
 20
151.1621839881421
 30
0.0
 40
12.0
100
AcDbArc
 50
270.0
 51
89.99999999999999
  0
LINE
  5
61
330
1F
100
AcDbEntity
  8
NoLayerName_001
  6
Continuous
 62
     7
370
    50
100
AcDbLine
 10
76.39385211617781
 20
62.66218398814212
 30
0.0
 11
76.39385211617781
 21
101.6621839881421
 31
0.0
  0
ARC
  5
62
330
1F
100
AcDbEntity
  8
NoLayerName_001
  6
Continuous
 62
     7
370
    50
100
AcDbCircle
 10
78.39385211617781
 20
62.66218398814212
 30
0.0
 40
2.0
100
AcDbArc
 50
180.0
 51
270.0
  0
LINE
  5
63
330
1F
100
AcDbEntity
  8
NoLayerName_001
  6
Continuous
 62
     7
370
    50
100
AcDbLine
 10
78.39385211617781
 20
60.66218398814212
 30
0.0
 11
128.8938521161778
 21
60.66218398814212
 31
0.0
  0
LINE
  5
64
330
1F
100
AcDbEntity
  8
NoLayerName_001
  6
Continuous
 62
     7
370
    50
100
AcDbLine
 10
76.39385211617781
 20
101.6621839881421
 30
0.0
 11
128.8938521161778
 21
101.6621839881421
 31
0.0
  0
LINE
  5
65
330
1F
100
AcDbEntity
  8
NoLayerName_001
  6
Continuous
 62
     7
370
    50
100
AcDbLine
 10
181.3938521161778
 20
62.66218398814212
 30
0.0
 11
181.3938521161778
 21
101.6621839881421
 31
0.0
  0
ARC
  5
66
330
1F
100
AcDbEntity
  8
NoLayerName_001
  6
Continuous
 62
     7
370
    50
100
AcDbCircle
 10
179.3938521161778
 20
62.66218398814212
 30
0.0
 40
2.0
100
AcDbArc
 50
270.0
 51
0.0
  0
LINE
  5
67
330
1F
100
AcDbEntity
  8
NoLayerName_001
  6
Continuous
 62
     7
370
    50
100
AcDbLine
 10
179.3938521161778
 20
60.66218398814212
 30
0.0
 11
128.8938521161778
 21
60.66218398814211
 31
0.0
  0
LINE
  5
68
330
1F
100
AcDbEntity
  8
NoLayerName_001
  6
Continuous
 62
     7
370
    50
100
AcDbLine
 10
181.3938521161778
 20
101.6621839881421
 30
0.0
 11
128.8938521161778
 21
101.6621839881421
 31
0.0
  0
ARC
  5
69
330
1F
100
AcDbEntity
  8
NoLayerName_001
  6
Continuous
 62
     7
370
    50
100
AcDbCircle
 10
46.87953700167751
 20
151.1621839881421
 30
0.0
 40
13.0
100
AcDbArc
 50
270.0
 51
90.0
  0
ARC
  5
6A
330
1F
100
AcDbEntity
  8
NoLayerName_001
  6
Continuous
 62
     7
370
    50
100
AcDbCircle
 10
46.87953700167751
 20
151.1621839881421
 30
0.0
 40
9.0
100
AcDbArc
 50
270.0
 51
90.0
  0
ARC
  5
6B
330
1F
100
AcDbEntity
  8
NoLayerName_001
  6
Continuous
 62
     7
370
    50
100
AcDbCircle
 10
46.87953700167751
 20
151.1621839881421
 30
0.0
 40
10.0
100
AcDbArc
 50
270.0
 51
90.0
  0
ARC
  5
6C
330
1F
100
AcDbEntity
  8
NoLayerName_001
  6
Continuous
 62
     7
370
    50
100
AcDbCircle
 10
44.87953700167751
 20
151.1621839881421
 30
0.0
 40
9.0
100
AcDbArc
 50
90.00000000000006
 51
270.0000000000001
  0
LINE
  5
6D
330
1F
100
AcDbEntity
  8
NoLayerName_001
  6
Continuous
 62
     7
370
    50
100
AcDbLine
 10
45.87953700167751
 20
160.1621839881421
 30
0.0
 11
44.87953700167751
 21
160.1621839881421
 31
0.0
  0
LINE
  5
6E
330
1F
100
AcDbEntity
  8
NoLayerName_001
  6
Continuous
 62
     7
370
    50
100
AcDbLine
 10
45.87953700167751
 20
161.1621839881421
 30
0.0
 11
44.87953700167752
 21
161.1621839881421
 31
0.0
  0
LINE
  5
6F
330
1F
100
AcDbEntity
  8
NoLayerName_001
  6
Continuous
 62
     7
370
    50
100
AcDbLine
 10
35.21928296383308
 20
163.1621839881421
 30
0.0
 11
27.37953700167747
 21
163.1621839881421
 31
0.0
  0
LINE
  5
70
330
1F
100
AcDbEntity
  8
NoLayerName_001
  6
Continuous
 62
     7
370
    50
100
AcDbLine
 10
45.87953700167751
 20
160.1621839881421
 30
0.0
 11
46.87953700167751
 21
160.1621839881421
 31
0.0
  0
LINE
  5
71
330
1F
100
AcDbEntity
  8
NoLayerName_001
  6
Continuous
 62
     7
370
    50
100
AcDbLine
 10
45.87953700167751
 20
163.1621839881421
 30
0.0
 11
45.87953700167751
 21
161.1621839881421
 31
0.0
  0
LINE
  5
72
330
1F
100
AcDbEntity
  8
NoLayerName_001
  6
Continuous
 62
     7
370
    50
100
AcDbLine
 10
46.87953700167751
 20
163.1621839881421
 30
0.0
 11
46.87953700167751
 21
161.1621839881421
 31
0.0
  0
LINE
  5
73
330
1F
100
AcDbEntity
  8
NoLayerName_001
  6
Continuous
 62
     7
370
    50
100
AcDbLine
 10
46.87953700167751
 20
138.1621839881421
 30
0.0
 11
27.37953700167752
 21
138.1621839881421
 31
0.0
  0
LINE
  5
74
330
1F
100
AcDbEntity
  8
NoLayerName_001
  6
Continuous
 62
     7
370
    50
100
AcDbLine
 10
35.21928296383308
 20
139.1621839881421
 30
0.0
 11
27.37953700167747
 21
139.1621839881421
 31
0.0
  0
LINE
  5
75
330
1F
100
AcDbEntity
  8
NoLayerName_001
  6
Continuous
 62
     7
370
    50
100
AcDbLine
 10
45.87953700167751
 20
139.1621839881421
 30
0.0
 11
45.87953700167751
 21
141.1621839881421
 31
0.0
  0
LINE
  5
76
330
1F
100
AcDbEntity
  8
NoLayerName_001
  6
Continuous
 62
     7
370
    50
100
AcDbLine
 10
46.87953700167751
 20
139.1621839881421
 30
0.0
 11
46.87953700167751
 21
141.1621839881421
 31
0.0
  0
LINE
  5
77
330
1F
100
AcDbEntity
  8
NoLayerName_001
  6
Continuous
 62
     7
370
    50
100
AcDbLine
 10
28.77953700167748
 20
164.1621839881421
 30
0.0
 11
28.77953700167748
 21
163.1621839881421
 31
0.0
  0
LINE
  5
78
330
1F
100
AcDbEntity
  8
NoLayerName_001
  6
Continuous
 62
     7
370
    50
100
AcDbLine
 10
28.77953700167748
 20
138.1621839881421
 30
0.0
 11
28.77953700167748
 21
139.1621839881421
 31
0.0
  0
LINE
  5
79
330
1F
100
AcDbEntity
  8
NoLayerName_001
  6
Continuous
 62
     7
370
    50
100
AcDbLine
 10
44.87953700167751
 20
142.1621839881421
 30
0.0
 11
46.87953700167748
 21
142.1621839881421
 31
0.0
  0
LINE
  5
7A
330
1F
100
AcDbEntity
  8
NoLayerName_001
  6
Continuous
 62
     7
370
    50
100
AcDbLine
 10
44.87953700167751
 20
141.1621839881421
 30
0.0
 11
45.87953700167749
 21
141.1621839881421
 31
0.0
  0
ARC
  5
7B
330
1F
100
AcDbEntity
  8
NoLayerName_001
  6
Continuous
 62
     7
370
    50
100
AcDbCircle
 10
44.87953700167751
 20
151.1621839881421
 30
0.0
 40
10.0
100
AcDbArc
 50
90.0
 51
270.0
  0
ARC
  5
7C
330
1F
100
AcDbEntity
  8
NoLayerName_001
  6
Continuous
 62
     7
370
    50
100
AcDbCircle
 10
43.87953700167751
 20
151.1621839881421
 30
0.0
 40
12.0
100
AcDbArc
 50
90.0
 51
270.0
  0
ARC
  5
7D
330
1F
100
AcDbEntity
  8
NoLayerName_001
  6
Continuous
 62
     7
370
    50
100
AcDbCircle
 10
43.87953700167751
 20
151.1621839881421
 30
0.0
 40
13.0
100
AcDbArc
 50
128.2132107017382
 51
231.7867892982618
  0
ARC
  5
7E
330
1F
100
AcDbEntity
  8
NoLayerName_001
  6
Continuous
 62
     7
370
    50
100
AcDbCircle
 10
35.21928296383308
 20
162.1621839881421
 30
0.0
 40
1.0
100
AcDbArc
 50
308.2132107017382
 51
90.0
  0
ARC
  5
7F
330
1F
100
AcDbEntity
  8
NoLayerName_001
  6
Continuous
 62
     7
370
    50
100
AcDbCircle
 10
35.21928296383308
 20
140.1621839881421
 30
0.0
 40
1.0
100
AcDbArc
 50
270.0
 51
51.78678929826182
  0
LINE
  5
80
330
1F
100
AcDbEntity
  8
NoLayerName_001
  6
Continuous
 62
     7
370
    50
100
AcDbLine
 10
43.87953700167751
 20
163.1621839881421
 30
0.0
 11
45.87953700167749
 21
163.1621839881421
 31
0.0
  0
LINE
  5
81
330
1F
100
AcDbEntity
  8
NoLayerName_001
  6
Continuous
 62
     7
370
    50
100
AcDbLine
 10
43.87953700167751
 20
139.1621839881421
 30
0.0
 11
45.83530571828982
 21
139.1621839881421
 31
0.0
  0
LINE
  5
82
330
1F
100
AcDbEntity
  8
NoLayerName_001
  6
Continuous
 62
     7
370
    50
100
AcDbLine
 10
29.37953700167751
 20
250.6621839881421
 30
0.0
 11
68.3795370016775
 21
250.6621839881421
 31
0.0
  0
ARC
  5
83
330
1F
100
AcDbEntity
  8
NoLayerName_001
  6
Continuous
 62
     7
370
    50
100
AcDbCircle
 10
29.37953700167751
 20
248.6621839881421
 30
0.0
 40
2.0
100
AcDbArc
 50
90.00000000000001
 51
180.0
  0
LINE
  5
84
330
1F
100
AcDbEntity
  8
NoLayerName_001
  6
Continuous
 62
     7
370
    50
100
AcDbLine
 10
27.37953700167751
 20
248.6621839881421
 30
0.0
 11
27.37953700167751
 21
131.9621839881423
 31
0.0
  0
LINE
  5
85
330
1F
100
AcDbEntity
  8
NoLayerName_001
  6
Continuous
 62
     7
370
    50
100
AcDbLine
 10
68.3795370016775
 20
129.9621839881423
 30
0.0
 11
68.3795370016775
 21
250.6621839881421
 31
0.0
  0
ARC
  5
86
330
1F
100
AcDbEntity
  8
NoLayerName_001
  6
Continuous
 62
     7
370
    50
100
AcDbCircle
 10
78.39385211617781
 20
248.6621839881421
 30
0.0
 40
2.0
100
AcDbArc
 50
90.0
 51
180.0
  0
ARC
  5
87
330
1F
100
AcDbEntity
  8
NoLayerName_001
  6
Continuous
 62
     7
370
    50
100
AcDbCircle
 10
179.3938521161778
 20
248.6621839881421
 30
0.0
 40
2.0
100
AcDbArc
 50
0.0
 51
90.0
  0
LINE
  5
88
330
1F
100
AcDbEntity
  8
NoLayerName_001
  6
Continuous
 62
     7
370
    50
100
AcDbLine
 10
181.3938521161778
 20
131.9621839881423
 30
0.0
 11
181.3938521161778
 21
248.6621839881421
 31
0.0
  0
ARC
  5
89
330
1F
100
AcDbEntity
  8
NoLayerName_001
  6
Continuous
 62
     3
370
    25
100
AcDbCircle
 10
78.39385211617781
 20
248.6621839881421
 30
0.0
 40
1.0
100
AcDbArc
 50
90.0
 51
180.0
  0
LINE
  5
8A
330
1F
100
AcDbEntity
  8
NoLayerName_001
  6
Continuous
 62
     3
370
    25
100
AcDbLine
 10
180.3938521161778
 20
131.9621839881424
 30
0.0
 11
180.3938521161778
 21
248.6621839881422
 31
0.0
  0
ARC
  5
8B
330
1F
100
AcDbEntity
  8
NoLayerName_001
  6
Continuous
 62
     3
370
    25
100
AcDbCircle
 10
179.3938521161778
 20
248.6621839881421
 30
0.0
 40
1.0
100
AcDbArc
 50
0.0000000000000127
 51
90.00000000000001
  0
LINE
  5
8C
330
1F
100
AcDbEntity
  8
NoLayerName_001
  6
Continuous
 62
     3
370
    25
100
AcDbLine
 10
78.39385211617781
 20
249.6621839881421
 30
0.0
 11
179.3938521161778
 21
249.6621839881421
 31
0.0
  0
LINE
  5
8D
330
1F
100
AcDbEntity
  8
NoLayerName_001
  6
Continuous
 62
     7
370
    50
100
AcDbLine
 10
179.3938521161778
 20
250.6621839881421
 30
0.0
 11
78.39385211617781
 21
250.6621839881421
 31
0.0
  0
LINE
  5
8E
330
1F
100
AcDbEntity
  8
NoLayerName_001
  6
Continuous
 62
     7
370
    50
100
AcDbLine
 10
76.39385211617781
 20
131.9621839881423
 30
0.0
 11
76.39385211617781
 21
248.6621839881421
 31
0.0
  0
LINE
  5
8F
330
1F
100
AcDbEntity
  8
NoLayerName_001
  6
Continuous
 62
     3
370
    25
100
AcDbLine
 10
77.39385211617781
 20
248.6621839881421
 30
0.0
 11
77.39385211617781
 21
131.9621839881423
 31
0.0
  0
LINE
  5
90
330
1F
100
AcDbEntity
  8
NoLayerName_001
  6
Continuous
 62
     7
370
    50
100
AcDbLine
 10
46.87953700167751
 20
218.1621839881421
 30
0.0
 11
27.37953700167752
 21
218.1621839881421
 31
0.0
  0
ARC
  5
91
330
1F
100
AcDbEntity
  8
NoLayerName_001
  6
Continuous
 62
     7
370
    50
100
AcDbCircle
 10
46.87953700167751
 20
232.1621839881421
 30
0.0
 40
3.5
100
AcDbArc
 50
360.0
 51
180.0
  0
ARC
  5
92
330
1F
100
AcDbEntity
  8
NoLayerName_001
  6
Continuous
 62
     7
370
    50
100
AcDbCircle
 10
46.87953700167751
 20
230.1621839881421
 30
0.0
 40
3.5
100
AcDbArc
 50
180.0
 51
0.0
  0
LINE
  5
93
330
1F
100
AcDbEntity
  8
NoLayerName_001
  6
Continuous
 62
     7
370
    50
100
AcDbLine
 10
43.37953700167751
 20
230.1621839881421
 30
0.0
 11
43.37953700167751
 21
232.1621839881421
 31
0.0
  0
LINE
  5
94
330
1F
100
AcDbEntity
  8
NoLayerName_001
  6
Continuous
 62
     7
370
    50
100
AcDbLine
 10
50.37953700167751
 20
230.1621839881421
 30
0.0
 11
50.37953700167751
 21
232.1621839881421
 31
0.0
  0
ARC
  5
95
330
1F
100
AcDbEntity
  8
NoLayerName_001
  6
Continuous
 62
     7
370
    50
100
AcDbCircle
 10
46.87953700167751
 20
231.1621839881421
 30
0.0
 40
12.0
100
AcDbArc
 50
270.0
 51
90.00000000000001
  0
ARC
  5
96
330
1F
100
AcDbEntity
  8
NoLayerName_001
  6
Continuous
 62
     7
370
    50
100
AcDbCircle
 10
46.87953700167751
 20
231.1621839881421
 30
0.0
 40
13.0
100
AcDbArc
 50
270.0
 51
90.00000000000001
  0
ARC
  5
97
330
1F
100
AcDbEntity
  8
NoLayerName_001
  6
Continuous
 62
     7
370
    50
100
AcDbCircle
 10
46.87953700167751
 20
231.1621839881421
 30
0.0
 40
9.0
100
AcDbArc
 50
270.0
 51
90.00000000000001
  0
ARC
  5
98
330
1F
100
AcDbEntity
  8
NoLayerName_001
  6
Continuous
 62
     7
370
    50
100
AcDbCircle
 10
46.87953700167751
 20
231.1621839881421
 30
0.0
 40
10.0
100
AcDbArc
 50
270.0
 51
90.00000000000001
  0
ARC
  5
99
330
1F
100
AcDbEntity
  8
NoLayerName_001
  6
Continuous
 62
     7
370
    50
100
AcDbCircle
 10
44.87953700167751
 20
231.1621839881421
 30
0.0
 40
9.0
100
AcDbArc
 50
89.99999999999994
 51
269.9999999999999
  0
LINE
  5
9A
330
1F
100
AcDbEntity
  8
NoLayerName_001
  6
Continuous
 62
     7
370
    50
100
AcDbLine
 10
45.87953700167751
 20
222.1621839881421
 30
0.0
 11
44.87953700167751
 21
222.1621839881421
 31
0.0
  0
LINE
  5
9B
330
1F
100
AcDbEntity
  8
NoLayerName_001
  6
Continuous
 62
     7
370
    50
100
AcDbLine
 10
45.87953700167751
 20
221.1621839881421
 30
0.0
 11
44.87953700167752
 21
221.1621839881421
 31
0.0
  0
LINE
  5
9C
330
1F
100
AcDbEntity
  8
NoLayerName_001
  6
Continuous
 62
     7
370
    50
100
AcDbLine
 10
35.21928296383308
 20
219.1621839881421
 30
0.0
 11
27.37953700167747
 21
219.1621839881421
 31
0.0
  0
LINE
  5
9D
330
1F
100
AcDbEntity
  8
NoLayerName_001
  6
Continuous
 62
     7
370
    50
100
AcDbLine
 10
45.87953700167751
 20
222.1621839881421
 30
0.0
 11
46.87953700167751
 21
222.1621839881421
 31
0.0
  0
LINE
  5
9E
330
1F
100
AcDbEntity
  8
NoLayerName_001
  6
Continuous
 62
     7
370
    50
100
AcDbLine
 10
45.87953700167751
 20
219.1621839881421
 30
0.0
 11
45.87953700167751
 21
221.1621839881421
 31
0.0
  0
LINE
  5
9F
330
1F
100
AcDbEntity
  8
NoLayerName_001
  6
Continuous
 62
     7
370
    50
100
AcDbLine
 10
46.87953700167751
 20
219.1621839881421
 30
0.0
 11
46.87953700167751
 21
221.1621839881421
 31
0.0
  0
LINE
  5
A0
330
1F
100
AcDbEntity
  8
NoLayerName_001
  6
Continuous
 62
     7
370
    50
100
AcDbLine
 10
46.87953700167751
 20
244.1621839881421
 30
0.0
 11
27.37953700167752
 21
244.1621839881421
 31
0.0
  0
LINE
  5
A1
330
1F
100
AcDbEntity
  8
NoLayerName_001
  6
Continuous
 62
     7
370
    50
100
AcDbLine
 10
35.21928296383308
 20
243.1621839881421
 30
0.0
 11
27.37953700167747
 21
243.1621839881421
 31
0.0
  0
LINE
  5
A2
330
1F
100
AcDbEntity
  8
NoLayerName_001
  6
Continuous
 62
     7
370
    50
100
AcDbLine
 10
45.87953700167751
 20
243.1621839881421
 30
0.0
 11
45.87953700167751
 21
241.1621839881421
 31
0.0
  0
LINE
  5
A3
330
1F
100
AcDbEntity
  8
NoLayerName_001
  6
Continuous
 62
     7
370
    50
100
AcDbLine
 10
46.87953700167751
 20
243.1621839881421
 30
0.0
 11
46.87953700167751
 21
241.1621839881421
 31
0.0
  0
LINE
  5
A4
330
1F
100
AcDbEntity
  8
NoLayerName_001
  6
Continuous
 62
     7
370
    50
100
AcDbLine
 10
28.77953700167748
 20
218.1621839881421
 30
0.0
 11
28.77953700167748
 21
219.1621839881421
 31
0.0
  0
LINE
  5
A5
330
1F
100
AcDbEntity
  8
NoLayerName_001
  6
Continuous
 62
     7
370
    50
100
AcDbLine
 10
28.77953700167748
 20
244.1621839881421
 30
0.0
 11
28.77953700167748
 21
243.1621839881421
 31
0.0
  0
LINE
  5
A6
330
1F
100
AcDbEntity
  8
NoLayerName_001
  6
Continuous
 62
     7
370
    50
100
AcDbLine
 10
44.87953700167751
 20
240.1621839881421
 30
0.0
 11
46.87953700167748
 21
240.1621839881421
 31
0.0
  0
LINE
  5
A7
330
1F
100
AcDbEntity
  8
NoLayerName_001
  6
Continuous
 62
     7
370
    50
100
AcDbLine
 10
44.87953700167751
 20
241.1621839881421
 30
0.0
 11
45.87953700167749
 21
241.1621839881421
 31
0.0
  0
ARC
  5
A8
330
1F
100
AcDbEntity
  8
NoLayerName_001
  6
Continuous
 62
     7
370
    50
100
AcDbCircle
 10
44.87953700167751
 20
231.1621839881421
 30
0.0
 40
10.0
100
AcDbArc
 50
90.0
 51
270.0
  0
ARC
  5
A9
330
1F
100
AcDbEntity
  8
NoLayerName_001
  6
Continuous
 62
     7
370
    50
100
AcDbCircle
 10
43.87953700167751
 20
231.1621839881421
 30
0.0
 40
12.0
100
AcDbArc
 50
90.00000000000001
 51
270.0
  0
ARC
  5
AA
330
1F
100
AcDbEntity
  8
NoLayerName_001
  6
Continuous
 62
     7
370
    50
100
AcDbCircle
 10
43.87953700167751
 20
231.1621839881421
 30
0.0
 40
13.0
100
AcDbArc
 50
128.2132107017382
 51
231.7867892982618
  0
ARC
  5
AB
330
1F
100
AcDbEntity
  8
NoLayerName_001
  6
Continuous
 62
     7
370
    50
100
AcDbCircle
 10
35.21928296383308
 20
220.1621839881421
 30
0.0
 40
1.0
100
AcDbArc
 50
270.0
 51
51.78678929826184
  0
ARC
  5
AC
330
1F
100
AcDbEntity
  8
NoLayerName_001
  6
Continuous
 62
     7
370
    50
100
AcDbCircle
 10
35.21928296383308
 20
242.1621839881421
 30
0.0
 40
1.0
100
AcDbArc
 50
308.2132107017382
 51
90.00000000000001
  0
LINE
  5
AD
330
1F
100
AcDbEntity
  8
NoLayerName_001
  6
Continuous
 62
     7
370
    50
100
AcDbLine
 10
43.87953700167751
 20
219.1621839881421
 30
0.0
 11
45.87953700167749
 21
219.1621839881421
 31
0.0
  0
LINE
  5
AE
330
1F
100
AcDbEntity
  8
NoLayerName_001
  6
Continuous
 62
     7
370
    50
100
AcDbLine
 10
43.87953700167751
 20
243.1621839881421
 30
0.0
 11
45.83530571828982
 21
243.1621839881421
 31
0.0
  0
ARC
  5
AF
330
1F
100
AcDbEntity
  8
NoLayerName_001
  6
Continuous
 62
     7
370
    50
100
AcDbCircle
 10
43.37953700167751
 20
208.1621839881421
 30
0.0
 40
3.5
100
AcDbArc
 50
360.0
 51
180.0
  0
ARC
  5
B0
330
1F
100
AcDbEntity
  8
NoLayerName_001
  6
Continuous
 62
     7
370
    50
100
AcDbCircle
 10
43.37953700167751
 20
206.1621839881421
 30
0.0
 40
3.5
100
AcDbArc
 50
180.0
 51
0.0
  0
LINE
  5
B1
330
1F
100
AcDbEntity
  8
NoLayerName_001
  6
Continuous
 62
     7
370
    50
100
AcDbLine
 10
39.87953700167751
 20
206.1621839881421
 30
0.0
 11
39.87953700167751
 21
208.1621839881421
 31
0.0
  0
LINE
  5
B2
330
1F
100
AcDbEntity
  8
NoLayerName_001
  6
Continuous
 62
     7
370
    50
100
AcDbLine
 10
46.87953700167751
 20
206.1621839881421
 30
0.0
 11
46.87953700167751
 21
208.1621839881421
 31
0.0
  0
LINE
  5
B3
330
1F
100
AcDbEntity
  8
NoLayerName_001
  6
Continuous
 62
     7
370
    50
100
AcDbLine
 10
33.23810857313461
 20
199.1621839881421
 30
0.0
 11
27.37953700167746
 21
199.1621839881421
 31
0.0
  0
LINE
  5
B4
330
1F
100
AcDbEntity
  8
NoLayerName_001
  6
Continuous
 62
     7
370
    50
100
AcDbLine
 10
43.37953700167751
 20
198.1621839881421
 30
0.0
 11
27.37953700167751
 21
198.1621839881421
 31
0.0
  0
LINE
  5
B5
330
1F
100
AcDbEntity
  8
NoLayerName_001
  6
Continuous
 62
     7
370
    50
100
AcDbLine
 10
41.37953700167751
 20
216.1621839881421
 30
0.0
 11
43.45398506029834
 21
216.1621839881421
 31
0.0
  0
ARC
  5
B6
330
1F
100
AcDbEntity
  8
NoLayerName_001
  6
Continuous
 62
     7
370
    50
100
AcDbCircle
 10
43.37953700167751
 20
207.1621839881421
 30
0.0
 40
8.0
100
AcDbArc
 50
270.0
 51
90.0
  0
ARC
  5
B7
330
1F
100
AcDbEntity
  8
NoLayerName_001
  6
Continuous
 62
     7
370
    50
100
AcDbCircle
 10
43.37953700167751
 20
207.1621839881421
 30
0.0
 40
9.0
100
AcDbArc
 50
270.0
 51
90.0
  0
LINE
  5
B8
330
1F
100
AcDbEntity
  8
NoLayerName_001
  6
Continuous
 62
     7
370
    50
100
AcDbLine
 10
28.77953700167748
 20
198.1621839881421
 30
0.0
 11
28.77953700167748
 21
199.1621839881421
 31
0.0
  0
ARC
  5
B9
330
1F
100
AcDbEntity
  8
NoLayerName_001
  6
Continuous
 62
     7
370
    50
100
AcDbCircle
 10
33.23810857313461
 20
200.1621839881421
 30
0.0
 40
1.0
100
AcDbArc
 50
270.0
 51
44.42700400080552
  0
LINE
  5
BA
330
1F
100
AcDbEntity
  8
NoLayerName_001
  6
Continuous
 62
     7
370
    50
100
AcDbLine
 10
33.23810857313461
 20
215.1621839881421
 30
0.0
 11
27.37953700167746
 21
215.1621839881421
 31
0.0
  0
LINE
  5
BB
330
1F
100
AcDbEntity
  8
NoLayerName_001
  6
Continuous
 62
     7
370
    50
100
AcDbLine
 10
43.37953700167751
 20
216.1621839881421
 30
0.0
 11
27.37953700167751
 21
216.1621839881421
 31
0.0
  0
ARC
  5
BC
330
1F
100
AcDbEntity
  8
NoLayerName_001
  6
Continuous
 62
     7
370
    50
100
AcDbCircle
 10
33.23810857313461
 20
214.1621839881421
 30
0.0
 40
1.0
100
AcDbArc
 50
315.5729959991945
 51
90.0
  0
LINE
  5
BD
330
1F
100
AcDbEntity
  8
NoLayerName_001
  6
Continuous
 62
     7
370
    50
100
AcDbLine
 10
40.37953700167751
 20
199.1621839881421
 30
0.0
 11
43.37953700167751
 21
199.1621839881421
 31
0.0
  0
LINE
  5
BE
330
1F
100
AcDbEntity
  8
NoLayerName_001
  6
Continuous
 62
     7
370
    50
100
AcDbLine
 10
40.37953700167751
 20
215.1621839881421
 30
0.0
 11
43.37953700167751
 21
215.1621839881421
 31
0.0
  0
LINE
  5
BF
330
1F
100
AcDbEntity
  8
NoLayerName_001
  6
Continuous
 62
     7
370
    50
100
AcDbLine
 10
28.77953700167748
 20
216.1621839881421
 30
0.0
 11
28.77953700167748
 21
215.1621839881421
 31
0.0
  0
LINE
  5
C0
330
1F
100
AcDbEntity
  8
NoLayerName_001
  6
Continuous
 62
     7
370
    50
100
AcDbLine
 10
28.77953700167748
 20
168.1621839881421
 30
0.0
 11
28.77953700167748
 21
169.1621839881421
 31
0.0
  0
LINE
  5
C1
330
1F
100
AcDbEntity
  8
NoLayerName_001
  6
Continuous
 62
     7
370
    50
100
AcDbLine
 10
28.77953700167748
 20
194.1621839881421
 30
0.0
 11
28.77953700167748
 21
193.1621839881421
 31
0.0
  0
LINE
  5
C2
330
1F
100
AcDbEntity
  8
NoLayerName_002
  6
CENTER
 62
    30
370
    25
100
AcDbLine
 10
181.3938521161778
 20
191.6621839881421
 30
0.0
 11
76.41224301491383
 21
191.6621839881421
 31
0.0
  0
ARC
  5
C3
330
1F
100
AcDbEntity
  8
NoLayerName_001
  6
Continuous
 62
     7
370
    50
100
AcDbCircle
 10
153.8938521161778
 20
87.66218398814212
 30
0.0
 40
2.0
100
AcDbArc
 50
0.0
 51
180.0
  0
ARC
  5
C4
330
1F
100
AcDbEntity
  8
NoLayerName_001
  6
Continuous
 62
     7
370
    50
100
AcDbCircle
 10
153.8938521161778
 20
83.66218398814212
 30
0.0
 40
2.0
100
AcDbArc
 50
180.0
 51
0.0
  0
LINE
  5
C5
330
1F
100
AcDbEntity
  8
NoLayerName_001
  6
Continuous
 62
     7
370
    50
100
AcDbLine
 10
151.8938521161778
 20
87.66218398814212
 30
0.0
 11
151.8938521161778
 21
83.66218398814212
 31
0.0
  0
LINE
  5
C6
330
1F
100
AcDbEntity
  8
NoLayerName_001
  6
Continuous
 62
     7
370
    50
100
AcDbLine
 10
155.8938521161778
 20
87.66218398814212
 30
0.0
 11
155.8938521161778
 21
83.66218398814212
 31
0.0
  0
ARC
  5
C7
330
1F
100
AcDbEntity
  8
NoLayerName_001
  6
Continuous
 62
     7
370
    50
100
AcDbCircle
 10
103.8938521161778
 20
87.66218398814212
 30
0.0
 40
2.0
100
AcDbArc
 50
0.0
 51
180.0
  0
ARC
  5
C8
330
1F
100
AcDbEntity
  8
NoLayerName_001
  6
Continuous
 62
     7
370
    50
100
AcDbCircle
 10
103.8938521161778
 20
83.66218398814212
 30
0.0
 40
2.0
100
AcDbArc
 50
180.0
 51
0.0
  0
LINE
  5
C9
330
1F
100
AcDbEntity
  8
NoLayerName_001
  6
Continuous
 62
     7
370
    50
100
AcDbLine
 10
101.8938521161778
 20
87.66218398814212
 30
0.0
 11
101.8938521161778
 21
83.66218398814212
 31
0.0
  0
LINE
  5
CA
330
1F
100
AcDbEntity
  8
NoLayerName_001
  6
Continuous
 62
     7
370
    50
100
AcDbLine
 10
105.8938521161778
 20
87.66218398814212
 30
0.0
 11
105.8938521161778
 21
83.66218398814212
 31
0.0
  0
LINE
  5
CB
330
1F
100
AcDbEntity
  8
NoLayerName_001
  6
DOTSX
 62
     4
370
    25
100
AcDbLine
 10
155.8938521161778
 20
130.9621839881423
 30
0.0
 11
155.8938521161778
 21
129.9621839881423
 31
0.0
  0
LINE
  5
CC
330
1F
100
AcDbEntity
  8
NoLayerName_001
  6
DOTSX
 62
     4
370
    25
100
AcDbLine
 10
151.8938521161778
 20
130.9621839881423
 30
0.0
 11
151.8938521161778
 21
129.9621839881423
 31
0.0
  0
ARC
  5
CD
330
1F
100
AcDbEntity
  8
NoLayerName_001
  6
Continuous
 62
     7
370
    50
100
AcDbCircle
 10
83.09385211617774
 20
238.4621839881422
 30
0.0
 40
1.0
100
AcDbArc
 50
90.0
 51
180.0
  0
ARC
  5
CE
330
1F
100
AcDbEntity
  8
NoLayerName_001
  6
Continuous
 62
     7
370
    50
100
AcDbCircle
 10
174.6938521161779
 20
238.4621839881422
 30
0.0
 40
1.0
100
AcDbArc
 50
0.0
 51
90.0
  0
LINE
  5
CF
330
1F
100
AcDbEntity
  8
NoLayerName_001
  6
Continuous
 62
     7
370
    50
100
AcDbLine
 10
83.09385211617774
 20
239.4621839881422
 30
0.0
 11
174.6938521161778
 21
239.4621839881422
 31
0.0
  0
HATCH
  5
D0
330
1F
100
AcDbEntity
  8
NoLayerName_001
  6
Continuous
 62
     7
370
    25
100
AcDbHatch
 10
0.0
 20
0.0
 30
0.0
210
0.0
220
0.0
230
1.0
  2
ANSI31
 70
     0
 71
     0
 91
        1
 92
        1
 93
        8
 72
     1
 10
181.3938521161778
 20
248.6621839881421
 11
181.3938521161778
 21
168.6621839881421
 72
     2
 10
179.3938521161778
 20
248.6621839881421
 40
2.0
 50
0.0
 51
90.0
 73
     1
 72
     1
 10
128.8938521161778
 20
250.6621839881421
 11
179.3938521161778
 21
250.6621839881421
 72
     1
 10
128.8938521161778
 20
249.6621839881421
 11
128.8938521161778
 21
250.6621839881421
 72
     1
 10
179.3938521161778
 20
249.6621839881421
 11
128.8938521161778
 21
249.6621839881421
 72
     2
 10
179.3938521161778
 20
248.6621839881421
 40
1.0
 50
0.0000000000000127
 51
90.00000000000001
 73
     1
 72
     1
 10
180.3938521161778
 20
168.6621839881421
 11
180.3938521161778
 21
248.6621839881421
 72
     1
 10
181.3938521161778
 20
168.6621839881421
 11
180.3938521161778
 21
168.6621839881421
 97
        0
 75
     1
 76
     1
 52
0.0
 41
0.3149999999999772
 77
     0
 78
     1
 53
45.0
 43
0.0
 44
0.0
 45
-0.7071951695341445
 46
0.7071951695341446
 79
     0
 98
        1
 10
180.7588876741535
 20
168.6621839881422
  0
HATCH
  5
D1
330
1F
100
AcDbEntity
  8
NoLayerName_001
  6
Continuous
 62
     7
370
    25
100
AcDbHatch
 10
0.0
 20
0.0
 30
0.0
210
0.0
220
0.0
230
1.0
  2
ANSI31
 70
     0
 71
     0
 91
        1
 92
        1
 93
        8
 72
     2
 10
175.6938521161779
 20
240.4621839881422
 40
1.0
 50
0.0
 51
90.0
 73
     1
 72
     1
 10
128.8938521161778
 20
241.4621839881422
 11
175.6938521161779
 21
241.4621839881422
 72
     1
 10
128.8938521161778
 20
240.4621839881422
 11
128.8938521161778
 21
241.4621839881422
 72
     1
 10
174.6938521161779
 20
240.4621839881422
 11
128.8938521161778
 21
240.4621839881422
 72
     2
 10
174.6938521161779
 20
239.4621839881422
 40
1.0
 50
0.0
 51
90.0
 73
     1
 72
     1
 10
175.6938521161779
 20
169.6621839881421
 11
175.6938521161779
 21
239.4621839881422
 72
     1
 10
176.6938521161779
 20
169.6621839881421
 11
175.6938521161779
 21
169.6621839881421
 72
     1
 10
176.6938521161779
 20
240.4621839881422
 11
176.6938521161779
 21
169.6621839881421
 97
        0
 75
     1
 76
     1
 52
0.0
 41
0.3149999999999772
 77
     0
 78
     1
 53
45.0
 43
0.0
 44
0.0
 45
-0.7071951695341445
 46
0.7071951695341446
 79
     0
 98
        1
 10
176.5162469870342
 20
169.6621839881421
  0
HATCH
  5
D2
330
1F
100
AcDbEntity
  8
NoLayerName_001
  6
Continuous
 62
     7
370
    25
100
AcDbHatch
 10
0.0
 20
0.0
 30
0.0
210
0.0
220
0.0
230
1.0
  2
ANSI31
 70
     0
 71
     0
 91
        1
 92
        1
 93
        8
 72
     2
 10
83.09385211617774
 20
239.4621839881422
 40
1.0
 50
90.0
 51
180.0
 73
     1
 72
     1
 10
128.8938521161778
 20
240.4621839881422
 11
83.09385211617786
 21
240.4621839881422
 72
     1
 10
128.8938521161778
 20
241.4621839881422
 11
128.8938521161778
 21
240.4621839881422
 72
     1
 10
82.09385211617774
 20
241.4621839881422
 11
128.8938521161778
 21
241.4621839881422
 72
     2
 10
82.09385211617774
 20
240.4621839881422
 40
1.0
 50
90.0
 51
180.0
 73
     1
 72
     1
 10
81.09385211617774
 20
169.6621839881421
 11
81.09385211617774
 21
240.4621839881423
 72
     1
 10
82.09385211617774
 20
169.6621839881421
 11
81.09385211617774
 21
169.6621839881421
 72
     1
 10
82.09385211617774
 20
239.4621839881422
 11
82.09385211617774
 21
169.6621839881421
 97
        0
 75
     1
 76
     1
 52
0.0
 41
0.3150000000000532
 77
     0
 78
     1
 53
45.0
 43
0.0
 44
0.0
 45
-0.707195169534315
 46
0.7071951695343153
 79
     0
 98
        1
 10
81.76393830803687
 20
169.6621839881422
  0
HATCH
  5
D3
330
1F
100
AcDbEntity
  8
NoLayerName_001
  6
Continuous
 62
     7
370
    25
100
AcDbHatch
 10
0.0
 20
0.0
 30
0.0
210
0.0
220
0.0
230
1.0
  2
ANSI31
 70
     0
 71
     0
 91
        1
 92
        1
 93
        8
 72
     1
 10
77.39385211617781
 20
248.6621839881421
 11
77.39385211617781
 21
168.6621839881421
 72
     2
 10
78.39385211617781
 20
248.6621839881421
 40
1.0
 50
90.0
 51
180.0
 73
     1
 72
     1
 10
128.8938521161778
 20
249.6621839881421
 11
78.39385211617781
 21
249.6621839881421
 72
     1
 10
128.8938521161778
 20
250.6621839881421
 11
128.8938521161778
 21
249.6621839881421
 72
     1
 10
78.39385211617781
 20
250.6621839881421
 11
128.8938521161778
 21
250.6621839881421
 72
     2
 10
78.39385211617781
 20
248.6621839881421
 40
2.0
 50
90.0
 51
180.0
 73
     1
 72
     1
 10
76.39385211617781
 20
168.6621839881421
 11
76.39385211617781
 21
248.6621839881421
 72
     1
 10
77.39385211617781
 20
168.6621839881421
 11
76.39385211617781
 21
168.6621839881421
 97
        0
 75
     1
 76
     1
 52
0.0
 41
0.3149999999999867
 77
     0
 78
     1
 53
45.0
 43
0.0
 44
0.0
 45
-0.707195169534166
 46
0.7071951695341661
 79
     0
 98
        1
 10
76.39385211617781
 20
168.9489520457755
  0
CIRCLE
  5
D4
330
1F
100
AcDbEntity
  8
NoLayerName_001
  6
Continuous
 62
     7
370
    50
100
AcDbCircle
 10
128.8938521161779
 20
210.6621839881421
 30
0.0
 40
2.5
  0
CIRCLE
  5
D5
330
1F
100
AcDbEntity
  8
NoLayerName_001
  6
Continuous
 62
     7
370
    50
100
AcDbCircle
 10
128.8938521161779
 20
172.6621839881421
 30
0.0
 40
2.5
  0
LINE
  5
D6
330
1F
100
AcDbEntity
  8
NoLayerName_001
  6
Continuous
 62
     7
370
    50
100
AcDbLine
 10
45.87953700167751
 20
168.1621839881421
 30
0.0
 11
27.37953700167751
 21
168.1621839881421
 31
0.0
  0
ARC
  5
D7
330
1F
100
AcDbEntity
  8
NoLayerName_001
  6
Continuous
 62
     7
370
    50
100
AcDbCircle
 10
45.87953700167751
 20
182.1621839881421
 30
0.0
 40
3.5
100
AcDbArc
 50
360.0
 51
180.0
  0
ARC
  5
D8
330
1F
100
AcDbEntity
  8
NoLayerName_001
  6
Continuous
 62
     7
370
    50
100
AcDbCircle
 10
45.87953700167751
 20
180.1621839881421
 30
0.0
 40
3.5
100
AcDbArc
 50
180.0
 51
0.0
  0
LINE
  5
D9
330
1F
100
AcDbEntity
  8
NoLayerName_001
  6
Continuous
 62
     7
370
    50
100
AcDbLine
 10
42.37953700167751
 20
180.1621839881421
 30
0.0
 11
42.37953700167751
 21
182.1621839881421
 31
0.0
  0
LINE
  5
DA
330
1F
100
AcDbEntity
  8
NoLayerName_001
  6
Continuous
 62
     7
370
    50
100
AcDbLine
 10
49.37953700167751
 20
180.1621839881421
 30
0.0
 11
49.37953700167751
 21
182.1621839881421
 31
0.0
  0
ARC
  5
DB
330
1F
100
AcDbEntity
  8
NoLayerName_001
  6
Continuous
 62
     7
370
    50
100
AcDbCircle
 10
45.87953700167751
 20
181.1621839881421
 30
0.0
 40
12.0
100
AcDbArc
 50
270.0
 51
90.00000000000001
  0
ARC
  5
DC
330
1F
100
AcDbEntity
  8
NoLayerName_001
  6
Continuous
 62
     7
370
    50
100
AcDbCircle
 10
45.87953700167751
 20
181.1621839881421
 30
0.0
 40
13.0
100
AcDbArc
 50
270.0
 51
90.00000000000001
  0
ARC
  5
DD
330
1F
100
AcDbEntity
  8
NoLayerName_001
  6
Continuous
 62
     7
370
    50
100
AcDbCircle
 10
45.87953700167751
 20
181.1621839881421
 30
0.0
 40
9.0
100
AcDbArc
 50
270.0
 51
90.00000000000001
  0
ARC
  5
DE
330
1F
100
AcDbEntity
  8
NoLayerName_001
  6
Continuous
 62
     7
370
    50
100
AcDbCircle
 10
45.87953700167751
 20
181.1621839881421
 30
0.0
 40
10.0
100
AcDbArc
 50
270.0
 51
90.00000000000001
  0
ARC
  5
DF
330
1F
100
AcDbEntity
  8
NoLayerName_001
  6
Continuous
 62
     7
370
    50
100
AcDbCircle
 10
43.87953700167751
 20
181.1621839881421
 30
0.0
 40
9.0
100
AcDbArc
 50
89.99999999999994
 51
269.9999999999999
  0
LINE
  5
E0
330
1F
100
AcDbEntity
  8
NoLayerName_001
  6
Continuous
 62
     7
370
    50
100
AcDbLine
 10
44.87953700167751
 20
172.1621839881421
 30
0.0
 11
43.87953700167751
 21
172.1621839881421
 31
0.0
  0
LINE
  5
E1
330
1F
100
AcDbEntity
  8
NoLayerName_001
  6
Continuous
 62
     7
370
    50
100
AcDbLine
 10
44.87953700167751
 20
171.1621839881421
 30
0.0
 11
43.87953700167752
 21
171.1621839881421
 31
0.0
  0
LINE
  5
E2
330
1F
100
AcDbEntity
  8
NoLayerName_001
  6
Continuous
 62
     7
370
    50
100
AcDbLine
 10
34.21928296383308
 20
169.1621839881421
 30
0.0
 11
27.37953700167751
 21
169.1621839881421
 31
0.0
  0
LINE
  5
E3
330
1F
100
AcDbEntity
  8
NoLayerName_001
  6
Continuous
 62
     7
370
    50
100
AcDbLine
 10
44.87953700167751
 20
172.1621839881421
 30
0.0
 11
45.87953700167751
 21
172.1621839881421
 31
0.0
  0
LINE
  5
E4
330
1F
100
AcDbEntity
  8
NoLayerName_001
  6
Continuous
 62
     7
370
    50
100
AcDbLine
 10
44.87953700167751
 20
169.1621839881421
 30
0.0
 11
44.87953700167751
 21
171.1621839881421
 31
0.0
  0
LINE
  5
E5
330
1F
100
AcDbEntity
  8
NoLayerName_001
  6
Continuous
 62
     7
370
    50
100
AcDbLine
 10
45.87953700167751
 20
169.1621839881421
 30
0.0
 11
45.87953700167751
 21
171.1621839881421
 31
0.0
  0
LINE
  5
E6
330
1F
100
AcDbEntity
  8
NoLayerName_001
  6
Continuous
 62
     7
370
    50
100
AcDbLine
 10
45.87953700167751
 20
194.1621839881421
 30
0.0
 11
27.37953700167751
 21
194.1621839881421
 31
0.0
  0
LINE
  5
E7
330
1F
100
AcDbEntity
  8
NoLayerName_001
  6
Continuous
 62
     7
370
    50
100
AcDbLine
 10
34.21928296383308
 20
193.1621839881421
 30
0.0
 11
27.37953700167751
 21
193.1621839881421
 31
0.0
  0
LINE
  5
E8
330
1F
100
AcDbEntity
  8
NoLayerName_001
  6
Continuous
 62
     7
370
    50
100
AcDbLine
 10
44.87953700167751
 20
193.1621839881421
 30
0.0
 11
44.87953700167751
 21
191.1621839881421
 31
0.0
  0
LINE
  5
E9
330
1F
100
AcDbEntity
  8
NoLayerName_001
  6
Continuous
 62
     7
370
    50
100
AcDbLine
 10
45.87953700167751
 20
193.1621839881421
 30
0.0
 11
45.87953700167751
 21
191.1621839881421
 31
0.0
  0
LINE
  5
EA
330
1F
100
AcDbEntity
  8
NoLayerName_001
  6
Continuous
 62
     7
370
    50
100
AcDbLine
 10
43.87953700167751
 20
190.1621839881421
 30
0.0
 11
45.87953700167748
 21
190.1621839881421
 31
0.0
  0
LINE
  5
EB
330
1F
100
AcDbEntity
  8
NoLayerName_001
  6
Continuous
 62
     7
370
    50
100
AcDbLine
 10
43.87953700167751
 20
191.1621839881421
 30
0.0
 11
44.87953700167749
 21
191.1621839881421
 31
0.0
  0
ARC
  5
EC
330
1F
100
AcDbEntity
  8
NoLayerName_001
  6
Continuous
 62
     7
370
    50
100
AcDbCircle
 10
43.87953700167751
 20
181.1621839881421
 30
0.0
 40
10.0
100
AcDbArc
 50
90.0
 51
270.0
  0
ARC
  5
ED
330
1F
100
AcDbEntity
  8
NoLayerName_001
  6
Continuous
 62
     7
370
    50
100
AcDbCircle
 10
34.21928296383308
 20
170.1621839881421
 30
0.0
 40
1.0
100
AcDbArc
 50
270.0
 51
51.78678929826183
  0
ARC
  5
EE
330
1F
100
AcDbEntity
  8
NoLayerName_001
  6
Continuous
 62
     7
370
    50
100
AcDbCircle
 10
34.21928296383308
 20
192.1621839881421
 30
0.0
 40
1.0
100
AcDbArc
 50
308.2132107017382
 51
90.00000000000001
  0
LINE
  5
EF
330
1F
100
AcDbEntity
  8
NoLayerName_001
  6
Continuous
 62
     7
370
    50
100
AcDbLine
 10
42.87953700167751
 20
169.1621839881421
 30
0.0
 11
44.87953700167749
 21
169.1621839881421
 31
0.0
  0
LINE
  5
F0
330
1F
100
AcDbEntity
  8
NoLayerName_001
  6
Continuous
 62
     7
370
    50
100
AcDbLine
 10
42.87953700167751
 20
193.1621839881421
 30
0.0
 11
44.83530571828982
 21
193.1621839881421
 31
0.0
  0
ARC
  5
F1
330
1F
100
AcDbEntity
  8
NoLayerName_001
  6
Continuous
 62
     7
370
    50
100
AcDbCircle
 10
83.09385211617774
 20
143.8621839881422
 30
0.0
 40
1.0
100
AcDbArc
 50
180.0
 51
270.0
  0
ARC
  5
F2
330
1F
100
AcDbEntity
  8
NoLayerName_001
  6
Continuous
 62
     3
370
    25
100
AcDbCircle
 10
82.09385211617774
 20
142.8621839881422
 30
0.0
 40
1.0
100
AcDbArc
 50
180.0
 51
270.0
  0
ARC
  5
F3
330
1F
100
AcDbEntity
  8
NoLayerName_001
  6
Continuous
 62
     7
370
    50
100
AcDbCircle
 10
174.6938521161779
 20
143.8621839881422
 30
0.0
 40
1.0
100
AcDbArc
 50
270.0
 51
0.0
  0
ARC
  5
F4
330
1F
100
AcDbEntity
  8
NoLayerName_001
  6
Continuous
 62
     3
370
    25
100
AcDbCircle
 10
175.6938521161779
 20
142.8621839881422
 30
0.0
 40
1.0
100
AcDbArc
 50
270.0
 51
0.0
  0
LINE
  5
F5
330
1F
100
AcDbEntity
  8
NoLayerName_001
  6
Continuous
 62
     3
370
    25
100
AcDbLine
 10
82.09385211617774
 20
141.8621839881422
 30
0.0
 11
175.6938521161778
 21
141.8621839881422
 31
0.0
  0
LINE
  5
F6
330
1F
100
AcDbEntity
  8
NoLayerName_001
  6
Continuous
 62
     7
370
    50
100
AcDbLine
 10
83.09385211617774
 20
142.8621839881422
 30
0.0
 11
174.6938521161778
 21
142.8621839881422
 31
0.0
  0
ARC
  5
F7
330
1F
100
AcDbEntity
  8
NoLayerName_001
  6
Continuous
 62
     3
370
    25
100
AcDbCircle
 10
82.09385211617774
 20
240.4621839881422
 30
0.0
 40
1.0
100
AcDbArc
 50
90.0
 51
180.0
  0
ARC
  5
F8
330
1F
100
AcDbEntity
  8
NoLayerName_001
  6
Continuous
 62
     3
370
    25
100
AcDbCircle
 10
175.6938521161779
 20
240.4621839881422
 30
0.0
 40
1.0
100
AcDbArc
 50
0.0
 51
90.0
  0
LINE
  5
F9
330
1F
100
AcDbEntity
  8
NoLayerName_001
  6
Continuous
 62
     3
370
    25
100
AcDbLine
 10
82.09385211617774
 20
241.4621839881421
 30
0.0
 11
175.6938521161778
 21
241.4621839881421
 31
0.0
  0
LINE
  5
FA
330
1F
100
AcDbEntity
  8
NoLayerName_001
  6
Continuous
 62
     3
370
    25
100
AcDbLine
 10
176.6938521161779
 20
240.4621839881422
 30
0.0
 11
176.6938521161779
 21
142.8621839881421
 31
0.0
  0
ARC
  5
FB
330
1F
100
AcDbEntity
  8
NoLayerName_001
  6
Continuous
 62
     7
370
    50
100
AcDbCircle
 10
83.09385211617774
 20
239.4621839881422
 30
0.0
 40
1.0
100
AcDbArc
 50
90.0
 51
180.0
  0
ARC
  5
FC
330
1F
100
AcDbEntity
  8
NoLayerName_001
  6
Continuous
 62
     7
370
    50
100
AcDbCircle
 10
174.6938521161779
 20
239.4621839881422
 30
0.0
 40
1.0
100
AcDbArc
 50
0.0
 51
90.0
  0
LINE
  5
FD
330
1F
100
AcDbEntity
  8
NoLayerName_001
  6
Continuous
 62
     7
370
    50
100
AcDbLine
 10
83.09385211617774
 20
240.4621839881422
 30
0.0
 11
174.6938521161778
 21
240.4621839881422
 31
0.0
  0
LINE
  5
FE
330
1F
100
AcDbEntity
  8
NoLayerName_001
  6
Continuous
 62
     7
370
    50
100
AcDbLine
 10
175.6938521161779
 20
239.4621839881422
 30
0.0
 11
175.6938521161779
 21
143.8621839881421
 31
0.0
  0
LINE
  5
FF
330
1F
100
AcDbEntity
  8
NoLayerName_001
  6
Continuous
 62
     7
370
    50
100
AcDbLine
 10
82.09385211617774
 20
239.4621839881422
 30
0.0
 11
82.09385211617774
 21
143.8621839881421
 31
0.0
  0
LINE
  5
100
330
1F
100
AcDbEntity
  8
NoLayerName_001
  6
Continuous
 62
     3
370
    25
100
AcDbLine
 10
81.09385211617774
 20
240.4621839881422
 30
0.0
 11
81.09385211617774
 21
142.8621839881421
 31
0.0
  0
LINE
  5
101
330
1F
100
AcDbEntity
  8
NoLayerName_001
  6
Continuous
 62
     7
370
    50
100
AcDbLine
 10
136.8938521161778
 20
187.5121839881423
 30
0.0
 11
136.8938521161778
 21
190.3121839881422
 31
0.0
  0
LINE
  5
102
330
1F
100
AcDbEntity
  8
NoLayerName_001
  6
Continuous
 62
     7
370
    50
100
AcDbLine
 10
140.8938521161778
 20
187.5121839881423
 30
0.0
 11
140.8938521161778
 21
190.3121839881422
 31
0.0
  0
LINE
  5
103
330
1F
100
AcDbEntity
  8
NoLayerName_001
  6
Continuous
 62
     7
370
    50
100
AcDbLine
 10
140.8938521161778
 20
187.5121839881423
 30
0.0
 11
136.8938521161778
 21
187.5121839881423
 31
0.0
  0
LINE
  5
104
330
1F
100
AcDbEntity
  8
NoLayerName_001
  6
Continuous
 62
     7
370
    50
100
AcDbLine
 10
140.8938521161778
 20
190.3121839881422
 30
0.0
 11
136.8938521161778
 21
190.3121839881422
 31
0.0
  0
LINE
  5
105
330
1F
100
AcDbEntity
  8
NoLayerName_002
  6
CENTER
 62
    30
370
    25
100
AcDbLine
 10
128.8938521161778
 20
101.6621839881421
 30
0.0
 11
128.8938521161778
 21
60.66218398814215
 31
0.0
  0
LINE
  5
106
330
1F
100
AcDbEntity
  8
NoLayerName_002
  6
CENTER
 62
    30
370
    25
100
AcDbLine
 10
128.8938521161778
 20
129.9621839881423
 30
0.0
 11
128.8938521161778
 21
250.6621839881421
 31
0.0
  0
LINE
  5
107
330
1F
100
AcDbEntity
  8
NoLayerName_001
  6
Continuous
 62
     7
370
    50
100
AcDbLine
 10
136.8938521161778
 20
189.5121839881423
 30
0.0
 11
140.8938521161778
 21
189.5121839881423
 31
0.0
  0
LINE
  5
108
330
1F
100
AcDbEntity
  8
NoLayerName_001
  6
Continuous
 62
     7
370
    50
100
AcDbLine
 10
136.8938521161778
 20
188.3121839881422
 30
0.0
 11
140.8938521161778
 21
188.3121839881422
 31
0.0
  0
LINE
  5
109
330
1F
100
AcDbEntity
  8
NoLayerName_001
  6
Continuous
 62
     7
370
    50
100
AcDbLine
 10
120.8938521161778
 20
187.5121839881423
 30
0.0
 11
120.8938521161778
 21
190.3121839881422
 31
0.0
  0
LINE
  5
10A
330
1F
100
AcDbEntity
  8
NoLayerName_001
  6
Continuous
 62
     7
370
    50
100
AcDbLine
 10
116.8938521161778
 20
187.5121839881423
 30
0.0
 11
116.8938521161778
 21
190.3121839881422
 31
0.0
  0
LINE
  5
10B
330
1F
100
AcDbEntity
  8
NoLayerName_001
  6
Continuous
 62
     7
370
    50
100
AcDbLine
 10
116.8938521161778
 20
187.5121839881423
 30
0.0
 11
120.8938521161778
 21
187.5121839881423
 31
0.0
  0
LINE
  5
10C
330
1F
100
AcDbEntity
  8
NoLayerName_001
  6
Continuous
 62
     7
370
    50
100
AcDbLine
 10
116.8938521161778
 20
190.3121839881422
 30
0.0
 11
120.8938521161778
 21
190.3121839881422
 31
0.0
  0
LINE
  5
10D
330
1F
100
AcDbEntity
  8
NoLayerName_001
  6
Continuous
 62
     7
370
    50
100
AcDbLine
 10
120.8938521161778
 20
189.5121839881423
 30
0.0
 11
116.8938521161778
 21
189.5121839881423
 31
0.0
  0
LINE
  5
10E
330
1F
100
AcDbEntity
  8
NoLayerName_001
  6
Continuous
 62
     7
370
    50
100
AcDbLine
 10
120.8938521161778
 20
188.3121839881422
 30
0.0
 11
116.8938521161778
 21
188.3121839881422
 31
0.0
  0
LINE
  5
10F
330
1F
100
AcDbEntity
  8
NoLayerName_001
  6
Continuous
 62
     7
370
    50
100
AcDbLine
 10
35.21928296383308
 20
186.1621839881421
 30
0.0
 11
36.39622222812958
 21
186.1621839881421
 31
0.0
  0
LINE
  5
110
330
1F
100
AcDbEntity
  8
NoLayerName_001
  6
Continuous
 62
     7
370
    50
100
AcDbLine
 10
35.21928296383308
 20
176.1621839881421
 30
0.0
 11
36.39622222812958
 21
176.1621839881421
 31
0.0
  0
LINE
  5
111
330
1F
100
AcDbEntity
  8
NoLayerName_001
  6
Continuous
 62
     7
370
    50
100
AcDbLine
 10
54.53979103952193
 20
186.1621839881421
 30
0.0
 11
53.36285177522543
 21
186.1621839881421
 31
0.0
  0
LINE
  5
112
330
1F
100
AcDbEntity
  8
NoLayerName_001
  6
Continuous
 62
     7
370
    50
100
AcDbLine
 10
54.53979103952193
 20
176.1621839881421
 30
0.0
 11
53.36285177522543
 21
176.1621839881421
 31
0.0
  0
INSERT
  5
123
330
1F
100
AcDbEntity
  8
NoLayerName_001
  6
Continuous
 62
     7
370
    25
100
AcDbBlockReference
  2
*X1
 10
34.38035583496094
 20
181.2492065429688
 30
0.0
  0
INSERT
  5
134
330
1F
100
AcDbEntity
  8
NoLayerName_001
  6
Continuous
 62
     7
370
    25
100
AcDbBlockReference
  2
*X2
 10
33.88232421875
 20
181.1621856689453
 30
0.0
  0
HATCH
  5
135
330
1F
100
AcDbEntity
  8
NoLayerName_001
  6
Continuous
 62
     7
370
    25
100
AcDbHatch
 10
0.0
 20
0.0
 30
0.0
210
0.0
220
0.0
230
1.0
  2
ANSI37
 70
     0
 71
     0
 91
        1
 92
        1
 93
        4
 72
     2
 10
43.87953700167751
 20
181.1621839881421
 40
9.0
 50
180.0
 51
213.7489885958815
 73
     1
 72
     1
 10
33.87953700167751
 20
181.1621839881422
 11
34.87953700167751
 21
181.1621839881422
 72
     2
 10
43.87953700167751
 20
181.1621839881421
 40
10.0
 50
180.0
 51
209.999999999993
 73
     1
 72
     1
 10
36.39622222812963
 20
176.1621839881422
 11
35.21928296383251
 21
176.1621839881433
 97
        0
 75
     1
 76
     1
 52
0.0
 41
0.1889999999999949
 77
     0
 78
     2
 53
45.0
 43
0.0
 44
0.0
 45
-0.4243171017205059
 46
0.424317101720506
 79
     0
 53
135.0
 43
0.0
 44
0.0
 45
-0.424317101720506
 46
-0.4243171017205059
 79
     0
 98
        1
 10
36.04382239840962
 20
176.1621839881421
  0
INSERT
  5
146
330
1F
100
AcDbEntity
  8
NoLayerName_001
  6
Continuous
 62
     7
370
    25
100
AcDbBlockReference
  2
*X3
 10
53.55390167236328
 20
181.2492065429688
 30
0.0
  0
INSERT
  5
157
330
1F
100
AcDbEntity
  8
NoLayerName_001
  6
Continuous
 62
     7
370
    25
100
AcDbBlockReference
  2
*X4
 10
54.04916000366211
 20
181.1621856689453
 30
0.0
  0
HATCH
  5
158
330
1F
100
AcDbEntity
  8
NoLayerName_001
  6
Continuous
 62
     7
370
    25
100
AcDbHatch
 10
0.0
 20
0.0
 30
0.0
210
0.0
220
0.0
230
1.0
  2
ANSI37
 70
     0
 71
     0
 91
        1
 92
        1
 93
        4
 72
     2
 10
45.87953700167751
 20
181.1621839881421
 40
9.0
 50
326.2510114041185
 51
360.0
 73
     1
 72
     1
 10
55.8795370016775
 20
181.1621839881422
 11
54.8795370016775
 21
181.1621839881422
 72
     2
 10
45.87953700167751
 20
181.1621839881421
 40
10.0
 50
330.000000000007
 51
360.0
 73
     1
 72
     1
 10
53.36285177522538
 20
176.1621839881422
 11
54.53979103952251
 21
176.1621839881433
 97
        0
 75
     1
 76
     1
 52
90.0
 41
0.1889999999999949
 77
     0
 78
     2
 53
135.0
 43
0.0
 44
0.0
 45
-0.424317101720506
 46
-0.4243171017205059
 79
     0
 53
225.0
 43
0.0
 44
0.0
 45
0.4243171017205059
 46
-0.4243171017205061
 79
     0
 98
        1
 10
53.71525160494539
 20
176.1621839881421
  0
LINE
  5
159
330
1F
100
AcDbEntity
  8
NoLayerName_001
  6
Continuous
 62
     7
370
    50
100
AcDbLine
 10
36.21928296383308
 20
156.1621839881421
 30
0.0
 11
37.39622222812958
 21
156.1621839881421
 31
0.0
  0
LINE
  5
15A
330
1F
100
AcDbEntity
  8
NoLayerName_001
  6
Continuous
 62
     7
370
    50
100
AcDbLine
 10
36.21928296383308
 20
146.1621839881421
 30
0.0
 11
37.39622222812958
 21
146.1621839881421
 31
0.0
  0
LINE
  5
15B
330
1F
100
AcDbEntity
  8
NoLayerName_001
  6
Continuous
 62
     7
370
    50
100
AcDbLine
 10
55.53979103952193
 20
146.1621839881421
 30
0.0
 11
54.36285177522543
 21
146.1621839881421
 31
0.0
  0
INSERT
  5
16C
330
1F
100
AcDbEntity
  8
NoLayerName_001
  6
Continuous
 62
     7
370
    25
100
AcDbBlockReference
  2
*X5
 10
35.38035583496094
 20
151.2492065429688
 30
0.0
  0
INSERT
  5
17D
330
1F
100
AcDbEntity
  8
NoLayerName_001
  6
Continuous
 62
     7
370
    25
100
AcDbBlockReference
  2
*X6
 10
34.88232421875
 20
151.1621856689453
 30
0.0
  0
HATCH
  5
17E
330
1F
100
AcDbEntity
  8
NoLayerName_001
  6
Continuous
 62
     7
370
    25
100
AcDbHatch
 10
0.0
 20
0.0
 30
0.0
210
0.0
220
0.0
230
1.0
  2
ANSI37
 70
     0
 71
     0
 91
        1
 92
        1
 93
        4
 72
     2
 10
44.87953700167751
 20
151.1621839881421
 40
9.0
 50
180.0
 51
213.7489885958815
 73
     1
 72
     1
 10
34.87953700167751
 20
151.1621839881422
 11
35.87953700167751
 21
151.1621839881422
 72
     2
 10
44.87953700167751
 20
151.1621839881421
 40
10.0
 50
180.0
 51
209.999999999993
 73
     1
 72
     1
 10
37.39622222812963
 20
146.1621839881422
 11
36.21928296383251
 21
146.1621839881433
 97
        0
 75
     1
 76
     1
 52
0.0
 41
0.1889999999999949
 77
     0
 78
     2
 53
45.0
 43
0.0
 44
0.0
 45
-0.4243171017205059
 46
0.424317101720506
 79
     0
 53
135.0
 43
0.0
 44
0.0
 45
-0.424317101720506
 46
-0.4243171017205059
 79
     0
 98
        1
 10
37.04382239840962
 20
146.1621839881421
  0
INSERT
  5
18F
330
1F
100
AcDbEntity
  8
NoLayerName_001
  6
Continuous
 62
     7
370
    25
100
AcDbBlockReference
  2
*X7
 10
54.55390167236328
 20
151.2492065429688
 30
0.0
  0
INSERT
  5
1A0
330
1F
100
AcDbEntity
  8
NoLayerName_001
  6
Continuous
 62
     7
370
    25
100
AcDbBlockReference
  2
*X8
 10
55.04916000366211
 20
151.1621856689453
 30
0.0
  0
HATCH
  5
1A1
330
1F
100
AcDbEntity
  8
NoLayerName_001
  6
Continuous
 62
     7
370
    25
100
AcDbHatch
 10
0.0
 20
0.0
 30
0.0
210
0.0
220
0.0
230
1.0
  2
ANSI37
 70
     0
 71
     0
 91
        1
 92
        1
 93
        4
 72
     2
 10
46.87953700167751
 20
151.1621839881421
 40
9.0
 50
326.2510114041185
 51
360.0
 73
     1
 72
     1
 10
56.8795370016775
 20
151.1621839881422
 11
55.8795370016775
 21
151.1621839881422
 72
     2
 10
46.87953700167751
 20
151.1621839881421
 40
10.0
 50
330.000000000007
 51
360.0
 73
     1
 72
     1
 10
54.36285177522538
 20
146.1621839881422
 11
55.53979103952251
 21
146.1621839881433
 97
        0
 75
     1
 76
     1
 52
90.0
 41
0.1889999999999949
 77
     0
 78
     2
 53
135.0
 43
0.0
 44
0.0
 45
-0.424317101720506
 46
-0.4243171017205059
 79
     0
 53
225.0
 43
0.0
 44
0.0
 45
0.4243171017205059
 46
-0.4243171017205061
 79
     0
 98
        1
 10
54.71525160494539
 20
146.1621839881421
  0
LINE
  5
1A2
330
1F
100
AcDbEntity
  8
NoLayerName_001
  6
Continuous
 62
     7
370
    50
100
AcDbLine
 10
55.53979103952193
 20
156.1621839881421
 30
0.0
 11
54.36285177522543
 21
156.1621839881421
 31
0.0
  0
LINE
  5
1A3
330
1F
100
AcDbEntity
  8
NoLayerName_001
  6
Continuous
 62
     7
370
    50
100
AcDbLine
 10
36.21928296383308
 20
236.1621839881421
 30
0.0
 11
37.39622222812958
 21
236.1621839881421
 31
0.0
  0
LINE
  5
1A4
330
1F
100
AcDbEntity
  8
NoLayerName_001
  6
Continuous
 62
     7
370
    50
100
AcDbLine
 10
36.21928296383308
 20
226.1621839881421
 30
0.0
 11
37.39622222812958
 21
226.1621839881421
 31
0.0
  0
LINE
  5
1A5
330
1F
100
AcDbEntity
  8
NoLayerName_001
  6
Continuous
 62
     7
370
    50
100
AcDbLine
 10
55.53979103952193
 20
236.1621839881421
 30
0.0
 11
54.36285177522543
 21
236.1621839881421
 31
0.0
  0
LINE
  5
1A6
330
1F
100
AcDbEntity
  8
NoLayerName_001
  6
Continuous
 62
     7
370
    50
100
AcDbLine
 10
55.53979103952193
 20
226.1621839881421
 30
0.0
 11
54.36285177522543
 21
226.1621839881421
 31
0.0
  0
INSERT
  5
1B7
330
1F
100
AcDbEntity
  8
NoLayerName_001
  6
Continuous
 62
     7
370
    25
100
AcDbBlockReference
  2
*X9
 10
35.38035583496094
 20
231.2492065429688
 30
0.0
  0
INSERT
  5
1C8
330
1F
100
AcDbEntity
  8
NoLayerName_001
  6
Continuous
 62
     7
370
    25
100
AcDbBlockReference
  2
*X10
 10
34.88232421875
 20
231.1621856689453
 30
0.0
  0
HATCH
  5
1C9
330
1F
100
AcDbEntity
  8
NoLayerName_001
  6
Continuous
 62
     7
370
    25
100
AcDbHatch
 10
0.0
 20
0.0
 30
0.0
210
0.0
220
0.0
230
1.0
  2
ANSI37
 70
     0
 71
     0
 91
        1
 92
        1
 93
        4
 72
     2
 10
44.87953700167751
 20
231.1621839881421
 40
9.0
 50
180.0
 51
213.7489885958815
 73
     1
 72
     1
 10
34.87953700167751
 20
231.1621839881422
 11
35.87953700167751
 21
231.1621839881422
 72
     2
 10
44.87953700167751
 20
231.1621839881421
 40
10.0
 50
180.0
 51
209.999999999993
 73
     1
 72
     1
 10
37.39622222812963
 20
226.1621839881422
 11
36.21928296383251
 21
226.1621839881433
 97
        0
 75
     1
 76
     1
 52
0.0
 41
0.1889999999999949
 77
     0
 78
     2
 53
45.0
 43
0.0
 44
0.0
 45
-0.4243171017205059
 46
0.424317101720506
 79
     0
 53
135.0
 43
0.0
 44
0.0
 45
-0.424317101720506
 46
-0.4243171017205059
 79
     0
 98
        1
 10
37.04382239840962
 20
226.1621839881421
  0
INSERT
  5
1DA
330
1F
100
AcDbEntity
  8
NoLayerName_001
  6
Continuous
 62
     7
370
    25
100
AcDbBlockReference
  2
*X11
 10
54.55390167236328
 20
231.2492065429688
 30
0.0
  0
INSERT
  5
1EB
330
1F
100
AcDbEntity
  8
NoLayerName_001
  6
Continuous
 62
     7
370
    25
100
AcDbBlockReference
  2
*X12
 10
55.04916000366211
 20
231.1621856689453
 30
0.0
  0
HATCH
  5
1EC
330
1F
100
AcDbEntity
  8
NoLayerName_001
  6
Continuous
 62
     7
370
    25
100
AcDbHatch
 10
0.0
 20
0.0
 30
0.0
210
0.0
220
0.0
230
1.0
  2
ANSI37
 70
     0
 71
     0
 91
        1
 92
        1
 93
        4
 72
     2
 10
46.87953700167751
 20
231.1621839881421
 40
9.0
 50
326.2510114041185
 51
360.0000000000001
 73
     1
 72
     1
 10
56.8795370016775
 20
231.1621839881422
 11
55.8795370016775
 21
231.1621839881422
 72
     2
 10
46.87953700167751
 20
231.1621839881421
 40
10.0
 50
330.000000000007
 51
360.0000000000001
 73
     1
 72
     1
 10
54.36285177522538
 20
226.1621839881422
 11
55.53979103952251
 21
226.1621839881433
 97
        0
 75
     1
 76
     1
 52
90.0
 41
0.1889999999999949
 77
     0
 78
     2
 53
135.0
 43
0.0
 44
0.0
 45
-0.424317101720506
 46
-0.4243171017205059
 79
     0
 53
225.0
 43
0.0
 44
0.0
 45
0.4243171017205059
 46
-0.4243171017205061
 79
     0
 98
        1
 10
54.71525160494539
 20
226.1621839881421
  0
LINE
  5
1ED
330
1F
100
AcDbEntity
  8
NoLayerName_001
  6
Continuous
 62
     7
370
    50
100
AcDbLine
 10
32.89622222812957
 20
212.1621839881421
 30
0.0
 11
34.13453900327912
 21
212.1621839881421
 31
0.0
  0
LINE
  5
1EE
330
1F
100
AcDbEntity
  8
NoLayerName_001
  6
Continuous
 62
     7
370
    50
100
AcDbLine
 10
32.89622222812957
 20
202.1621839881421
 30
0.0
 11
34.13453900327912
 21
202.1621839881421
 31
0.0
  0
HATCH
  5
1EF
330
1F
100
AcDbEntity
  8
NoLayerName_001
  6
Continuous
 62
     7
370
    25
100
AcDbHatch
 10
0.0
 20
0.0
 30
0.0
210
0.0
220
0.0
230
1.0
  2
ANSI37
 70
     0
 71
     0
 91
        1
 92
        1
 93
        4
 72
     2
 10
40.37953700167751
 20
207.1621839881421
 40
8.0
 50
180.0
 51
218.6821874534895
 73
     1
 72
     1
 10
31.37953700167751
 20
207.1621839881421
 11
32.37953700167751
 21
207.1621839881421
 72
     2
 10
40.37953700167751
 20
207.1621839881421
 40
9.0
 50
180.0
 51
213.748988595888
 73
     1
 72
     1
 10
34.13453900327912
 20
202.1621839881421
 11
32.89622222812957
 21
202.1621839881421
 97
        0
 75
     1
 76
     1
 52
0.0
 41
0.1889999999999964
 77
     0
 78
     2
 53
45.0
 43
0.0
 44
0.0
 45
-0.4243171017205095
 46
0.4243171017205095
 79
     0
 53
135.0
 43
0.0
 44
0.0
 45
-0.4243171017205095
 46
-0.4243171017205095
 79
     0
 98
        1
 10
33.31074818031269
 20
202.1621839881421
  0
HATCH
  5
1F0
330
1F
100
AcDbEntity
  8
NoLayerName_001
  6
Continuous
 62
     7
370
    25
100
AcDbHatch
 10
0.0
 20
0.0
 30
0.0
210
0.0
220
0.0
230
1.0
  2
ANSI37
 70
     0
 71
     0
 91
        1
 92
        1
 93
        4
 72
     2
 10
40.37953700167751
 20
207.1621839881421
 40
8.0
 50
141.3178125465105
 51
180.0
 73
     1
 72
     1
 10
31.37953700167751
 20
207.1621839881421
 11
32.37953700167751
 21
207.1621839881421
 72
     2
 10
40.37953700167751
 20
207.1621839881421
 40
9.0
 50
146.251011404112
 51
180.0
 73
     1
 72
     1
 10
34.13453900327912
 20
212.1621839881421
 11
32.89622222812957
 21
212.1621839881421
 97
        0
 75
     1
 76
     1
 52
0.0000000000000127
 41
0.1889999999999964
 77
     0
 78
     2
 53
45.00000000000001
 43
0.0
 44
0.0
 45
-0.4243171017205096
 46
0.4243171017205093
 79
     0
 53
135.0
 43
0.0
 44
0.0
 45
-0.4243171017205095
 46
-0.4243171017205095
 79
     0
 98
        1
 10
33.31074818031269
 20
212.1621839881421
  0
ARC
  5
1F1
330
1F
100
AcDbEntity
  8
NoLayerName_001
  6
Continuous
 62
     7
370
    50
100
AcDbCircle
 10
40.37953700167751
 20
207.1621839881421
 30
0.0
 40
8.0
100
AcDbArc
 50
90.0
 51
270.0
  0
ARC
  5
1F2
330
1F
100
AcDbEntity
  8
NoLayerName_001
  6
Continuous
 62
     7
370
    50
100
AcDbCircle
 10
40.37953700167751
 20
207.1621839881421
 30
0.0
 40
9.0
100
AcDbArc
 50
135.5729959991949
 51
224.4270040008051
  0
LINE
  5
1F3
330
1F
100
AcDbEntity
  8
NoLayerName_001
  6
Continuous
 62
     7
370
    50
100
AcDbLine
 10
50.86285177522544
 20
212.1621839881421
 30
0.0
 11
49.62453500007589
 21
212.1621839881421
 31
0.0
  0
LINE
  5
1F4
330
1F
100
AcDbEntity
  8
NoLayerName_001
  6
Continuous
 62
     7
370
    50
100
AcDbLine
 10
50.86285177522544
 20
202.1621839881421
 30
0.0
 11
49.62453500007589
 21
202.1621839881421
 31
0.0
  0
HATCH
  5
1F5
330
1F
100
AcDbEntity
  8
NoLayerName_001
  6
Continuous
 62
     7
370
    25
100
AcDbHatch
 10
0.0
 20
0.0
 30
0.0
210
0.0
220
0.0
230
1.0
  2
ANSI37
 70
     0
 71
     0
 91
        1
 92
        1
 93
        4
 72
     2
 10
43.37953700167751
 20
207.1621839881421
 40
8.0
 50
321.3178125465105
 51
360.0
 73
     1
 72
     1
 10
52.37953700167751
 20
207.1621839881421
 11
51.37953700167751
 21
207.1621839881421
 72
     2
 10
43.37953700167751
 20
207.1621839881421
 40
9.0
 50
326.251011404112
 51
360.0
 73
     1
 72
     1
 10
49.62453500007589
 20
202.1621839881421
 11
50.86285177522544
 21
202.1621839881421
 97
        0
 75
     1
 76
     1
 52
89.99999999999997
 41
0.1889999999999964
 77
     0
 78
     2
 53
135.0
 43
0.0
 44
0.0
 45
-0.4243171017205097
 46
-0.4243171017205093
 79
     0
 53
225.0
 43
0.0
 44
0.0
 45
0.4243171017205093
 46
-0.4243171017205097
 79
     0
 98
        1
 10
50.44832582304232
 20
202.1621839881421
  0
HATCH
  5
1F6
330
1F
100
AcDbEntity
  8
NoLayerName_001
  6
Continuous
 62
     7
370
    25
100
AcDbHatch
 10
0.0
 20
0.0
 30
0.0
210
0.0
220
0.0
230
1.0
  2
ANSI37
 70
     0
 71
     0
 91
        1
 92
        1
 93
        4
 72
     2
 10
43.37953700167751
 20
207.1621839881421
 40
8.0
 50
0.0
 51
38.68218745348955
 73
     1
 72
     1
 10
52.37953700167751
 20
207.1621839881421
 11
51.37953700167751
 21
207.1621839881421
 72
     2
 10
43.37953700167751
 20
207.1621839881421
 40
9.0
 50
0.0
 51
33.74898859588802
 73
     1
 72
     1
 10
49.62453500007589
 20
212.1621839881421
 11
50.86285177522544
 21
212.1621839881421
 97
        0
 75
     1
 76
     1
 52
90.00000000000001
 41
0.1889999999999964
 77
     0
 78
     2
 53
135.0
 43
0.0
 44
0.0
 45
-0.4243171017205093
 46
-0.4243171017205097
 79
     0
 53
225.0
 43
0.0
 44
0.0
 45
0.4243171017205096
 46
-0.4243171017205093
 79
     0
 98
        1
 10
50.44832582304232
 20
212.1621839881421
  0
ARC
  5
1F7
330
1F
100
AcDbEntity
  8
NoLayerName_001
  6
Continuous
 62
     7
370
    50
100
AcDbCircle
 10
42.87953700167751
 20
181.1621839881421
 30
0.0
 40
12.0
100
AcDbArc
 50
90.00000000000001
 51
270.0
  0
ARC
  5
1F8
330
1F
100
AcDbEntity
  8
NoLayerName_001
  6
Continuous
 62
     7
370
    50
100
AcDbCircle
 10
42.87953700167751
 20
181.1621839881421
 30
0.0
 40
13.0
100
AcDbArc
 50
128.2132107017382
 51
231.7867892982618
  0
LINE
  5
1F9
330
1F
100
AcDbEntity
  8
NoLayerName_003
  6
Continuous
 62
     7
370
    50
100
AcDbLine
 10
126.5
 20
27.0
 30
0.0
 11
186.0
 21
27.0
 31
0.0
  0
LINE
  5
1FA
330
1F
100
AcDbEntity
  8
NoLayerName_003
  6
Continuous
 62
     7
370
    50
100
AcDbLine
 10
186.0
 20
40.0
 30
0.0
 11
186.0
 21
20.0
 31
0.0
  0
LINE
  5
1FB
330
1F
100
AcDbEntity
  8
NoLayerName_003
  6
Continuous
 62
     7
370
    50
100
AcDbLine
 10
126.5
 20
20.0
 30
0.0
 11
126.5
 21
40.0
 31
0.0
  0
LINE
  5
1FC
330
1F
100
AcDbEntity
  8
NoLayerName_003
  6
Continuous
 62
     7
370
    50
100
AcDbLine
 10
137.5
 20
40.0
 30
0.0
 11
137.5
 21
20.0
 31
0.0
  0
LINE
  5
1FD
330
1F
100
AcDbEntity
  8
NoLayerName_003
  6
Continuous
 62
     7
370
    50
100
AcDbLine
 10
186.0
 20
20.0
 30
0.0
 11
126.5
 21
20.0
 31
0.0
  0
LINE
  5
1FE
330
1F
100
AcDbEntity
  8
NoLayerName_003
  6
Continuous
 62
     7
370
    50
100
AcDbLine
 10
186.0
 20
40.0
 30
0.0
 11
126.5
 21
40.0
 31
0.0
  0
MTEXT
  5
1FF
330
1F
100
AcDbEntity
  8
NoLayerName_003
 62
     7
370
    50
100
AcDbMText
 10
132.0000000445829
 20
33.5
 30
0.0
 40
2.206896584609459
 41
0.0
 71
     5
 72
     5
  1
\fＭＳ Ｐゴシック|b0|c128|p50;\A1;品　名
 73
     1
 44
1.299389002163688
1001
ACAD
1000
ACAD_MTEXT_DEFINED_HEIGHT_BEGIN
1070
    46
1040
3.200000047683716
1000
ACAD_MTEXT_DEFINED_HEIGHT_END
  0
MTEXT
  5
200
330
1F
100
AcDbEntity
  8
NoLayerName_001
 62
     7
370
    50
100
AcDbMText
 10
161.7499995648853
 20
33.50000002384186
 30
0.0
 40
2.206896584609459
 41
0.0
 71
     5
 72
     5
  1
\fＭＳ Ｐゴシック|b0|c128|p50;\A1;遮音カバー\P配ボックスＳＭ３６Ｂ２用　
 73
     1
 44
0.9745417371009623
1001
ACAD
1000
ACAD_MTEXT_DEFINED_HEIGHT_BEGIN
1070
    46
1040
6.400000095367432
1000
ACAD_MTEXT_DEFINED_HEIGHT_END
  0
MTEXT
  5
201
330
1F
100
AcDbEntity
  8
NoLayerName_003
 62
     7
370
    50
100
AcDbMText
 10
127.6480002403259
 20
21.89999997615814
 30
0.0
 40
2.206896584609459
 41
0.0
 71
     7
 72
     5
  1
\fＭＳ Ｐゴシック|b0|c128|p50;\A1;品　番
 73
     1
 44
1.299389002163688
1001
ACAD
1000
ACAD_MTEXT_DEFINED_HEIGHT_BEGIN
1070
    46
1040
3.200000047683716
1000
ACAD_MTEXT_DEFINED_HEIGHT_END
  0
MTEXT
  5
202
330
1F
100
AcDbEntity
  8
NoLayerName_001
 62
     7
370
    50
100
AcDbMText
 10
159.1000000221566
 20
23.00000002384186
 30
0.0
 40
2.206896584609459
 41
0.0
 71
     5
 72
     5
  1
\fＭＳ Ｐゴシック|b0|c128|p50;\A1;ＳＭ３６ＢＳＹ２
 73
     1
 44
1.299389002163688
1001
ACAD
1000
ACAD_MTEXT_DEFINED_HEIGHT_BEGIN
1070
    46
1040
3.200000047683716
1000
ACAD_MTEXT_DEFINED_HEIGHT_END
  0
ENDSEC
  0
SECTION
  2
OBJECTS
  0
DICTIONARY
  5
C
330
0
100
AcDbDictionary
281
     1
  3
ACAD_GROUP
350
D
  3
ACAD_LAYOUT
350
1A
  3
ACAD_MATERIAL
350
3B
  3
ACAD_MLEADERSTYLE
350
227
  3
ACAD_MLINESTYLE
350
17
  3
ACAD_PLOTSETTINGS
350
19
  3
ACAD_PLOTSTYLENAME
350
E
  3
ACAD_SCALELIST
350
203
  3
ACAD_VISUALSTYLE
350
2A
  3
AcDbVariableDictionary
350
225
  3
DWGPROPS
350
22D
  0
DICTIONARY
  5
D
102
{ACAD_REACTORS
330
C
102
}
330
C
100
AcDbDictionary
281
     1
  0
DICTIONARY
  5
1A
102
{ACAD_REACTORS
330
C
102
}
330
C
100
AcDbDictionary
281
     1
  3
Layout1
350
1E
  3
Model
350
22
  0
DICTIONARY
  5
3B
102
{ACAD_REACTORS
330
C
102
}
330
C
100
AcDbDictionary
281
     1
  3
ByBlock
350
3D
  3
ByLayer
350
3C
  3
Global
350
3E
  0
DICTIONARY
  5
227
102
{ACAD_REACTORS
330
C
102
}
330
C
100
AcDbDictionary
281
     1
  0
DICTIONARY
  5
17
102
{ACAD_REACTORS
330
C
102
}
330
C
100
AcDbDictionary
281
     1
  3
Standard
350
18
  0
DICTIONARY
  5
19
102
{ACAD_REACTORS
330
C
102
}
330
C
100
AcDbDictionary
281
     1
  0
ACDBDICTIONARYWDFLT
  5
E
102
{ACAD_REACTORS
330
C
102
}
330
C
100
AcDbDictionary
281
     1
  3
Normal
350
F
100
AcDbDictionaryWithDefault
340
F
  0
DICTIONARY
  5
203
102
{ACAD_REACTORS
330
C
102
}
330
C
100
AcDbDictionary
281
     1
  3
A0
350
204
  3
A1
350
205
  3
A2
350
206
  3
A3
350
207
  3
A4
350
208
  3
A5
350
209
  3
A6
350
20A
  3
A7
350
20B
  3
A8
350
20C
  3
A9
350
20D
  3
B0
350
20E
  3
B1
350
20F
  3
B2
350
210
  3
B3
350
211
  3
B4
350
212
  3
B5
350
213
  3
B6
350
214
  3
B7
350
215
  3
B8
350
216
  3
B9
350
217
  3
C0
350
218
  3
C1
350
219
  3
C2
350
21A
  3
C3
350
21B
  3
C4
350
21C
  3
C5
350
21D
  3
C6
350
21E
  3
C7
350
21F
  3
C8
350
220
  3
C9
350
221
  3
D0
350
222
  3
D1
350
223
  3
D2
350
224
  0
DICTIONARY
  5
2A
102
{ACAD_REACTORS
330
C
102
}
330
C
100
AcDbDictionary
281
     1
  3
2dWireframe
350
2F
  3
3D Hidden
350
31
  3
3dWireframe
350
30
  3
Basic
350
32
  3
Brighten
350
36
  3
ColorChange
350
3A
  3
Conceptual
350
34
  3
Dim
350
35
  3
Facepattern
350
39
  3
Flat
350
2B
  3
FlatWithEdges
350
2C
  3
Gouraud
350
2D
  3
GouraudWithEdges
350
2E
  3
Linepattern
350
38
  3
Realistic
350
33
  3
Thicken
350
37
  0
DICTIONARY
  5
225
102
{ACAD_REACTORS
330
C
102
}
330
C
100
AcDbDictionary
281
     1
  3
CANNOSCALE
350
22A
  3
DIMASSOC
350
22B
  3
HIDETEXT
350
22C
  3
PSOLHEIGHT
350
229
  3
PSOLWIDTH
350
228
  0
XRECORD
  5
22D
102
{ACAD_REACTORS
330
C
102
}
330
C
100
AcDbXrecord
280
     1
  1
DWGPROPS COOKIE
  2

  3

  4

  6
File was created by TR2_DExp
  7

  8

  9

300
=
301
=
302
=
303
=
304
=
305
=
306
=
307
=
308
=
309
=
 40
0.0
 41
2457922.346744989
 42
2457922.346745706
  1

 90
        0
  0
LAYOUT
  5
1E
102
{ACAD_REACTORS
330
1A
102
}
330
1A
100
AcDbPlotSettings
  1

  2
none_device
  4

  6

 40
0.0
 41
0.0
 42
0.0
 43
0.0
 44
0.0
 45
0.0
 46
0.0
 47
0.0
 48
0.0
 49
0.0
140
0.0
141
0.0
142
1.0
143
1.0
 70
   688
 72
     0
 73
     0
 74
     5
  7

 75
    16
147
1.0
148
0.0
149
0.0
100
AcDbLayout
  1
Layout1
 70
     0
 71
     1
 10
0.0
 20
0.0
 11
420.0
 21
297.0
 12
0.0
 22
0.0
 32
0.0
 14
1.000000000000000E+20
 24
1.000000000000000E+20
 34
1.000000000000000E+20
 15
-1.000000000000000E+20
 25
-1.000000000000000E+20
 35
-1.000000000000000E+20
146
0.0
 13
0.0
 23
0.0
 33
0.0
 16
1.0
 26
0.0
 36
0.0
 17
0.0
 27
1.0
 37
0.0
 76
     0
330
1B
  0
LAYOUT
  5
22
102
{ACAD_REACTORS
330
1A
102
}
330
1A
100
AcDbPlotSettings
  1

  2
none_device
  4

  6

 40
0.0
 41
0.0
 42
0.0
 43
0.0
 44
0.0
 45
0.0
 46
0.0
 47
0.0
 48
0.0
 49
0.0
140
0.0
141
0.0
142
1.0
143
1.0
 70
  1712
 72
     0
 73
     0
 74
     0
  7

 75
     0
147
1.0
148
0.0
149
0.0
100
AcDbLayout
  1
Model
 70
     1
 71
     0
 10
27.37953700167746
 20
20.0
 11
186.0
 21
250.6621839881421
 12
0.0
 22
0.0
 32
0.0
 14
27.37953700167746
 24
20.0
 34
0.0
 15
186.0
 25
250.6621839881421
 35
0.0
146
0.0
 13
0.0
 23
0.0
 33
0.0
 16
1.0
 26
0.0
 36
0.0
 17
0.0
 27
1.0
 37
0.0
 76
     0
330
1F
331
29
  0
MATERIAL
  5
3D
102
{ACAD_REACTORS
330
3B
102
}
102
{ACAD_XDICTIONARY
360
250
102
}
330
3B
100
AcDbMaterial
  1
ByBlock
  0
MATERIAL
  5
3C
102
{ACAD_REACTORS
330
3B
102
}
102
{ACAD_XDICTIONARY
360
24E
102
}
330
3B
100
AcDbMaterial
  1
ByLayer
  0
MATERIAL
  5
3E
102
{ACAD_REACTORS
330
3B
102
}
102
{ACAD_XDICTIONARY
360
252
102
}
330
3B
100
AcDbMaterial
  1
Global
  0
MLINESTYLE
  5
18
102
{ACAD_REACTORS
330
17
102
}
330
17
100
AcDbMlineStyle
  2
Standard
 70
     0
  3

 62
   256
 51
90.0
 52
90.0
 71
     2
 49
0.5
 62
   256
  6
BYLAYER
 49
-0.5
 62
   256
  6
BYLAYER
  0
ACDBPLACEHOLDER
  5
F
102
{ACAD_REACTORS
330
E
102
}
330
E
  0
SCALE
  5
204
102
{ACAD_REACTORS
330
203
102
}
330
203
100
AcDbScale
 70
     0
300
1:1
140
1.0
141
1.0
290
     1
  0
SCALE
  5
205
102
{ACAD_REACTORS
330
203
102
}
330
203
100
AcDbScale
 70
     0
300
1:2
140
1.0
141
2.0
290
     0
  0
SCALE
  5
206
102
{ACAD_REACTORS
330
203
102
}
330
203
100
AcDbScale
 70
     0
300
1:4
140
1.0
141
4.0
290
     0
  0
SCALE
  5
207
102
{ACAD_REACTORS
330
203
102
}
330
203
100
AcDbScale
 70
     0
300
1:5
140
1.0
141
5.0
290
     0
  0
SCALE
  5
208
102
{ACAD_REACTORS
330
203
102
}
330
203
100
AcDbScale
 70
     0
300
1:8
140
1.0
141
8.0
290
     0
  0
SCALE
  5
209
102
{ACAD_REACTORS
330
203
102
}
330
203
100
AcDbScale
 70
     0
300
1:10
140
1.0
141
10.0
290
     0
  0
SCALE
  5
20A
102
{ACAD_REACTORS
330
203
102
}
330
203
100
AcDbScale
 70
     0
300
1:16
140
1.0
141
16.0
290
     0
  0
SCALE
  5
20B
102
{ACAD_REACTORS
330
203
102
}
330
203
100
AcDbScale
 70
     0
300
1:20
140
1.0
141
20.0
290
     0
  0
SCALE
  5
20C
102
{ACAD_REACTORS
330
203
102
}
330
203
100
AcDbScale
 70
     0
300
1:30
140
1.0
141
30.0
290
     0
  0
SCALE
  5
20D
102
{ACAD_REACTORS
330
203
102
}
330
203
100
AcDbScale
 70
     0
300
1:40
140
1.0
141
40.0
290
     0
  0
SCALE
  5
20E
102
{ACAD_REACTORS
330
203
102
}
330
203
100
AcDbScale
 70
     0
300
1:50
140
1.0
141
50.0
290
     0
  0
SCALE
  5
20F
102
{ACAD_REACTORS
330
203
102
}
330
203
100
AcDbScale
 70
     0
300
1:100
140
1.0
141
100.0
290
     0
  0
SCALE
  5
210
102
{ACAD_REACTORS
330
203
102
}
330
203
100
AcDbScale
 70
     0
300
2:1
140
2.0
141
1.0
290
     0
  0
SCALE
  5
211
102
{ACAD_REACTORS
330
203
102
}
330
203
100
AcDbScale
 70
     0
300
4:1
140
4.0
141
1.0
290
     0
  0
SCALE
  5
212
102
{ACAD_REACTORS
330
203
102
}
330
203
100
AcDbScale
 70
     0
300
8:1
140
8.0
141
1.0
290
     0
  0
SCALE
  5
213
102
{ACAD_REACTORS
330
203
102
}
330
203
100
AcDbScale
 70
     0
300
10:1
140
10.0
141
1.0
290
     0
  0
SCALE
  5
214
102
{ACAD_REACTORS
330
203
102
}
330
203
100
AcDbScale
 70
     0
300
100:1
140
100.0
141
1.0
290
     0
  0
SCALE
  5
215
102
{ACAD_REACTORS
330
203
102
}
330
203
100
AcDbScale
 70
     0
300
1/128" = 1'-0"
140
0.0078125
141
12.0
290
     0
  0
SCALE
  5
216
102
{ACAD_REACTORS
330
203
102
}
330
203
100
AcDbScale
 70
     0
300
1/64" = 1'-0"
140
0.015625
141
12.0
290
     0
  0
SCALE
  5
217
102
{ACAD_REACTORS
330
203
102
}
330
203
100
AcDbScale
 70
     0
300
1/32" = 1'-0"
140
0.03125
141
12.0
290
     0
  0
SCALE
  5
218
102
{ACAD_REACTORS
330
203
102
}
330
203
100
AcDbScale
 70
     0
300
1/16" = 1'-0"
140
0.0625
141
12.0
290
     0
  0
SCALE
  5
219
102
{ACAD_REACTORS
330
203
102
}
330
203
100
AcDbScale
 70
     0
300
3/32" = 1'-0"
140
0.09375
141
12.0
290
     0
  0
SCALE
  5
21A
102
{ACAD_REACTORS
330
203
102
}
330
203
100
AcDbScale
 70
     0
300
1/8" = 1'-0"
140
0.125
141
12.0
290
     0
  0
SCALE
  5
21B
102
{ACAD_REACTORS
330
203
102
}
330
203
100
AcDbScale
 70
     0
300
3/16" = 1'-0"
140
0.1875
141
12.0
290
     0
  0
SCALE
  5
21C
102
{ACAD_REACTORS
330
203
102
}
330
203
100
AcDbScale
 70
     0
300
1/4" = 1'-0"
140
0.25
141
12.0
290
     0
  0
SCALE
  5
21D
102
{ACAD_REACTORS
330
203
102
}
330
203
100
AcDbScale
 70
     0
300
3/8" = 1'-0"
140
0.375
141
12.0
290
     0
  0
SCALE
  5
21E
102
{ACAD_REACTORS
330
203
102
}
330
203
100
AcDbScale
 70
     0
300
1/2" = 1'-0"
140
0.5
141
12.0
290
     0
  0
SCALE
  5
21F
102
{ACAD_REACTORS
330
203
102
}
330
203
100
AcDbScale
 70
     0
300
3/4" = 1'-0"
140
0.75
141
12.0
290
     0
  0
SCALE
  5
220
102
{ACAD_REACTORS
330
203
102
}
330
203
100
AcDbScale
 70
     0
300
1" = 1'-0"
140
1.0
141
12.0
290
     0
  0
SCALE
  5
221
102
{ACAD_REACTORS
330
203
102
}
330
203
100
AcDbScale
 70
     0
300
1-1/2" = 1'-0"
140
1.5
141
12.0
290
     0
  0
SCALE
  5
222
102
{ACAD_REACTORS
330
203
102
}
330
203
100
AcDbScale
 70
     0
300
3" = 1'-0"
140
3.0
141
12.0
290
     0
  0
SCALE
  5
223
102
{ACAD_REACTORS
330
203
102
}
330
203
100
AcDbScale
 70
     0
300
6" = 1'-0"
140
6.0
141
12.0
290
     0
  0
SCALE
  5
224
102
{ACAD_REACTORS
330
203
102
}
330
203
100
AcDbScale
 70
     0
300
1'-0" = 1'-0"
140
12.0
141
12.0
290
     0
  0
VISUALSTYLE
  5
2F
102
{ACAD_REACTORS
330
2A
102
}
102
{ACAD_XDICTIONARY
360
236
102
}
330
2A
100
AcDbVisualStyle
  2
2dWireframe
 70
     4
 71
     0
 72
     2
 73
     0
 90
        0
 40
-0.6
 41
-30.0
 62
     5
 63
     7
 74
     1
 91
        4
 64
     7
 65
   257
 75
     1
175
     1
 42
1.0
 92
        0
 66
   257
 43
1.0
 76
     1
 77
     6
 78
     2
 67
     7
 79
     5
170
     0
171
     0
290
     0
174
     0
 93
        1
 44
0.0
173
     0
291
     0
 45
0.0
1001
ACAD
1000
AcDbSavedByObjectVersion
1070
     0
  0
VISUALSTYLE
  5
31
102
{ACAD_REACTORS
330
2A
102
}
102
{ACAD_XDICTIONARY
360
23A
102
}
330
2A
100
AcDbVisualStyle
  2
3D Hidden
 70
     6
 71
     1
 72
     2
 73
     2
 90
        0
 40
-0.6
 41
-30.0
 62
     5
 63
     7
 74
     2
 91
        2
 64
     7
 65
   257
 75
     2
175
     1
 42
40.0
 92
        0
 66
   257
 43
1.0
 76
     1
 77
     6
 78
     2
 67
     7
 79
     3
170
     0
171
     0
290
     0
174
     0
 93
        1
 44
0.0
173
     0
291
     0
 45
0.0
1001
ACAD
1000
AcDbSavedByObjectVersion
1070
     0
  0
VISUALSTYLE
  5
30
102
{ACAD_REACTORS
330
2A
102
}
102
{ACAD_XDICTIONARY
360
238
102
}
330
2A
100
AcDbVisualStyle
  2
3dWireframe
 70
     5
 71
     0
 72
     2
 73
     0
 90
        0
 40
-0.6
 41
-30.0
 62
     5
 63
     7
 74
     1
 91
        4
 64
     7
 65
   257
 75
     1
175
     1
 42
1.0
 92
        0
 66
   257
 43
1.0
 76
     1
 77
     6
 78
     2
 67
     7
 79
     5
170
     0
171
     0
290
     0
174
     0
 93
        1
 44
0.0
173
     0
291
     0
 45
0.0
1001
ACAD
1000
AcDbSavedByObjectVersion
1070
     0
  0
VISUALSTYLE
  5
32
102
{ACAD_REACTORS
330
2A
102
}
102
{ACAD_XDICTIONARY
360
23C
102
}
330
2A
100
AcDbVisualStyle
  2
Basic
 70
     7
 71
     1
 72
     0
 73
     1
 90
        0
 40
-0.6
 41
-30.0
 62
     5
 63
     7
 74
     0
 91
        4
 64
     7
 65
   257
 75
     1
175
     1
 42
1.0
 92
        8
 66
     7
 43
1.0
 76
     1
 77
     6
 78
     2
 67
     7
 79
     5
170
     0
171
     0
290
     0
174
     0
 93
        1
 44
0.0
173
     0
291
     1
 45
0.0
1001
ACAD
1000
AcDbSavedByObjectVersion
1070
     0
  0
VISUALSTYLE
  5
36
102
{ACAD_REACTORS
330
2A
102
}
102
{ACAD_XDICTIONARY
360
244
102
}
330
2A
100
AcDbVisualStyle
  2
Brighten
 70
    12
 71
     2
 72
     2
 73
     0
 90
        0
 40
-0.6
 41
-30.0
 62
     5
 63
     7
 74
     1
 91
        4
 64
     7
 65
   257
 75
     1
175
     1
 42
1.0
 92
        8
 66
     7
 43
1.0
 76
     1
 77
     6
 78
     2
 67
     7
 79
     5
170
     0
171
     0
290
     0
174
     0
 93
        1
 44
50.0
173
     0
291
     1
 45
0.0
1001
ACAD
1000
AcDbSavedByObjectVersion
1070
     0
  0
VISUALSTYLE
  5
3A
102
{ACAD_REACTORS
330
2A
102
}
102
{ACAD_XDICTIONARY
360
24C
102
}
330
2A
100
AcDbVisualStyle
  2
ColorChange
 70
    16
 71
     2
 72
     2
 73
     3
 90
        0
 40
-0.6
 41
-30.0
 62
     5
 63
     8
 74
     1
 91
        4
 64
     7
 65
   257
 75
     1
175
     1
 42
1.0
 92
        8
 66
     8
 43
1.0
 76
     1
 77
     6
 78
     2
 67
     7
 79
     5
170
     0
171
     0
290
     0
174
     0
 93
        1
 44
0.0
173
     0
291
     1
 45
0.0
1001
ACAD
1000
AcDbSavedByObjectVersion
1070
     0
  0
VISUALSTYLE
  5
34
102
{ACAD_REACTORS
330
2A
102
}
102
{ACAD_XDICTIONARY
360
240
102
}
330
2A
100
AcDbVisualStyle
  2
Conceptual
 70
     9
 71
     3
 72
     2
 73
     0
 90
        0
 40
-0.6
 41
-30.0
 62
     5
 63
     7
 74
     2
 91
        2
 64
     7
 65
   257
 75
     1
175
     1
 42
40.0
 92
        8
 66
     7
 43
1.0
 76
     1
 77
     6
 78
     2
 67
     7
 79
     3
170
     0
171
     0
290
     0
174
     0
 93
        1
 44
0.0
173
     0
291
     0
 45
0.0
1001
ACAD
1000
AcDbSavedByObjectVersion
1070
     0
  0
VISUALSTYLE
  5
35
102
{ACAD_REACTORS
330
2A
102
}
102
{ACAD_XDICTIONARY
360
242
102
}
330
2A
100
AcDbVisualStyle
  2
Dim
 70
    11
 71
     2
 72
     2
 73
     0
 90
        0
 40
-0.6
 41
-30.0
 62
     5
 63
     7
 74
     1
 91
        4
 64
     7
 65
   257
 75
     1
175
     1
 42
1.0
 92
        8
 66
     7
 43
1.0
 76
     1
 77
     6
 78
     2
 67
     7
 79
     5
170
     0
171
     0
290
     0
174
     0
 93
        1
 44
-50.0
173
     0
291
     1
 45
0.0
1001
ACAD
1000
AcDbSavedByObjectVersion
1070
     0
  0
VISUALSTYLE
  5
39
102
{ACAD_REACTORS
330
2A
102
}
102
{ACAD_XDICTIONARY
360
24A
102
}
330
2A
100
AcDbVisualStyle
  2
Facepattern
 70
    15
 71
     2
 72
     2
 73
     0
 90
        0
 40
-0.6
 41
-30.0
 62
     5
 63
     7
 74
     1
 91
        4
 64
     7
 65
   257
 75
     1
175
     1
 42
1.0
 92
        8
 66
     7
 43
1.0
 76
     1
 77
     6
 78
     2
 67
     7
 79
     5
170
     0
171
     0
290
     0
174
     0
 93
        1
 44
0.0
173
     0
291
     1
 45
0.0
1001
ACAD
1000
AcDbSavedByObjectVersion
1070
     0
  0
VISUALSTYLE
  5
2B
102
{ACAD_REACTORS
330
2A
102
}
102
{ACAD_XDICTIONARY
360
22E
102
}
330
2A
100
AcDbVisualStyle
  2
Flat
 70
     0
 71
     2
 72
     1
 73
     1
 90
        2
 40
-0.6
 41
30.0
 62
     5
 63
     7
 74
     0
 91
        4
 64
     7
 65
   257
 75
     1
175
     1
 42
1.0
 92
        8
 66
     7
 43
1.0
 76
     1
 77
     6
 78
     2
 67
     7
 79
     5
170
     0
171
     0
290
     0
174
     0
 93
       13
 44
0.0
173
     0
291
     1
 45
0.0
1001
ACAD
1000
AcDbSavedByObjectVersion
1070
     0
  0
VISUALSTYLE
  5
2C
102
{ACAD_REACTORS
330
2A
102
}
102
{ACAD_XDICTIONARY
360
230
102
}
330
2A
100
AcDbVisualStyle
  2
FlatWithEdges
 70
     1
 71
     2
 72
     1
 73
     1
 90
        2
 40
-0.6
 41
30.0
 62
     5
 63
     7
 74
     1
 91
        4
 64
     7
 65
   257
 75
     1
175
     1
 42
1.0
 92
        0
 66
   257
 43
1.0
 76
     1
 77
     6
 78
     2
 67
     7
 79
     5
170
     0
171
     0
290
     0
174
     0
 93
       13
 44
0.0
173
     0
291
     1
 45
0.0
1001
ACAD
1000
AcDbSavedByObjectVersion
1070
     0
  0
VISUALSTYLE
  5
2D
102
{ACAD_REACTORS
330
2A
102
}
102
{ACAD_XDICTIONARY
360
232
102
}
330
2A
100
AcDbVisualStyle
  2
Gouraud
 70
     2
 71
     2
 72
     2
 73
     1
 90
        2
 40
-0.6
 41
30.0
 62
     5
 63
     7
 74
     0
 91
        4
 64
     7
 65
   257
 75
     1
175
     1
 42
1.0
 92
        0
 66
     7
 43
1.0
 76
     1
 77
     6
 78
     2
 67
     7
 79
     5
170
     0
171
     0
290
     0
174
     0
 93
       13
 44
0.0
173
     0
291
     1
 45
0.0
1001
ACAD
1000
AcDbSavedByObjectVersion
1070
     0
  0
VISUALSTYLE
  5
2E
102
{ACAD_REACTORS
330
2A
102
}
102
{ACAD_XDICTIONARY
360
234
102
}
330
2A
100
AcDbVisualStyle
  2
GouraudWithEdges
 70
     3
 71
     2
 72
     2
 73
     1
 90
        2
 40
-0.6
 41
30.0
 62
     5
 63
     7
 74
     1
 91
        4
 64
     7
 65
   257
 75
     1
175
     1
 42
1.0
 92
        0
 66
   257
 43
1.0
 76
     1
 77
     6
 78
     2
 67
     7
 79
     5
170
     0
171
     0
290
     0
174
     0
 93
       13
 44
0.0
173
     0
291
     1
 45
0.0
1001
ACAD
1000
AcDbSavedByObjectVersion
1070
     0
  0
VISUALSTYLE
  5
38
102
{ACAD_REACTORS
330
2A
102
}
102
{ACAD_XDICTIONARY
360
248
102
}
330
2A
100
AcDbVisualStyle
  2
Linepattern
 70
    14
 71
     2
 72
     2
 73
     0
 90
        0
 40
-0.6
 41
-30.0
 62
     5
 63
     7
 74
     1
 91
        4
 64
     7
 65
   257
 75
     7
175
     7
 42
1.0
 92
        8
 66
     7
 43
1.0
 76
     1
 77
     6
 78
     2
 67
     7
 79
     5
170
     0
171
     0
290
     0
174
     0
 93
        1
 44
0.0
173
     0
291
     1
 45
0.0
1001
ACAD
1000
AcDbSavedByObjectVersion
1070
     0
  0
VISUALSTYLE
  5
33
102
{ACAD_REACTORS
330
2A
102
}
102
{ACAD_XDICTIONARY
360
23E
102
}
330
2A
100
AcDbVisualStyle
  2
Realistic
 70
     8
 71
     2
 72
     2
 73
     0
 90
        0
 40
-0.6
 41
-30.0
 62
     5
 63
     7
 74
     1
 91
        0
 64
     7
 65
   257
 75
     1
175
     1
 42
1.0
 92
        8
 66
     8
 43
1.0
 76
     1
 77
     6
 78
     2
 67
     7
 79
     5
170
     0
171
     0
290
     0
174
     0
 93
       13
 44
0.0
173
     0
291
     0
 45
0.0
1001
ACAD
1000
AcDbSavedByObjectVersion
1070
     0
  0
VISUALSTYLE
  5
37
102
{ACAD_REACTORS
330
2A
102
}
102
{ACAD_XDICTIONARY
360
246
102
}
330
2A
100
AcDbVisualStyle
  2
Thicken
 70
    13
 71
     2
 72
     2
 73
     0
 90
        0
 40
-0.6
 41
-30.0
 62
     5
 63
     7
 74
     1
 91
        4
 64
     7
 65
   257
 75
     1
175
     1
 42
1.0
 92
       12
 66
     7
 43
1.0
 76
     1
 77
     6
 78
     2
 67
     7
 79
     5
170
     0
171
     0
290
     0
174
     0
 93
        1
 44
0.0
173
     0
291
     1
 45
0.0
1001
ACAD
1000
AcDbSavedByObjectVersion
1070
     0
  0
DICTIONARYVAR
  5
22A
102
{ACAD_REACTORS
330
225
102
}
330
225
100
DictionaryVariables
280
     0
  1
1:1
  0
DICTIONARYVAR
  5
22B
102
{ACAD_REACTORS
330
225
102
}
330
225
100
DictionaryVariables
280
     0
  1
2
  0
DICTIONARYVAR
  5
22C
102
{ACAD_REACTORS
330
225
102
}
330
225
100
DictionaryVariables
280
     0
  1
1
  0
DICTIONARYVAR
  5
229
102
{ACAD_REACTORS
330
225
102
}
330
225
100
DictionaryVariables
280
     0
  1
80.000000
  0
DICTIONARYVAR
  5
228
102
{ACAD_REACTORS
330
225
102
}
330
225
100
DictionaryVariables
280
     0
  1
5.000000
  0
DICTIONARY
  5
250
330
3D
100
AcDbDictionary
280
     1
281
     1
  3
ACAD_XREC_ROUNDTRIP
360
251
  0
DICTIONARY
  5
24E
330
3C
100
AcDbDictionary
280
     1
281
     1
  3
ACAD_XREC_ROUNDTRIP
360
24F
  0
DICTIONARY
  5
252
330
3E
100
AcDbDictionary
280
     1
281
     1
  3
ACAD_XREC_ROUNDTRIP
360
253
  0
DICTIONARY
  5
236
330
2F
100
AcDbDictionary
280
     1
281
     1
  3
ACAD_XREC_ROUNDTRIP
360
237
  0
DICTIONARY
  5
23A
330
31
100
AcDbDictionary
280
     1
281
     1
  3
ACAD_XREC_ROUNDTRIP
360
23B
  0
DICTIONARY
  5
238
330
30
100
AcDbDictionary
280
     1
281
     1
  3
ACAD_XREC_ROUNDTRIP
360
239
  0
DICTIONARY
  5
23C
330
32
100
AcDbDictionary
280
     1
281
     1
  3
ACAD_XREC_ROUNDTRIP
360
23D
  0
DICTIONARY
  5
244
330
36
100
AcDbDictionary
280
     1
281
     1
  3
ACAD_XREC_ROUNDTRIP
360
245
  0
DICTIONARY
  5
24C
330
3A
100
AcDbDictionary
280
     1
281
     1
  3
ACAD_XREC_ROUNDTRIP
360
24D
  0
DICTIONARY
  5
240
330
34
100
AcDbDictionary
280
     1
281
     1
  3
ACAD_XREC_ROUNDTRIP
360
241
  0
DICTIONARY
  5
242
330
35
100
AcDbDictionary
280
     1
281
     1
  3
ACAD_XREC_ROUNDTRIP
360
243
  0
DICTIONARY
  5
24A
330
39
100
AcDbDictionary
280
     1
281
     1
  3
ACAD_XREC_ROUNDTRIP
360
24B
  0
DICTIONARY
  5
22E
330
2B
100
AcDbDictionary
280
     1
281
     1
  3
ACAD_XREC_ROUNDTRIP
360
22F
  0
DICTIONARY
  5
230
330
2C
100
AcDbDictionary
280
     1
281
     1
  3
ACAD_XREC_ROUNDTRIP
360
231
  0
DICTIONARY
  5
232
330
2D
100
AcDbDictionary
280
     1
281
     1
  3
ACAD_XREC_ROUNDTRIP
360
233
  0
DICTIONARY
  5
234
330
2E
100
AcDbDictionary
280
     1
281
     1
  3
ACAD_XREC_ROUNDTRIP
360
235
  0
DICTIONARY
  5
248
330
38
100
AcDbDictionary
280
     1
281
     1
  3
ACAD_XREC_ROUNDTRIP
360
249
  0
DICTIONARY
  5
23E
330
33
100
AcDbDictionary
280
     1
281
     1
  3
ACAD_XREC_ROUNDTRIP
360
23F
  0
DICTIONARY
  5
246
330
37
100
AcDbDictionary
280
     1
281
     1
  3
ACAD_XREC_ROUNDTRIP
360
247
  0
XRECORD
  5
251
102
{ACAD_REACTORS
330
250
102
}
330
250
100
AcDbXrecord
280
     1
102
MATERIAL
148
0.0
149
0.0
149
0.0
 93
        0
 94
      127
282
     0
 72
     1
 77
     1
171
     1
175
     1
179
     1
273
     0
  0
XRECORD
  5
24F
102
{ACAD_REACTORS
330
24E
102
}
330
24E
100
AcDbXrecord
280
     1
102
MATERIAL
148
0.0
149
0.0
149
0.0
 93
        0
 94
      127
282
     0
 72
     1
 77
     1
171
     1
175
     1
179
     1
273
     0
  0
XRECORD
  5
253
102
{ACAD_REACTORS
330
252
102
}
330
252
100
AcDbXrecord
280
     1
102
MATERIAL
148
0.0
149
0.0
149
0.0
 93
        0
 94
      127
282
     0
 72
     1
 77
     1
171
     1
175
     1
179
     1
273
     0
  0
XRECORD
  5
237
102
{ACAD_REACTORS
330
236
102
}
330
236
100
AcDbXrecord
280
     1
102
RTVSPropertyOp0
 70
     1
102
RTVSPropertyOp1
 70
     1
102
RTVSPropertyOp2
 70
     1
102
RTVSPropertyOp3
 70
     1
102
RTVSPropertyOp4
 70
     1
102
RTVSPropertyOp5
 70
     1
102
RTVSPropertyOp6
 70
     1
102
RTVSPropertyOp7
 70
     1
102
RTVSPropertyOp8
 70
     1
102
RTVSPropertyOp9
 70
     1
102
RTVSPropertyOp10
 70
     1
102
RTVSPropertyOp11
 70
     1
102
RTVSPropertyOp12
 70
     1
102
RTVSPropertyOp13
 70
     1
102
RTVSPropertyOp14
 70
     1
102
RTVSPropertyOp15
 70
     1
102
RTVSPropertyOp16
 70
     1
102
RTVSPropertyOp17
 70
     1
102
RTVSPropertyOp18
 70
     1
102
RTVSPropertyOp19
 70
     1
102
RTVSPropertyOp20
 70
     1
102
RTVSPropertyOp21
 70
     1
102
RTVSPropertyOp22
 70
     1
102
RTVSPropertyOp23
 70
     1
102
RTVSPropertyOp24
 70
     1
102
RTVSPropertyOp25
 70
     1
102
RTVSPropertyOp26
 70
     1
102
RTVSPropertyOp27
 70
     1
102
RTVSPropertyOp28
 70
     1
102
RTVSPropertyOp29
 70
     1
102
RTVSPropertyOp30
 70
     1
102
RTVSPropertyOp31
 70
     1
102
RTVSPropertyOp32
 70
     1
  0
XRECORD
  5
23B
102
{ACAD_REACTORS
330
23A
102
}
330
23A
100
AcDbXrecord
280
     1
102
RTVSPropertyOp0
 70
     1
102
RTVSPropertyOp1
 70
     1
102
RTVSPropertyOp2
 70
     1
102
RTVSPropertyOp3
 70
     1
102
RTVSPropertyOp4
 70
     1
102
RTVSPropertyOp5
 70
     1
102
RTVSPropertyOp6
 70
     1
102
RTVSPropertyOp7
 70
     1
102
RTVSPropertyOp8
 70
     1
102
RTVSPropertyOp9
 70
     1
102
RTVSPropertyOp10
 70
     1
102
RTVSPropertyOp11
 70
     1
102
RTVSPropertyOp12
 70
     1
102
RTVSPropertyOp13
 70
     1
102
RTVSPropertyOp14
 70
     1
102
RTVSPropertyOp15
 70
     1
102
RTVSPropertyOp16
 70
     1
102
RTVSPropertyOp17
 70
     1
102
RTVSPropertyOp18
 70
     1
102
RTVSPropertyOp19
 70
     1
102
RTVSPropertyOp20
 70
     1
102
RTVSPropertyOp21
 70
     1
102
RTVSPropertyOp22
 70
     1
102
RTVSPropertyOp23
 70
     1
102
RTVSPropertyOp24
 70
     1
102
RTVSPropertyOp25
 70
     1
102
RTVSPropertyOp26
 70
     1
102
RTVSPropertyOp27
 70
     1
102
RTVSPropertyOp28
 70
     1
102
RTVSPropertyOp29
 70
     1
102
RTVSPropertyOp30
 70
     1
102
RTVSPropertyOp31
 70
     1
102
RTVSPropertyOp32
 70
     1
  0
XRECORD
  5
239
102
{ACAD_REACTORS
330
238
102
}
330
238
100
AcDbXrecord
280
     1
102
RTVSPropertyOp0
 70
     1
102
RTVSPropertyOp1
 70
     1
102
RTVSPropertyOp2
 70
     1
102
RTVSPropertyOp3
 70
     1
102
RTVSPropertyOp4
 70
     1
102
RTVSPropertyOp5
 70
     1
102
RTVSPropertyOp6
 70
     1
102
RTVSPropertyOp7
 70
     1
102
RTVSPropertyOp8
 70
     1
102
RTVSPropertyOp9
 70
     1
102
RTVSPropertyOp10
 70
     1
102
RTVSPropertyOp11
 70
     1
102
RTVSPropertyOp12
 70
     1
102
RTVSPropertyOp13
 70
     1
102
RTVSPropertyOp14
 70
     1
102
RTVSPropertyOp15
 70
     1
102
RTVSPropertyOp16
 70
     1
102
RTVSPropertyOp17
 70
     1
102
RTVSPropertyOp18
 70
     1
102
RTVSPropertyOp19
 70
     1
102
RTVSPropertyOp20
 70
     1
102
RTVSPropertyOp21
 70
     1
102
RTVSPropertyOp22
 70
     1
102
RTVSPropertyOp23
 70
     1
102
RTVSPropertyOp24
 70
     1
102
RTVSPropertyOp25
 70
     1
102
RTVSPropertyOp26
 70
     1
102
RTVSPropertyOp27
 70
     1
102
RTVSPropertyOp28
 70
     1
102
RTVSPropertyOp29
 70
     1
102
RTVSPropertyOp30
 70
     1
102
RTVSPropertyOp31
 70
     1
102
RTVSPropertyOp32
 70
     1
  0
XRECORD
  5
23D
102
{ACAD_REACTORS
330
23C
102
}
330
23C
100
AcDbXrecord
280
     1
102
RTVSPropertyOp0
 70
     1
102
RTVSPropertyOp1
 70
     1
102
RTVSPropertyOp2
 70
     1
102
RTVSPropertyOp3
 70
     1
102
RTVSPropertyOp4
 70
     1
102
RTVSPropertyOp5
 70
     1
102
RTVSPropertyOp6
 70
     1
102
RTVSPropertyOp7
 70
     1
102
RTVSPropertyOp8
 70
     1
102
RTVSPropertyOp9
 70
     1
102
RTVSPropertyOp10
 70
     1
102
RTVSPropertyOp11
 70
     1
102
RTVSPropertyOp12
 70
     1
102
RTVSPropertyOp13
 70
     1
102
RTVSPropertyOp14
 70
     1
102
RTVSPropertyOp15
 70
     1
102
RTVSPropertyOp16
 70
     1
102
RTVSPropertyOp17
 70
     1
102
RTVSPropertyOp18
 70
     1
102
RTVSPropertyOp19
 70
     1
102
RTVSPropertyOp20
 70
     1
102
RTVSPropertyOp21
 70
     1
102
RTVSPropertyOp22
 70
     1
102
RTVSPropertyOp23
 70
     1
102
RTVSPropertyOp24
 70
     1
102
RTVSPropertyOp25
 70
     1
102
RTVSPropertyOp26
 70
     1
102
RTVSPropertyOp27
 70
     1
102
RTVSPropertyOp28
 70
     1
102
RTVSPropertyOp29
 70
     1
102
RTVSPropertyOp30
 70
     1
102
RTVSPropertyOp31
 70
     1
102
RTVSPropertyOp32
 70
     1
  0
XRECORD
  5
245
102
{ACAD_REACTORS
330
244
102
}
330
244
100
AcDbXrecord
280
     1
102
RTVSPropertyOp0
 70
     1
102
RTVSPropertyOp1
 70
     1
102
RTVSPropertyOp2
 70
     1
102
RTVSPropertyOp3
 70
     1
102
RTVSPropertyOp4
 70
     1
102
RTVSPropertyOp5
 70
     1
102
RTVSPropertyOp6
 70
     1
102
RTVSPropertyOp7
 70
     1
102
RTVSPropertyOp8
 70
     1
102
RTVSPropertyOp9
 70
     1
102
RTVSPropertyOp10
 70
     1
102
RTVSPropertyOp11
 70
     1
102
RTVSPropertyOp12
 70
     1
102
RTVSPropertyOp13
 70
     1
102
RTVSPropertyOp14
 70
     1
102
RTVSPropertyOp15
 70
     1
102
RTVSPropertyOp16
 70
     1
102
RTVSPropertyOp17
 70
     1
102
RTVSPropertyOp18
 70
     1
102
RTVSPropertyOp19
 70
     1
102
RTVSPropertyOp20
 70
     1
102
RTVSPropertyOp21
 70
     1
102
RTVSPropertyOp22
 70
     1
102
RTVSPropertyOp23
 70
     1
102
RTVSPropertyOp24
 70
     1
102
RTVSPropertyOp25
 70
     1
102
RTVSPropertyOp26
 70
     1
102
RTVSPropertyOp27
 70
     1
102
RTVSPropertyOp28
 70
     1
102
RTVSPropertyOp29
 70
     1
102
RTVSPropertyOp30
 70
     1
102
RTVSPropertyOp31
 70
     1
102
RTVSPropertyOp32
 70
     1
  0
XRECORD
  5
24D
102
{ACAD_REACTORS
330
24C
102
}
330
24C
100
AcDbXrecord
280
     1
102
RTVSPropertyOp0
 70
     1
102
RTVSPropertyOp1
 70
     1
102
RTVSPropertyOp2
 70
     1
102
RTVSPropertyOp3
 70
     1
102
RTVSPropertyOp4
 70
     1
102
RTVSPropertyOp5
 70
     1
102
RTVSPropertyOp6
 70
     1
102
RTVSPropertyOp7
 70
     1
102
RTVSPropertyOp8
 70
     1
102
RTVSPropertyOp9
 70
     1
102
RTVSPropertyOp10
 70
     1
102
RTVSPropertyOp11
 70
     1
102
RTVSPropertyOp12
 70
     1
102
RTVSPropertyOp13
 70
     1
102
RTVSPropertyOp14
 70
     1
102
RTVSPropertyOp15
 70
     1
102
RTVSPropertyOp16
 70
     1
102
RTVSPropertyOp17
 70
     1
102
RTVSPropertyOp18
 70
     1
102
RTVSPropertyOp19
 70
     1
102
RTVSPropertyOp20
 70
     1
102
RTVSPropertyOp21
 70
     1
102
RTVSPropertyOp22
 70
     1
102
RTVSPropertyOp23
 70
     1
102
RTVSPropertyOp24
 70
     1
102
RTVSPropertyOp25
 70
     1
102
RTVSPropertyOp26
 70
     1
102
RTVSPropertyOp27
 70
     1
102
RTVSPropertyOp28
 70
     1
102
RTVSPropertyOp29
 70
     1
102
RTVSPropertyOp30
 70
     1
102
RTVSPropertyOp31
 70
     1
102
RTVSPropertyOp32
 70
     1
  0
XRECORD
  5
241
102
{ACAD_REACTORS
330
240
102
}
330
240
100
AcDbXrecord
280
     1
102
RTVSPropertyOp0
 70
     1
102
RTVSPropertyOp1
 70
     1
102
RTVSPropertyOp2
 70
     1
102
RTVSPropertyOp3
 70
     1
102
RTVSPropertyOp4
 70
     1
102
RTVSPropertyOp5
 70
     1
102
RTVSPropertyOp6
 70
     1
102
RTVSPropertyOp7
 70
     1
102
RTVSPropertyOp8
 70
     1
102
RTVSPropertyOp9
 70
     1
102
RTVSPropertyOp10
 70
     1
102
RTVSPropertyOp11
 70
     1
102
RTVSPropertyOp12
 70
     1
102
RTVSPropertyOp13
 70
     1
102
RTVSPropertyOp14
 70
     1
102
RTVSPropertyOp15
 70
     1
102
RTVSPropertyOp16
 70
     1
102
RTVSPropertyOp17
 70
     1
102
RTVSPropertyOp18
 70
     1
102
RTVSPropertyOp19
 70
     1
102
RTVSPropertyOp20
 70
     1
102
RTVSPropertyOp21
 70
     1
102
RTVSPropertyOp22
 70
     1
102
RTVSPropertyOp23
 70
     1
102
RTVSPropertyOp24
 70
     1
102
RTVSPropertyOp25
 70
     1
102
RTVSPropertyOp26
 70
     1
102
RTVSPropertyOp27
 70
     1
102
RTVSPropertyOp28
 70
     1
102
RTVSPropertyOp29
 70
     1
102
RTVSPropertyOp30
 70
     1
102
RTVSPropertyOp31
 70
     1
102
RTVSPropertyOp32
 70
     1
  0
XRECORD
  5
243
102
{ACAD_REACTORS
330
242
102
}
330
242
100
AcDbXrecord
280
     1
102
RTVSPropertyOp0
 70
     1
102
RTVSPropertyOp1
 70
     1
102
RTVSPropertyOp2
 70
     1
102
RTVSPropertyOp3
 70
     1
102
RTVSPropertyOp4
 70
     1
102
RTVSPropertyOp5
 70
     1
102
RTVSPropertyOp6
 70
     1
102
RTVSPropertyOp7
 70
     1
102
RTVSPropertyOp8
 70
     1
102
RTVSPropertyOp9
 70
     1
102
RTVSPropertyOp10
 70
     1
102
RTVSPropertyOp11
 70
     1
102
RTVSPropertyOp12
 70
     1
102
RTVSPropertyOp13
 70
     1
102
RTVSPropertyOp14
 70
     1
102
RTVSPropertyOp15
 70
     1
102
RTVSPropertyOp16
 70
     1
102
RTVSPropertyOp17
 70
     1
102
RTVSPropertyOp18
 70
     1
102
RTVSPropertyOp19
 70
     1
102
RTVSPropertyOp20
 70
     1
102
RTVSPropertyOp21
 70
     1
102
RTVSPropertyOp22
 70
     1
102
RTVSPropertyOp23
 70
     1
102
RTVSPropertyOp24
 70
     1
102
RTVSPropertyOp25
 70
     1
102
RTVSPropertyOp26
 70
     1
102
RTVSPropertyOp27
 70
     1
102
RTVSPropertyOp28
 70
     1
102
RTVSPropertyOp29
 70
     1
102
RTVSPropertyOp30
 70
     1
102
RTVSPropertyOp31
 70
     1
102
RTVSPropertyOp32
 70
     1
  0
XRECORD
  5
24B
102
{ACAD_REACTORS
330
24A
102
}
330
24A
100
AcDbXrecord
280
     1
102
RTVSPropertyOp0
 70
     1
102
RTVSPropertyOp1
 70
     1
102
RTVSPropertyOp2
 70
     1
102
RTVSPropertyOp3
 70
     1
102
RTVSPropertyOp4
 70
     1
102
RTVSPropertyOp5
 70
     1
102
RTVSPropertyOp6
 70
     1
102
RTVSPropertyOp7
 70
     1
102
RTVSPropertyOp8
 70
     1
102
RTVSPropertyOp9
 70
     1
102
RTVSPropertyOp10
 70
     1
102
RTVSPropertyOp11
 70
     1
102
RTVSPropertyOp12
 70
     1
102
RTVSPropertyOp13
 70
     1
102
RTVSPropertyOp14
 70
     1
102
RTVSPropertyOp15
 70
     1
102
RTVSPropertyOp16
 70
     1
102
RTVSPropertyOp17
 70
     1
102
RTVSPropertyOp18
 70
     1
102
RTVSPropertyOp19
 70
     1
102
RTVSPropertyOp20
 70
     1
102
RTVSPropertyOp21
 70
     1
102
RTVSPropertyOp22
 70
     1
102
RTVSPropertyOp23
 70
     1
102
RTVSPropertyOp24
 70
     1
102
RTVSPropertyOp25
 70
     1
102
RTVSPropertyOp26
 70
     1
102
RTVSPropertyOp27
 70
     1
102
RTVSPropertyOp28
 70
     1
102
RTVSPropertyOp29
 70
     1
102
RTVSPropertyOp30
 70
     1
102
RTVSPropertyOp31
 70
     1
102
RTVSPropertyOp32
 70
     1
  0
XRECORD
  5
22F
102
{ACAD_REACTORS
330
22E
102
}
330
22E
100
AcDbXrecord
280
     1
102
RTVSPropertyOp0
 70
     1
102
RTVSPropertyOp1
 70
     1
102
RTVSPropertyOp2
 70
     1
102
RTVSPropertyOp3
 70
     1
102
RTVSPropertyOp4
 70
     1
102
RTVSPropertyOp5
 70
     1
102
RTVSPropertyOp6
 70
     1
102
RTVSPropertyOp7
 70
     1
102
RTVSPropertyOp8
 70
     1
102
RTVSPropertyOp9
 70
     1
102
RTVSPropertyOp10
 70
     1
102
RTVSPropertyOp11
 70
     1
102
RTVSPropertyOp12
 70
     1
102
RTVSPropertyOp13
 70
     1
102
RTVSPropertyOp14
 70
     1
102
RTVSPropertyOp15
 70
     1
102
RTVSPropertyOp16
 70
     1
102
RTVSPropertyOp17
 70
     1
102
RTVSPropertyOp18
 70
     1
102
RTVSPropertyOp19
 70
     1
102
RTVSPropertyOp20
 70
     1
102
RTVSPropertyOp21
 70
     1
102
RTVSPropertyOp22
 70
     1
102
RTVSPropertyOp23
 70
     1
102
RTVSPropertyOp24
 70
     1
102
RTVSPropertyOp25
 70
     1
102
RTVSPropertyOp26
 70
     1
102
RTVSPropertyOp27
 70
     1
102
RTVSPropertyOp28
 70
     1
102
RTVSPropertyOp29
 70
     1
102
RTVSPropertyOp30
 70
     1
102
RTVSPropertyOp31
 70
     1
102
RTVSPropertyOp32
 70
     1
  0
XRECORD
  5
231
102
{ACAD_REACTORS
330
230
102
}
330
230
100
AcDbXrecord
280
     1
102
RTVSPropertyOp0
 70
     1
102
RTVSPropertyOp1
 70
     1
102
RTVSPropertyOp2
 70
     1
102
RTVSPropertyOp3
 70
     1
102
RTVSPropertyOp4
 70
     1
102
RTVSPropertyOp5
 70
     1
102
RTVSPropertyOp6
 70
     1
102
RTVSPropertyOp7
 70
     1
102
RTVSPropertyOp8
 70
     1
102
RTVSPropertyOp9
 70
     1
102
RTVSPropertyOp10
 70
     1
102
RTVSPropertyOp11
 70
     1
102
RTVSPropertyOp12
 70
     1
102
RTVSPropertyOp13
 70
     1
102
RTVSPropertyOp14
 70
     1
102
RTVSPropertyOp15
 70
     1
102
RTVSPropertyOp16
 70
     1
102
RTVSPropertyOp17
 70
     1
102
RTVSPropertyOp18
 70
     1
102
RTVSPropertyOp19
 70
     1
102
RTVSPropertyOp20
 70
     1
102
RTVSPropertyOp21
 70
     1
102
RTVSPropertyOp22
 70
     1
102
RTVSPropertyOp23
 70
     1
102
RTVSPropertyOp24
 70
     1
102
RTVSPropertyOp25
 70
     1
102
RTVSPropertyOp26
 70
     1
102
RTVSPropertyOp27
 70
     1
102
RTVSPropertyOp28
 70
     1
102
RTVSPropertyOp29
 70
     1
102
RTVSPropertyOp30
 70
     1
102
RTVSPropertyOp31
 70
     1
102
RTVSPropertyOp32
 70
     1
  0
XRECORD
  5
233
102
{ACAD_REACTORS
330
232
102
}
330
232
100
AcDbXrecord
280
     1
102
RTVSPropertyOp0
 70
     1
102
RTVSPropertyOp1
 70
     1
102
RTVSPropertyOp2
 70
     1
102
RTVSPropertyOp3
 70
     1
102
RTVSPropertyOp4
 70
     1
102
RTVSPropertyOp5
 70
     1
102
RTVSPropertyOp6
 70
     1
102
RTVSPropertyOp7
 70
     1
102
RTVSPropertyOp8
 70
     1
102
RTVSPropertyOp9
 70
     1
102
RTVSPropertyOp10
 70
     1
102
RTVSPropertyOp11
 70
     1
102
RTVSPropertyOp12
 70
     1
102
RTVSPropertyOp13
 70
     1
102
RTVSPropertyOp14
 70
     1
102
RTVSPropertyOp15
 70
     1
102
RTVSPropertyOp16
 70
     1
102
RTVSPropertyOp17
 70
     1
102
RTVSPropertyOp18
 70
     1
102
RTVSPropertyOp19
 70
     1
102
RTVSPropertyOp20
 70
     1
102
RTVSPropertyOp21
 70
     1
102
RTVSPropertyOp22
 70
     1
102
RTVSPropertyOp23
 70
     1
102
RTVSPropertyOp24
 70
     1
102
RTVSPropertyOp25
 70
     1
102
RTVSPropertyOp26
 70
     1
102
RTVSPropertyOp27
 70
     1
102
RTVSPropertyOp28
 70
     1
102
RTVSPropertyOp29
 70
     1
102
RTVSPropertyOp30
 70
     1
102
RTVSPropertyOp31
 70
     1
102
RTVSPropertyOp32
 70
     1
  0
XRECORD
  5
235
102
{ACAD_REACTORS
330
234
102
}
330
234
100
AcDbXrecord
280
     1
102
RTVSPropertyOp0
 70
     1
102
RTVSPropertyOp1
 70
     1
102
RTVSPropertyOp2
 70
     1
102
RTVSPropertyOp3
 70
     1
102
RTVSPropertyOp4
 70
     1
102
RTVSPropertyOp5
 70
     1
102
RTVSPropertyOp6
 70
     1
102
RTVSPropertyOp7
 70
     1
102
RTVSPropertyOp8
 70
     1
102
RTVSPropertyOp9
 70
     1
102
RTVSPropertyOp10
 70
     1
102
RTVSPropertyOp11
 70
     1
102
RTVSPropertyOp12
 70
     1
102
RTVSPropertyOp13
 70
     1
102
RTVSPropertyOp14
 70
     1
102
RTVSPropertyOp15
 70
     1
102
RTVSPropertyOp16
 70
     1
102
RTVSPropertyOp17
 70
     1
102
RTVSPropertyOp18
 70
     1
102
RTVSPropertyOp19
 70
     1
102
RTVSPropertyOp20
 70
     1
102
RTVSPropertyOp21
 70
     1
102
RTVSPropertyOp22
 70
     1
102
RTVSPropertyOp23
 70
     1
102
RTVSPropertyOp24
 70
     1
102
RTVSPropertyOp25
 70
     1
102
RTVSPropertyOp26
 70
     1
102
RTVSPropertyOp27
 70
     1
102
RTVSPropertyOp28
 70
     1
102
RTVSPropertyOp29
 70
     1
102
RTVSPropertyOp30
 70
     1
102
RTVSPropertyOp31
 70
     1
102
RTVSPropertyOp32
 70
     1
  0
XRECORD
  5
249
102
{ACAD_REACTORS
330
248
102
}
330
248
100
AcDbXrecord
280
     1
102
RTVSPropertyOp0
 70
     1
102
RTVSPropertyOp1
 70
     1
102
RTVSPropertyOp2
 70
     1
102
RTVSPropertyOp3
 70
     1
102
RTVSPropertyOp4
 70
     1
102
RTVSPropertyOp5
 70
     1
102
RTVSPropertyOp6
 70
     1
102
RTVSPropertyOp7
 70
     1
102
RTVSPropertyOp8
 70
     1
102
RTVSPropertyOp9
 70
     1
102
RTVSPropertyOp10
 70
     1
102
RTVSPropertyOp11
 70
     1
102
RTVSPropertyOp12
 70
     1
102
RTVSPropertyOp13
 70
     1
102
RTVSPropertyOp14
 70
     1
102
RTVSPropertyOp15
 70
     1
102
RTVSPropertyOp16
 70
     1
102
RTVSPropertyOp17
 70
     1
102
RTVSPropertyOp18
 70
     1
102
RTVSPropertyOp19
 70
     1
102
RTVSPropertyOp20
 70
     1
102
RTVSPropertyOp21
 70
     1
102
RTVSPropertyOp22
 70
     1
102
RTVSPropertyOp23
 70
     1
102
RTVSPropertyOp24
 70
     1
102
RTVSPropertyOp25
 70
     1
102
RTVSPropertyOp26
 70
     1
102
RTVSPropertyOp27
 70
     1
102
RTVSPropertyOp28
 70
     1
102
RTVSPropertyOp29
 70
     1
102
RTVSPropertyOp30
 70
     1
102
RTVSPropertyOp31
 70
     1
102
RTVSPropertyOp32
 70
     1
  0
XRECORD
  5
23F
102
{ACAD_REACTORS
330
23E
102
}
330
23E
100
AcDbXrecord
280
     1
102
RTVSPropertyOp0
 70
     1
102
RTVSPropertyOp1
 70
     1
102
RTVSPropertyOp2
 70
     1
102
RTVSPropertyOp3
 70
     1
102
RTVSPropertyOp4
 70
     1
102
RTVSPropertyOp5
 70
     1
102
RTVSPropertyOp6
 70
     1
102
RTVSPropertyOp7
 70
     1
102
RTVSPropertyOp8
 70
     1
102
RTVSPropertyOp9
 70
     1
102
RTVSPropertyOp10
 70
     1
102
RTVSPropertyOp11
 70
     1
102
RTVSPropertyOp12
 70
     1
102
RTVSPropertyOp13
 70
     1
102
RTVSPropertyOp14
 70
     1
102
RTVSPropertyOp15
 70
     1
102
RTVSPropertyOp16
 70
     1
102
RTVSPropertyOp17
 70
     1
102
RTVSPropertyOp18
 70
     1
102
RTVSPropertyOp19
 70
     1
102
RTVSPropertyOp20
 70
     1
102
RTVSPropertyOp21
 70
     1
102
RTVSPropertyOp22
 70
     1
102
RTVSPropertyOp23
 70
     1
102
RTVSPropertyOp24
 70
     1
102
RTVSPropertyOp25
 70
     1
102
RTVSPropertyOp26
 70
     1
102
RTVSPropertyOp27
 70
     1
102
RTVSPropertyOp28
 70
     1
102
RTVSPropertyOp29
 70
     1
102
RTVSPropertyOp30
 70
     1
102
RTVSPropertyOp31
 70
     1
102
RTVSPropertyOp32
 70
     1
  0
XRECORD
  5
247
102
{ACAD_REACTORS
330
246
102
}
330
246
100
AcDbXrecord
280
     1
102
RTVSPropertyOp0
 70
     1
102
RTVSPropertyOp1
 70
     1
102
RTVSPropertyOp2
 70
     1
102
RTVSPropertyOp3
 70
     1
102
RTVSPropertyOp4
 70
     1
102
RTVSPropertyOp5
 70
     1
102
RTVSPropertyOp6
 70
     1
102
RTVSPropertyOp7
 70
     1
102
RTVSPropertyOp8
 70
     1
102
RTVSPropertyOp9
 70
     1
102
RTVSPropertyOp10
 70
     1
102
RTVSPropertyOp11
 70
     1
102
RTVSPropertyOp12
 70
     1
102
RTVSPropertyOp13
 70
     1
102
RTVSPropertyOp14
 70
     1
102
RTVSPropertyOp15
 70
     1
102
RTVSPropertyOp16
 70
     1
102
RTVSPropertyOp17
 70
     1
102
RTVSPropertyOp18
 70
     1
102
RTVSPropertyOp19
 70
     1
102
RTVSPropertyOp20
 70
     1
102
RTVSPropertyOp21
 70
     1
102
RTVSPropertyOp22
 70
     1
102
RTVSPropertyOp23
 70
     1
102
RTVSPropertyOp24
 70
     1
102
RTVSPropertyOp25
 70
     1
102
RTVSPropertyOp26
 70
     1
102
RTVSPropertyOp27
 70
     1
102
RTVSPropertyOp28
 70
     1
102
RTVSPropertyOp29
 70
     1
102
RTVSPropertyOp30
 70
     1
102
RTVSPropertyOp31
 70
     1
102
RTVSPropertyOp32
 70
     1
  0
ENDSEC
  0
SECTION
  2
THUMBNAILIMAGE
 90
    16364
310
28000000B40000005500000001000800000000000000000000000000000000000000000000000000FFFFFF00FF000000FFFF000000FF000000FFFF000000FF00FF00FF000000000080808000C0C0C000FF000000FF7F7F00A5000000A55252007F0000007F3F3F004C0000004C2626002600000026131300FF3F0000FF9F7F
310
00A5290000A56752007F1F00007F4F3F004C1300004C2F26002609000026171300FF7F0000FFBF7F00A5520000A57C52007F3F00007F5F3F004C2600004C39260026130000261C1300FFBF0000FFDF7F00A57C0000A59152007F5F00007F6F3F004C3900004C422600261C000026211300FFFF0000FFFF7F00A5A50000A5A5
310
52007F7F00007F7F3F004C4C00004C4C26002626000026261300BFFF0000DFFF7F007CA5000091A552005F7F00006F7F3F00394C0000424C26001C260000212613007FFF0000BFFF7F0052A500007CA552003F7F00005F7F3F00264C0000394C2600132600001C2613003FFF00009FFF7F0029A5000067A552001F7F00004F
310
7F3F00134C00002F4C2600092600001726130000FF00007FFF7F0000A5000052A55200007F00003F7F3F00004C0000264C2600002600001326130000FF3F007FFF9F0000A5290052A56700007F1F003F7F4F00004C1300264C2F00002609001326170000FF7F007FFFBF0000A5520052A57C00007F3F003F7F5F00004C2600
310
264C39000026130013261C0000FFBF007FFFDF0000A57C0052A59100007F5F003F7F6F00004C3900264C420000261C001326210000FFFF007FFFFF0000A5A50052A5A500007F7F003F7F7F00004C4C00264C4C00002626001326260000BFFF007FDFFF00007CA5005291A500005F7F003F6F7F0000394C0026424C00001C26
310
0013212600007FFF007FBFFF000052A500527CA500003F7F003F5F7F0000264C0026394C0000132600131C2600003FFF007F9FFF000029A5005267A500001F7F003F4F7F0000134C00262F4C0000092600131726000000FF007F7FFF000000A5005252A50000007F003F3F7F0000004C0026264C0000002600131326003F00
310
FF009F7FFF002900A5006752A5001F007F004F3F7F0013004C002F264C0009002600171326007F00FF00BF7FFF005200A5007C52A5003F007F005F3F7F0026004C0039264C00130026001C132600BF00FF00DF7FFF007C00A5009152A5005F007F006F3F7F0039004C0042264C001C00260021132600FF00FF00FF7FFF00A5
310
00A500A552A5007F007F007F3F7F004C004C004C264C002600260026132600FF00BF00FF7FDF00A5007C00A55291007F005F007F3F6F004C0039004C26420026001C0026132100FF007F00FF7FBF00A5005200A5527C007F003F007F3F5F004C0026004C2639002600130026131C00FF003F00FF7F9F00A5002900A5526700
310
7F001F007F3F4F004C0013004C262F002600090026131700000000002D2D2D005B5B5B0089898900B7B7B700B3B3B30000000000000000000000000000000000000000000000000000000000000000000000000000000000000000000000000000000000000000000000000000000000000000000000000000000000000000
310
00000000000000000000000000000000000000000000000000000000000000000000000000000000000000000000000000000000000000000000000000000000000000000000000000000000000000000000000000000000000000000000000000000000000000000000000000000000000000000000000000000000000000
310
00000000000000000000000000000000000000000000000000000000000000000000000000000000000000000000000000000000000000000000000000000000000000000000000000000000000000000000000000000000000000000000000000000000000000000000000000000000000000000000000000000000000000
310
00000000000000000000000000000000000000000000000000000000000000000000000000000000000000000000000000000000000000000000000000000000000000000000000000000000000000000000000000000000000000000000000000000000000000000000000000000000000000000000000000000000000000
310
00000000000000000000000000000000000000000000000000000000000000000000000000000000000000000000000000000000000000000000000000000000000000000000000000000000000000000000000000000000000000000000000000000000000000000000000000000000000000000000000000000000000000
310
00000000000000000000000000000000000000000000000000000000000000000000000000000000000000000000000000000000000000000000070707000700000000000000000000000000000000000000000000000000000000000000000000000000000000000000000000000000000000000000000000000000000000
310
00000000000000000000000000000000000000000000000000000000000000000000000000000000000000000000000000000000000000000000000000000000000000000000000000000000000000000000000000000000000000000000000000000000000000070707070707070707070707070707070707070707000000
310
00000000000000000000000000000000000000000000000000000000000000000000000000000000000000000000000000000000000000000000000000000000000000000000000000000000000000000000000000000000000000000000000000000000000000000000000000000000000000000000000000000000000000
310
00000000000000000000000000000000000000000000000000000000000700000700000000000000000000000000000000070000000000000000000000000000000000000000000000000000000000000000000000000000000000000000000000000000000000000000000000000000000000000000000000000000000000
310
00000000000000000000000000000000000000000000000000000000000000000000000000000000000000000000000000000000000000000000000000000000000000000000000000000000000000000000070707070707070707070707070707070707070707000000000000000000000000000000000000000000000000
310
00000000000000000000000000000000000000000000000000000000000000000000000000000000000000000000000000000000000000000000000000000000000000000000000000000000000000000000000000000000000000000000000000000000000000000000000000000000000000000000000000000000000000
310
00000000000000000707070700000707070707070707070707070000070000000000000000000000000000000000000000000000000000000000000000000000000000000000000000000000000000000000000000000000000000000000000000000000000000000000000000000000000000000000000000000000000000
310
00000000000000000000000000000000000000000000000000000000000000000000000000000000000000000000000000000000000000000000000000070707070000000000070707070707000000000007000000000000000000000000000000000000000000000000000000000000000000000000000000000000000000
310
00000000000000000000000000000000000000000000000000000000000000000000000000000000000000000000000000000000000000000000000000000000000000000000000000000000000000000000000000000000000000000000000000000000000000000000000000000000000007000007000000000007070700
310
07000000000000070000000000000000000000000000000000000000000000000000000000000000000000000000000000000000000000000000000000000000000000000000000000000000000000000000000000000000000000000000000000000000000000000000000000000000000000000000000000000000000000
310
00000000000000000000000000000000000000000000000000000000000000000000000000000000070000070000000000000000000000000000000007000000000000000000000000000000000000000000000000000000000000000000000000000000000000000000000000000000000000000000000000000000000000
310
00000000000000000000000000000000000000000000000000000000000000000000000000000000000000000000000000000000000000000000000000000000000000000000000000000000000000000000000000000000000000000007070707070707070707070707070707070707070700000000000000000000000000
310
00000000000000000000000000000000000000000000000000000000000000000000000000000000000000000000000000000000000000000000000000000000000000000000000000000000000000000000000000000000000000000000000000000000000000000000000000000000000000000000000000000000000000
310
00000000000000000000000000000000000000000000000000000000000000000000000000000000000000000000000000000000000000000000000000000000000000000000000000000000000000000000000000000000000000000000000000000000000000000000000000000000000000000000000000000000000000
310
00000000000000000000000000000000000000000000000000000000000000000000000000000000000000000000000000000000000000000000000000000000000000000000000000000000000000000000000000000000000000000000000000000000000000000000000000000000000000000000000000000000000000
310
00000000000000000000000000000000000000000000000000000000000000000000000000000000000000000000000000000000000000000000000000000000000000000000000000000000000000000000000000000000000000000000000000000000000000000000000000000000000000000000000000000000000000
310
00000000000000000000000000000000000000000000000000000000000000000000000000000000000000000000000000000000000000000000000000000000000000000000000000000000000000000000000000000000000000000000000000000000000000000000000000000000000000000000000000000000000000
310
00000000000000000000000000000000000000000000000000000000000000000000000000000000000000000000000000000000000000000000000000000000000000000000000000000000000000000000000000000000000000000000000000000000000000000000000000000000000000000000000000000000000000
310
00000000000000000000000000000000000000000000000000000000000000000000000000000000000000000000000000000000000000000000000000000000000000000000000000000000000000000000000000000000000000000000000000000000000000000000000000000000000000000000000000000000000000
310
00000000000000000000000000000000000000000000000000000000000000000000000000000000000000000000000000000000000000000000000000000000000000000000000000000000000000000000000000000000000000000000000000000000000000000000000000000000000000000000000000000000000000
310
00000000000000000000000000000707070707070707070707070707070796070707070707070707070707070707070700000000000000000000000000000000000000000000000000000000000000000000000000000000000000000000000000000000000000000000000000000000000000000000000000000000000000
310
00000000000000000000000000000000000000000000000000000000000000000000000000000000000000000000000000000000000000000000000000000000000007000000000000000000000000000000009600000000000000000000000000000000000700000000000000000000000000000000000000000000000000
310
00000000000000000000000000000000000000000000000000000000000000000000000000000000000000000000000000000000000000000000000000000000000000000000000000000000000000000000000000000000000000000000000000000000000000000000000000000000000000000000000700000000000000
310
00000000000000000096000000000000000000000000000000000007000000000000000000000000000000000000000000000000000000000000000000000000000000000000000000000000000000000000000000000000000000000000000000000000000000000000000000000000000000000000000000000000000000
310
00000000000000000000000000000000000000000000000000000000000000000000000000000000000000000007000000000000000000000000000000009600000000000000000000000000000000000700000000000000000000000000000000000000000000000000000000000000000000000000000000000000000000
310
00000000000000000000000000000000000000000000000000000000000000000000000000000000000000000000000000000000000000000000000000000000000000000000000000000000000000000000000000000000000000000000000000000700000000000000000000000000000000960000000000000000000000
310
00000000000007000000000000000000000000000000000000000000000000000000000000000000000000000000000000000000000000000000000000000000000000000000000000000000000000000000000000000000000000000000000000000000000000000000000000000000000000000000000000000000000000
310
00000000000000000000000000000000000000000000000007000000000000000000000000000000009600000000000000000000000000000000000700000000000000000000000000000000000000000000000000000000000000000000000000000000000000000000000000000000000000000000000000000000000000
310
00000000000000000000000000000000000000000000000000000000000000000000000000000000000000000000000000000000000000000000000000000000000000000000000000000000000700000000000000000000000000000000960000000000000000000000000000000000070000000000000000000000000000
310
00000000000000000000000000000000000000000000000000000000000000000000000000000000000000000000000000000000000000000000000000000000000000000000000000000000000000000000000000000000000000000000000000000000000000000000000000000000000000000000000000000000000000
310
00000007000000000000000000000000000000009600000000000000000000000000000000000700000000000000000000000000000000000000000000000000000000000000000000000000000000000000000000000000000000000000000000000000000000000000000000000000000000000000000000000000000000
310
00000000000000000000000000000000000000000000000000000000000000000000000000000000000000000000000000000000000000000700000000000000070707000000000000960000000000000007070000000000000000070000000000000000000000000000000000000000000000000000000000000000000000
310
00000000000000000000000000000000000000000000000000000000000000000000000000000000000000000000000000000000000000000000000000000000000000000000000000000000000000000000000000000000000000000000000000000000000000000000000000070000000000000007000700000000000096
310
00000000000000070700000000000000000700000000000000000000000000000000000000000000000000000000000000000000000000000000000000000000000000000000000000000000000000000000000000000000000000000000000000000000000000000000000000000000000000000000000000000000000000
310
00000000000000000000000000000000000000000000000000000000000000000000000700000000000000070707000000000000960000000000000007070000000000000000070000000000000000000000000000000000000000000000000000000000000000000000000000000000000000000000000000000000000000
310
00000000000000000000000000000000000000000000000000000000000000000000000000000000000000000000000000000000000000000000000000000000000000000000000000000000000000000000000000000000070000000000000000000000000000000096000000000000000000000000000000000007000000
310
00000000000000000000000000000000000000000000000000000000000000000000000000000000000000000000000000000000000000000000000000000000000000000000000000000000000000000000000000000000000000000000000000000000000000000000000000000000000000000000000000000000000000
310
00000000000000000000000000000700000000000000000000000000000000960000000000000000000000000000000000070000000000000000000000000000000000000000000000000000000000000000000000000000000000000000000000000000000000000000000000000000000000000000000000000000000000
310
00000000000000000000000000000000000000000000000000000000000000000000000000000000000000000000000000000000000000000000000000000000000000070000000000000000000000000000000096000000000000000000000000000000000007000000000000000000000000000000000000000000000000
310
00000000000000000000000000000000000000000000000000000000000000000000000000000000000000000000000000000000000000000000000000000000000000000000000000000000000000000000000000000000000000000000000000000000000000000000000000000000000000000000000007070707070707
310
07070707070707070707960707070707070707070707070707070707070000000000000000000000000000000000000000000000000000000000000000000000000000000000000000000000000000000000000000000000000000000000000000000000000000000000000000000000000000000000000000000000000000
310
00000000000000000000000000000000000000000000000000000000000000000000000000000000000000000000000000000000000000000000000000000000000000000000000000000000000000000000000000000000000000000000000000000000000000000000000000000000000000000000000000000000000000
310
00000000000000000000000000000000000000000000000000000000000000000000000000000000000000000000000000000000000000000000000000000000000000000000000000000000000000000000000000000000000000000000000000000000000000000000000000000000000000000000000000000000000000
310
00000000000000000000000000000000000000000000000000000000000000000000000000000000000000000000000000000000000000000000000000000000000000000000000000000000000000000000000000000000000000000000000000000000000000000000000000000000000000000000000000000000000000
310
00000000000000000000000000000000000000000000000000000000000000000000000000000000000000000000000000000000000000000000000000000000000000000000000000000000000000000000000000000000000000000000000000000000000000000000000000000000000000000000000000000000000000
310
00000000000000000000000000000000000000000000000000000000000000000000000000000000000000000000000000000000000000000000000000000000000000000000000000000000000000000000000000000000000000000000000000000000000000000000000000000000000000000000000000000000000000
310
00000000000000000000000000000000000000000000000000000000000000000000000000000000000000000000000000000000000000000000000000000000000000000000000000000000000000000000000000000000000000000000000000000000000000000000000000000000000000000000000000000000000000
310
00000000000000000000000000000000000000000000000000000000000000000000000000000000000000000000000000000000000000000000000000000000000000000000000000000000000000000000000000000000000000000000000000000000000000000000000000000000000000000000000000000000000000
310
00000000000000000000000000000000000000000000000000000000000000000000000000000000000000000000000000000000000000000000000000000000000000000000000000000000000000000000000000000000000000000000000000000000000000000000000000000000000000000000000000000000000000
310
00000000000000000000000000000000000000000000000000000000000000000000000000000000000000000000000000000000000000000000000000000000000000000000000000000000000000000000000000000000000000000000000000000000000000000000000000000000000000000000000000000000000000
310
00000000000000000000000000000000000000000000000000000000000000000000000000000000000000000000000000000000000000000000000000000000000000000000000000000000000000000000000000000000000000000000000000000000000000000000000000000000000000000000000000000000000000
310
00000000000000000000000000000000000000000000000000000000000000000000000000000000000000000000000000000000000000000000000000000000000000000000000000000000000000000000000000000000000000000000000000000000000000000000000000000000000000000000000000000000000000
310
00000000000000000000000000000000000000000000000000000000000000000000000000000000000000000000000000000000000000000000000000000000000000000000000000000000000000000000000000000000000000000000000000000000000000000000000000000000000000000000000000000000000000
310
00000000000000000000000000000000000000000000000000000000000000000000000000000000000000000000000000000000000000000000000000000000000000000000000000000000000000000000000000000000000000000000000000000000000000000000000000000000000000000000000000000000000707
310
07070707070707070707070707000003070707070707070707070707070707079603030303030303020203030303030303030300000000000000000000000000000000000000000000000000000000000000000000000000000000000000000000000000000000000000000000000000000000000000000000000000000000
310
00000000000000000000000000000000000000000000000000000000000000000000000000000000000000000000000000000007000000000000000000000000000700000300000000000000000000000000000000960000000000000000000000000000000000030000000000000000000000000000000000000000000000
310
00000000000000000000000000000000000000000000000000000000000000000000000000000000000000000000000000000000000000000000000000000000000000000000000000000000000000000000000000000000000000000000000000000000000000000707070707070707000000000000070000030000000000
310
00000000000000000000009600000000000000000000000000000000000300000000000000000000000000000000000000000000000000000000000000000000000000000000000000000000000000000000000000000000000000000000000000000000000000000000000000000000000000000000000000000000000000
310
00000000000000000000000000000000000000000000000000000000000007070707000707070707000000000700000300000000000000000000000000000000960000000000000000000000000000000000030000000000000000000000000000000000000000000000000000000000000000000000000000000000000000
310
00000000000000000000000000000000000000000000000000000000000000000000000000000000000000000000000000000000000000000000000000000000000000000000000000000000000000000000000700000707070707070707000000070000030307070707070707070707070707070796070707070707070707
310
07070707070707000300000000000000000000000000000000000000000000000000000000000000000000000000000000000000000000000000000000000000000000000000000000000000000000000000000000000000000000000000000000000000000000000000000000000000000000000000000000000000000000
310
00000000000000000007000707070700070007070000000700000303070000000000000000000000000000960000000000000000000000000000000700030000000000000000000000000000000000000000000000000000000000000000000000000000000000000000000000000000000000000000000000000000000000
310
00000000000000000000000000000000000000000000000000000000000000000000000000000000000000000000000000000000000000000000000000000700070707000700070707070000070000030307000000000000000000000000000096000000000000000000000000000000070003000000000000000000000000
310
00000000000000000000000000000000000000000000000000000000000000000000000000000000000000000000000000000000000000000000000000000000000000000000000000000000000000000000000000000000000000000000000000000000000000000000000000000000000000070007070000070007000707
310
00000700000303070000000000000000000000000000960000000000000000000000000000000700030000000000000000000000000000000000000000000000000000000000000000000000000000000000000000000000000000000000000000000000000000000000000000000000000000000000000000000000000000
310
00000000000000000000000000000000000000000000000000000000000000000000000000000000000700070707000707070707070000070000030307000000000000000000000000000096000000000000000000000000000000070003000000000000000000000000000000000000000000000000000000000000000000
310
00000000000000000000000000000000000000000000000000000000000000000000000000000000000000000000000000000000000000000000000000000000000000000000000000000000000000000000000000000000000000000000070000070700000007070700000007000003030700000000000000000000000000
310
00960000000000000000000000000000000700030000000000000000000000000000000000000000000000000000000000000000000000000000000000000000000000000000000000000000000000000000000000000000000000000000000000000000000000000000000000000000000000000000000000000000000000
310
00000000000000000000000000000000000000000700000707070707000707000000070000030307000000000000000000000000000096000000000000000000000000000000070003000000000000000000000000000000000000000000000000000000000000000000000000000000000000000000000000000000000000
310
00000000000000000000000000000000000000000000000000000000000000000000000000000000000000000000000000000000000000000000000000000000000000000000000000070707070707070707000000000007000003030700000000000000000000000000009600000000000000000000000000000007000300
310
00000000000000000000000000000000000000000000000000000000000000000000000000000000000000000000000000000000000000000000000000000000000000000000000000000000000000000000000000000000000000000000000000000000000000000000000000000000000000000000000000000000000007
310
07070707070707000000000000070000030307000000000000000000000000000096000000000000000000000000000000070003000000000000000000000000000000000000000000000000000000000000000000000000000000000000000000000000000000000000000000000000000000000000000000000000000000
310
00000000000000000000000000000000000000000000000000000000000000000000000000000000000000000000000000000000070707070007070707070000000007000007030700000000000000000000000000009607000000000000000000000000000007000700000000000000000000000000000000000000000000
310
00000000000000000000000000000000000000000000000000000000000000000000000000000000000000000000000000000000000000000000000000000000000000000000000000000000000000000000000000000000000000000000000000000000000000000007000707070707070707070000000700000703070000
310
00000000000000000000000096070000000000000000000000000000070007000000000000000000000000000000000000000000000000000000000000000000000000000000000000000000000000000000000000000000000000000000000000000000000000000000000000000000000000000000000000000000000000
310
00000000000000000000000000000000000000000000000000000000000000070007070707000700070700000007000007030700000000000000000000000000009607000000000000000000000000000007000700000000000000000000000000000000000000000000000000000000000000000000000000000000000000
310
00000000000000000000000000000000000000000000000000000000000000000000000000000000000000000000000000000000000000000000000000000000000000000000000000000000000000000000000007070707000007070007070700000700000703070000000000000000000000000000960000000000000000
310
00000000000000070007000000000000000000000000000000000000000000000000000000000000000000000000000000000000000000000000000000000000000000000000000000000000000000000000000000000000000000000000000000000000000000000000000000000000000000000000000000000000000000
310
00000000000000000000070707070007000007000707000007000007030700000000000000000000000000009600000000000000000000000000000007000700000000000000000000000000000000000000000000000000000000000000000000000000000000000000000000000000000000000000000000000000000000
310
00000000000000000000000000000000000000000000000000000000000000000000000000000000000000000000000000000000000000000000000000000007070707070007070007070700000700000703070000000000000000000000000000960000000000000000000000000000000700070000000000000000000000
310
00000000000000000000000000000000000000000000000000000000000000000000000000000000000000000000000000000000000000000000000000000000000000000000000000000000000000000000000000000000000000000000000000000000000000000000000000000000000000000700070707000000070707
310
00000007000007030700000000000000000000070707009600000707000000000000000000000007000700000000000000000000000000000000000000000000000000000000000000000000000000000000000000000000000000000000000000000000000000000000000000000000000000000000000000000000000000
310
00000000000000000000000000000000000000000000000000000000000000000000000000000000000007000007070707070707070000000700000703079696969696969696969607070796969696070796969696969696969696960796070000000000000000000000000000000000000000000000000000000000000000
310
00000000000000000000000000000000000000000000000000000000000000000000000000000000000000000000000000000000000000000000000000000000000000000000000000000000000000000000000000000000000000000000000707070707070707070000000000070000070307000000000000000000000000
310
00009600000000000000000000000000000007000700000000000000000000000000000000000000000000000000000000000000000000000000000000000000000000000000000000000000000000000000000000000000000000000000000000000000000000000000000000000000000000000000000000000000000000
310
00000000000000000000000000000000000000000007000000000000000000000000000700000703070000000000000000000000000000960000000000000000000000000000000700070000000000000000000000000000000000000000000000000000000000000000000000000000000000000000000000000000000000
310
00000000000000000000000000000000000000000000000000000000000000000000000000000000000000000000000000000000000000000000000000000000000000000000000000000707070707070707070000000000070000070307000000000000000000000000000096000000000000000000000000000000070007
310
00000000000000000000000000000000000000000000000000000000000000000000000000000000000000000000000000000000000000000000000000000000000000000000000000000000000000000000000000000000000000000000000000000000000000000000000000000000000000000000000000000000000000
310
07000707070707070700000000000700000703070000000000000000000000000000960000000000000000000000000000000700070000000000000000000000000000000000000000000000000000000000000000000000000000000000000000000000000000000000000000000000000000000000000000000000000000
310
00000000000000000000000000000000000000000000000000000000000000000000000000000000000000000000000000000000000700070000070007070700000000070000070307000000000000000000000000000096000000000000000000000000000000070007000000000000000000000000000000000000000000
310
00000000000000000000000000000000000000000000000000000000000000000000000000000000000000000000000000000000000000000000000000000000000000000000000000000000000000000000000000000000000000000000000000000000000000000000070007000007000707070000000007000007030700
310
00000000000000000000000000960700000000000000000000000000000700070000000000000000000000000000000000000000000000000000000000000000000000000000000000000000000000000000000000000000000000000000000000000000000000000000000000000000000000000000000000000000000000
310
00000000000000000000000000000000000000000000000000000000000000000700070700070707070700000000070000070307000000000000000000000000000096070000000000000000000000000000070007000000000000000000000000000000000000000000000000000000000000000000000000000000000000
310
00000000000000000000000000000000000000000000000000000000000000000000000000000000000000000000000000000000000000000000000000000000000000000000000000000000000000000000000000070707070707070707000000000007000007030700000000000000000000000000009600000000000000
310
00000000000000000700070000000000000000000000000000000000000000000000000000000000000000000000000000000000000000000000000000000000000000000000000000000000000000000000000000000000000000000000000000000000000000000000000000000000000000000000000000000000000000
310
00000000000000000000000707070707070707070000000000070000070307000000000000000000000000000096000000000000000000000000000000070007000000000000000000000000000000000000000000000000000000000000000000000000000000000000000000000000000000000000000000000000000000
310
00000000000000000000000000000000000000000000000000000000000000000000000000000000000000000000000000000000000000000000000000000000070707070007070707070700000007000007030700000000000000000000000000009600000000000000000000000000000007000700000000000000000000
310
00000000000000000000000000000000000000000000000000000000000000000000000000000000000000000000000000000000000000000000000000000000000000000000000000000000000000000000000000000000000000000000000000000000000000000000000000000000000000000007000707070707070707
310
07000000070000070307000000000000000000000000000096000000000000000000000000000000070007000000000000000000000000000000000000000000000000000000000000000000000000000000000000000000000000000000000000000000000000000000000000000000000000000000000000000000000000
310
00000000000000000000000000000000000000000000000000000000000000000000000000000000000000070007070700070707070707000007000007030700000000000000000000000000009600000000000000000000000000000007000700000000000000000000000000000000000000000000000000000000000000
310
00000000000000000000000000000000000000000000000000000000000000000000000000000000000000000000000000000000000000000000000000000000000000000000000000000000000000000000000000000000000000000000000007000707070007000700070700000700000703070000000000000000000000
310
00000096000000000000000000000000000000070007000000000000000000000000000000000000000000000000000000000000000000000000000000000000000000000000000000000000000000000000000000000000000000000000000000000000000000000000000000000000000000000000000000000000000000
310
00000000000000000000000000000000000000000000070007070000070007000707000007000007030700000000000000000000000000009600000000000000000000000000000007000700000000000000000000000000000000000000000000000000000000000000000000000000000000000000000000000000000000
310
00000000000000000000000000000000000000000000000000000000000000000000000000000000000000000000000000000000000000000000000000000000000000000000000000000007000707070007070707070700000700000703070000000000000000000000000000960000000000000000000000000000000700
310
07000000000000000000000000000000000000000000000000000000000000000000000000000000000000000000000000000000000000000000000000000000000000000000000000000000000000000000000000000000000000000000000000000000000000000000000000000000000000000000000000000000000000
310
00070000070700000007070707000007000007030707070707070707070707070707079607070707070707070707070707070707000700000000000000000000000000000000000000000000000000000000000000000000000000000000000000000000000000000000000000000000000000000000000000000000000000
310
00000000000000000000000000000000000000000000000000000000000000000000000000000000000000000000000000000000000007000007070707070707070000000700000703070707070707070707070707070707960707070707070707070707070707070700070000000000000000000000000000000000000000
310
00000000000000000000000000000000000000000000000000000000000000000000000000000000000000000000000000000000000000000000000000000000000000000000000000000000000000000000000000000000000000000000000000000000000000000000000707070707070707070000000000070000070000
310
00000000000000000000000000009600000000000000000000000000000000000700000000000000000000000000000000000000000000000000000000000000000000000000000000000000000000000000000000000000000000000000000000000000000000000000000000000000000000000000000000000000000000
310
00000000000000000000000000000000000000000000000000000000000000000007000000000000000000000000000700000700000000000000000000000000000000960000000000000000000000000000000000070000000000000000000000000000000000000000000000000000000000000000000000000000000000
310
00000000000000000000000000000000000000000000000000000000000000000000000000000000000000000000000000000000000000000000000000000000000000000000000000000000000000000000000000000007070707070707070707070707070000070707070707070707070707070707070796070707070707
310
07070707070707070707070700000000000000000000000000000000000000000000000000000000000000000000000000000000000000000000000000000000000000000000000000000000000000000000000000000000000000000000000000000000000000000000000000000000000000000000000000000000000000
310
00000000000000000000000000000000000000000000000000000000000000000000000000000000000000000000000000000000000000000000000000000000000000000000000000000000000000000000000000000000000000000000000000000000000000000000000000000000000000000000000000000000000000
310
00000000000000000000000000000000000000000000000000000000000000000000000000000000000000000000000000000000000000000000000000000000000000000000000000000000000000000000000000000000000000000000000000000000000000000000000000000000000000000000000000000000000000
310
00000000000000000000000000000000000000000000000000000000000000000000000000000000000000000000000000000000000000000000000000000000000000000000000000000000000000000000000000000000000000000000000000000000000000000000000000000000000000000000000000000000000000
310
000000000000000000000000000000000000000000000000000000000000000000000000000000000000000000000000000000000000000000000000000000000000000000000000000000000000000000000000000000000000000000000000000000000000000000000000
  0
ENDSEC
  0
EOF
