  0
SECTION
  2
HEADER
  9
$ACADVER
  1
AC1015
  9
$ACADMAINTVER
 70
     6
  9
$DWGCODEPAGE
  3
ANSI_932
  9
$INSBASE
 10
0.0
 20
0.0
 30
0.0
  9
$EXTMIN
 10
55.89927130833013
 20
20.0
 30
0.0
  9
$EXTMAX
 10
186.0
 20
246.3864414203253
 30
0.0
  9
$LIMMIN
 10
55.89927130833013
 20
20.0
  9
$LIMMAX
 10
186.0
 20
246.3864414203253
  9
$ORTHOMODE
 70
     0
  9
$REGENMODE
 70
     1
  9
$FILLMODE
 70
     1
  9
$QTEXTMODE
 70
     0
  9
$MIRRTEXT
 70
     1
  9
$LTSCALE
 40
0.1307218296915264
  9
$ATTMODE
 70
     1
  9
$TEXTSIZE
 40
2.5
  9
$TRACEWID
 40
1.0
  9
$TEXTSTYLE
  7
Standard
  9
$CLAYER
  8
0
  9
$CELTYPE
  6
ByLayer
  9
$CECOLOR
 62
   256
  9
$CELTSCALE
 40
1.0
  9
$DISPSILH
 70
     0
  9
$DIMSCALE
 40
1.0
  9
$DIMASZ
 40
2.5
  9
$DIMEXO
 40
0.625
  9
$DIMDLI
 40
3.75
  9
$DIMRND
 40
0.0
  9
$DIMDLE
 40
0.0
  9
$DIMEXE
 40
1.25
  9
$DIMTP
 40
0.0
  9
$DIMTM
 40
0.0
  9
$DIMTXT
 40
2.5
  9
$DIMCEN
 40
2.5
  9
$DIMTSZ
 40
0.0
  9
$DIMTOL
 70
     0
  9
$DIMLIM
 70
     0
  9
$DIMTIH
 70
     0
  9
$DIMTOH
 70
     0
  9
$DIMSE1
 70
     0
  9
$DIMSE2
 70
     0
  9
$DIMTAD
 70
     1
  9
$DIMZIN
 70
     0
  9
$DIMBLK
  1

  9
$DIMASO
 70
     1
  9
$DIMSHO
 70
     1
  9
$DIMPOST
  1

  9
$DIMAPOST
  1

  9
$DIMALT
 70
     0
  9
$DIMALTD
 70
     3
  9
$DIMALTF
 40
0.03937007874016
  9
$DIMLFAC
 40
1.0
  9
$DIMTOFL
 70
     1
  9
$DIMTVP
 40
0.0
  9
$DIMTIX
 70
     0
  9
$DIMSOXD
 70
     0
  9
$DIMSAH
 70
     0
  9
$DIMBLK1
  1

  9
$DIMBLK2
  1

  9
$DIMSTYLE
  2
Standard
  9
$DIMCLRD
 70
     0
  9
$DIMCLRE
 70
     0
  9
$DIMCLRT
 70
     0
  9
$DIMTFAC
 40
0.75
  9
$DIMGAP
 40
0.625
  9
$DIMJUST
 70
     0
  9
$DIMSD1
 70
     0
  9
$DIMSD2
 70
     0
  9
$DIMTOLJ
 70
     0
  9
$DIMTZIN
 70
     8
  9
$DIMALTZ
 70
     0
  9
$DIMALTTZ
 70
     0
  9
$DIMUPT
 70
     0
  9
$DIMDEC
 70
     2
  9
$DIMTDEC
 70
     2
  9
$DIMALTU
 70
     2
  9
$DIMALTTD
 70
     3
  9
$DIMTXSTY
  7
Standard
  9
$DIMAUNIT
 70
     0
  9
$DIMADEC
 70
     0
  9
$DIMALTRND
 40
0.0
  9
$DIMAZIN
 70
     0
  9
$DIMDSEP
 70
    46
  9
$DIMATFIT
 70
     3
  9
$DIMFRAC
 70
     0
  9
$DIMLDRBLK
  1

  9
$DIMLUNIT
 70
     2
  9
$DIMLWD
 70
    -2
  9
$DIMLWE
 70
    -2
  9
$DIMTMOVE
 70
     0
  9
$LUNITS
 70
     2
  9
$LUPREC
 70
     4
  9
$SKETCHINC
 40
1.0
  9
$FILLETRAD
 40
10.0
  9
$AUNITS
 70
     0
  9
$AUPREC
 70
     0
  9
$MENU
  1
.
  9
$ELEVATION
 40
0.0
  9
$PELEVATION
 40
0.0
  9
$THICKNESS
 40
0.0
  9
$LIMCHECK
 70
     0
  9
$CHAMFERA
 40
10.0
  9
$CHAMFERB
 40
10.0
  9
$CHAMFERC
 40
20.0
  9
$CHAMFERD
 40
0.0
  9
$SKPOLY
 70
     0
  9
$TDCREATE
 40
2457922.72149493
  9
$TDUCREATE
 40
2457922.34649493
  9
$TDUPDATE
 40
2457922.721495475
  9
$TDUUPDATE
 40
2457922.346495475
  9
$TDINDWG
 40
0.0000000116
  9
$TDUSRTIMER
 40
0.0000000116
  9
$USRTIMER
 70
     1
  9
$ANGBASE
 50
0.0
  9
$ANGDIR
 70
     0
  9
$PDMODE
 70
     0
  9
$PDSIZE
 40
0.0
  9
$PLINEWID
 40
0.0
  9
$SPLFRAME
 70
     0
  9
$SPLINETYPE
 70
     6
  9
$SPLINESEGS
 70
     8
  9
$HANDSEED
  5
26C
  9
$SURFTAB1
 70
     6
  9
$SURFTAB2
 70
     6
  9
$SURFTYPE
 70
     6
  9
$SURFU
 70
     6
  9
$SURFV
 70
     6
  9
$UCSBASE
  2

  9
$UCSNAME
  2

  9
$UCSORG
 10
0.0
 20
0.0
 30
0.0
  9
$UCSXDIR
 10
1.0
 20
0.0
 30
0.0
  9
$UCSYDIR
 10
0.0
 20
1.0
 30
0.0
  9
$UCSORTHOREF
  2

  9
$UCSORTHOVIEW
 70
     0
  9
$UCSORGTOP
 10
0.0
 20
0.0
 30
0.0
  9
$UCSORGBOTTOM
 10
0.0
 20
0.0
 30
0.0
  9
$UCSORGLEFT
 10
0.0
 20
0.0
 30
0.0
  9
$UCSORGRIGHT
 10
0.0
 20
0.0
 30
0.0
  9
$UCSORGFRONT
 10
0.0
 20
0.0
 30
0.0
  9
$UCSORGBACK
 10
0.0
 20
0.0
 30
0.0
  9
$PUCSBASE
  2

  9
$PUCSNAME
  2

  9
$PUCSORG
 10
0.0
 20
0.0
 30
0.0
  9
$PUCSXDIR
 10
1.0
 20
0.0
 30
0.0
  9
$PUCSYDIR
 10
0.0
 20
1.0
 30
0.0
  9
$PUCSORTHOREF
  2

  9
$PUCSORTHOVIEW
 70
     0
  9
$PUCSORGTOP
 10
0.0
 20
0.0
 30
0.0
  9
$PUCSORGBOTTOM
 10
0.0
 20
0.0
 30
0.0
  9
$PUCSORGLEFT
 10
0.0
 20
0.0
 30
0.0
  9
$PUCSORGRIGHT
 10
0.0
 20
0.0
 30
0.0
  9
$PUCSORGFRONT
 10
0.0
 20
0.0
 30
0.0
  9
$PUCSORGBACK
 10
0.0
 20
0.0
 30
0.0
  9
$USERI1
 70
     0
  9
$USERI2
 70
     0
  9
$USERI3
 70
     0
  9
$USERI4
 70
     0
  9
$USERI5
 70
     0
  9
$USERR1
 40
0.0
  9
$USERR2
 40
0.0
  9
$USERR3
 40
0.0
  9
$USERR4
 40
0.0
  9
$USERR5
 40
0.0
  9
$WORLDVIEW
 70
     1
  9
$SHADEDGE
 70
     3
  9
$SHADEDIF
 70
    70
  9
$TILEMODE
 70
     1
  9
$MAXACTVP
 70
    64
  9
$PINSBASE
 10
0.0
 20
0.0
 30
0.0
  9
$PLIMCHECK
 70
     0
  9
$PEXTMIN
 10
1.000000000000000E+20
 20
1.000000000000000E+20
 30
1.000000000000000E+20
  9
$PEXTMAX
 10
-1.000000000000000E+20
 20
-1.000000000000000E+20
 30
-1.000000000000000E+20
  9
$PLIMMIN
 10
0.0
 20
0.0
  9
$PLIMMAX
 10
420.0
 20
297.0
  9
$UNITMODE
 70
     0
  9
$VISRETAIN
 70
     1
  9
$PLINEGEN
 70
     0
  9
$PSLTSCALE
 70
     0
  9
$TREEDEPTH
 70
  3020
  9
$CMLSTYLE
  2
Standard
  9
$CMLJUST
 70
     0
  9
$CMLSCALE
 40
20.0
  9
$PROXYGRAPHICS
 70
     1
  9
$MEASUREMENT
 70
     1
  9
$CELWEIGHT
370
    -1
  9
$ENDCAPS
280
     0
  9
$JOINSTYLE
280
     0
  9
$LWDISPLAY
290
     0
  9
$INSUNITS
 70
     4
  9
$HYPERLINKBASE
  1

  9
$STYLESHEET
  1

  9
$XEDIT
290
     1
  9
$CEPSNTYPE
380
     0
  9
$PSTYLEMODE
290
     1
  9
$FINGERPRINTGUID
  2
{D577525A-F6B7-46F4-8499-06CF34E770F4}
  9
$VERSIONGUID
  2
{FAEB1C32-E019-11D5-929B-00C0DF256EC4}
  9
$EXTNAMES
290
     1
  9
$PSVPSCALE
 40
0.0
  9
$OLESTARTUP
290
     0
  0
ENDSEC
  0
SECTION
  2
CLASSES
  0
CLASS
  1
ACDBDICTIONARYWDFLT
  2
AcDbDictionaryWithDefault
  3
ObjectDBX Classes
 90
        0
280
     0
281
     0
  0
CLASS
  1
VISUALSTYLE
  2
AcDbVisualStyle
  3
ObjectDBX Classes
 90
     4095
280
     0
281
     0
  0
CLASS
  1
MATERIAL
  2
AcDbMaterial
  3
ObjectDBX Classes
 90
     1153
280
     0
281
     0
  0
CLASS
  1
SCALE
  2
AcDbScale
  3
ObjectDBX Classes
 90
     1153
280
     0
281
     0
  0
CLASS
  1
DICTIONARYVAR
  2
AcDbDictionaryVar
  3
ObjectDBX Classes
 90
        0
280
     0
281
     0
  0
CLASS
  1
ACDBPLACEHOLDER
  2
AcDbPlaceHolder
  3
ObjectDBX Classes
 90
        0
280
     0
281
     0
  0
CLASS
  1
LAYOUT
  2
AcDbLayout
  3
ObjectDBX Classes
 90
        0
280
     0
281
     0
  0
ENDSEC
  0
SECTION
  2
TABLES
  0
TABLE
  2
VPORT
  5
8
330
0
100
AcDbSymbolTable
 70
     1
  0
VPORT
  5
29
330
8
100
AcDbSymbolTableRecord
100
AcDbViewportTableRecord
  2
*Active
 70
     0
 10
0.0
 20
0.0
 11
1.0
 21
1.0
 12
120.9496356541651
 22
133.1932207101626
 13
0.0
 23
0.0
 14
10.0
 24
10.0
 15
10.0
 25
10.0
 16
0.0
 26
0.0
 36
1.0
 17
0.0
 27
0.0
 37
0.0
 40
249.0250855623578
 41
1.333333333333333
 42
50.0
 43
0.0
 44
0.0
 50
0.0
 51
0.0
 71
     0
 72
 20000
 73
     1
 74
     3
 75
     0
 76
     0
 77
     0
 78
     0
281
     0
 65
     1
110
0.0
120
0.0
130
0.0
111
1.0
121
0.0
131
0.0
112
0.0
122
1.0
132
0.0
 79
     0
146
0.0
  0
ENDTAB
  0
TABLE
  2
LTYPE
  5
5
330
0
100
AcDbSymbolTable
 70
     7
  0
LTYPE
  5
14
330
5
100
AcDbSymbolTableRecord
100
AcDbLinetypeTableRecord
  2
ByBlock
 70
     0
  3

 72
    65
 73
     0
 40
0.0
  0
LTYPE
  5
15
330
5
100
AcDbSymbolTableRecord
100
AcDbLinetypeTableRecord
  2
ByLayer
 70
     0
  3

 72
    65
 73
     0
 40
0.0
  0
LTYPE
  5
16
330
5
100
AcDbSymbolTableRecord
100
AcDbLinetypeTableRecord
  2
Continuous
 70
     0
  3
Solid line
 72
    65
 73
     0
 40
0.0
  0
LTYPE
  5
40
330
5
100
AcDbSymbolTableRecord
100
AcDbLinetypeTableRecord
  2
DASHED
 70
     0
  3
ICAD/SX(2) Dashed __ __ __ __ __ __ __ __ __ __ __ __ __ _
 72
    65
 73
     2
 40
19.05
 49
12.7
 74
     0
 49
-6.35
 74
     0
  0
LTYPE
  5
41
330
5
100
AcDbSymbolTableRecord
100
AcDbLinetypeTableRecord
  2
CENTER
 70
     0
  3
ICAD/SX(3) Center ____ _ ____ _ ____ _ ____ _ ____ _ ____
 72
    65
 73
     4
 40
50.8
 49
31.75
 74
     0
 49
-6.35
 74
     0
 49
6.35
 74
     0
 49
-6.35
 74
     0
  0
LTYPE
  5
42
330
5
100
AcDbSymbolTableRecord
100
AcDbLinetypeTableRecord
  2
PHANTOM
 70
     0
  3
ICAD/SX(4) Phantom ______  __  __  ______  __  __  ______
 72
    65
 73
     6
 40
63.5
 49
31.75
 74
     0
 49
-6.35
 74
     0
 49
6.35
 74
     0
 49
-6.35
 74
     0
 49
6.35
 74
     0
 49
-6.35
 74
     0
  0
LTYPE
  5
43
330
5
100
AcDbSymbolTableRecord
100
AcDbLinetypeTableRecord
  2
DOT
 70
     0
  3
ICAD/SX(5) Dot . . . . . . . . . . . . . . . . . . . . . . . .
 72
    65
 73
     2
 40
6.35
 49
0.0
 74
     0
 49
-6.35
 74
     0
  0
LTYPE
  5
44
330
5
100
AcDbSymbolTableRecord
100
AcDbLinetypeTableRecord
  2
HIDDEN
 70
     0
  3
ICAD/SX(6) Hidden __ __ __ __ __ __ __ __ __ __ __ __ __ __
 72
    65
 73
     2
 40
9.525
 49
6.35
 74
     0
 49
-3.175
 74
     0
  0
LTYPE
  5
45
330
5
100
AcDbSymbolTableRecord
100
AcDbLinetypeTableRecord
  2
DOTSX
 70
     0
  3
ICAD/SX(5) Dot . . . . . . . . . . . . . . . . . . . . . . . .
 72
    65
 73
     2
 40
6.35
 49
3.175
 74
     0
 49
-3.175
 74
     0
  0
ENDTAB
  0
TABLE
  2
LAYER
  5
2
330
0
100
AcDbSymbolTable
 70
     6
  0
LAYER
  5
10
330
2
100
AcDbSymbolTableRecord
100
AcDbLayerTableRecord
  2
0
 70
     0
 62
     7
  6
Continuous
370
    -3
390
F
  0
LAYER
  5
46
330
2
100
AcDbSymbolTableRecord
100
AcDbLayerTableRecord
  2
NoLayerName_001
 70
     0
 62
     7
  6
Continuous
370
    -3
390
F
  0
LAYER
  5
47
330
2
100
AcDbSymbolTableRecord
100
AcDbLayerTableRecord
  2
NoLayerName_002
 70
     0
 62
     7
  6
Continuous
370
    -3
390
F
  0
LAYER
  5
48
330
2
100
AcDbSymbolTableRecord
100
AcDbLayerTableRecord
  2
NoLayerName_003
 70
     0
 62
     7
  6
Continuous
370
    -3
390
F
  0
LAYER
  5
49
330
2
100
AcDbSymbolTableRecord
100
AcDbLayerTableRecord
  2
Defpoints
 70
     0
 62
     7
  6
Continuous
290
     0
370
    -3
390
F
  0
LAYER
  5
4A
330
2
100
AcDbSymbolTableRecord
100
AcDbLayerTableRecord
  2
SX_DraftLine
 70
     0
 62
     7
  6
Continuous
290
     0
370
    -3
390
F
  0
ENDTAB
  0
TABLE
  2
STYLE
  5
3
330
0
100
AcDbSymbolTable
 70
     2
  0
STYLE
  5
11
330
3
100
AcDbSymbolTableRecord
100
AcDbTextStyleTableRecord
  2
Standard
 70
     0
 40
0.0
 41
1.0
 50
0.0
 71
     0
 42
2.5
  3
txt
  4
extfont2
  0
STYLE
  5
3F
330
3
100
AcDbSymbolTableRecord
100
AcDbTextStyleTableRecord
  2

 70
     1
 40
0.0
 41
1.0
 50
0.0
 71
     0
 42
2.5
  3
ltypeshp.shx
  4

  0
ENDTAB
  0
TABLE
  2
VIEW
  5
6
330
0
100
AcDbSymbolTable
 70
     0
  0
ENDTAB
  0
TABLE
  2
UCS
  5
7
330
0
100
AcDbSymbolTable
 70
     0
  0
ENDTAB
  0
TABLE
  2
APPID
  5
9
330
0
100
AcDbSymbolTable
 70
     1
  0
APPID
  5
12
330
9
100
AcDbSymbolTableRecord
100
AcDbRegAppTableRecord
  2
ACAD
 70
     0
  0
ENDTAB
  0
TABLE
  2
DIMSTYLE
  5
A
330
0
100
AcDbSymbolTable
 70
     1
100
AcDbDimStyleTable
  0
DIMSTYLE
105
27
330
A
100
AcDbSymbolTableRecord
100
AcDbDimStyleTableRecord
  2
Standard
 70
     0
 41
2.5
 42
0.625
 43
3.75
 44
1.25
 73
     0
 74
     0
 77
     1
140
2.5
141
2.5
143
0.03937007874016
146
0.75
147
0.625
171
     3
172
     1
178
     0
271
     2
272
     2
274
     3
283
     0
284
     8
340
11
  0
ENDTAB
  0
TABLE
  2
BLOCK_RECORD
  5
1
330
0
100
AcDbSymbolTable
 70
     1
  0
BLOCK_RECORD
  5
1F
330
1
100
AcDbSymbolTableRecord
100
AcDbBlockTableRecord
  2
*Model_Space
340
22
  0
BLOCK_RECORD
  5
1B
330
1
100
AcDbSymbolTableRecord
100
AcDbBlockTableRecord
  2
*Paper_Space
340
1E
  0
BLOCK_RECORD
  5
23
330
1
100
AcDbSymbolTableRecord
100
AcDbBlockTableRecord
  2
*Paper_Space0
340
0
  0
ENDTAB
  0
ENDSEC
  0
SECTION
  2
BLOCKS
  0
BLOCK
  5
20
330
1F
100
AcDbEntity
  8
0
100
AcDbBlockBegin
  2
*Model_Space
 70
     0
 10
0.0
 20
0.0
 30
0.0
  3
*Model_Space
  1

  0
ENDBLK
  5
21
330
1F
100
AcDbEntity
  8
0
100
AcDbBlockEnd
  0
BLOCK
  5
1C
330
1B
100
AcDbEntity
 67
     1
  8
0
100
AcDbBlockBegin
  2
*Paper_Space
 70
     0
 10
0.0
 20
0.0
 30
0.0
  3
*Paper_Space
  1

  0
ENDBLK
  5
1D
330
1B
100
AcDbEntity
 67
     1
  8
0
100
AcDbBlockEnd
  0
BLOCK
  5
24
330
23
100
AcDbEntity
  8
0
100
AcDbBlockBegin
  2
*Paper_Space0
 70
     0
 10
0.0
 20
0.0
 30
0.0
  3
*Paper_Space0
  1

  0
ENDBLK
  5
25
330
23
100
AcDbEntity
  8
0
100
AcDbBlockEnd
  0
ENDSEC
  0
SECTION
  2
ENTITIES
  0
POINT
  5
4B
330
1F
100
AcDbEntity
  8
NoLayerName_001
  6
Continuous
 62
     7
 60
     1
370
    50
100
AcDbPoint
 10
0.0
 20
0.0
 30
0.0
  0
CIRCLE
  5
4C
330
1F
100
AcDbEntity
  8
NoLayerName_001
  6
DOTSX
 62
     1
370
    25
100
AcDbCircle
 10
140.0844091294135
 20
161.3182340985406
 30
0.0
 40
2.0
  0
CIRCLE
  5
4D
330
1F
100
AcDbEntity
  8
NoLayerName_001
  6
DOTSX
 62
     1
370
    25
100
AcDbCircle
 10
140.0844091294135
 20
221.3182340985406
 30
0.0
 40
2.0
  0
CIRCLE
  5
4E
330
1F
100
AcDbEntity
  8
NoLayerName_001
  6
DOTSX
 62
     1
370
    25
100
AcDbCircle
 10
80.08440912941336
 20
161.3182340985406
 30
0.0
 40
2.0
  0
CIRCLE
  5
4F
330
1F
100
AcDbEntity
  8
NoLayerName_001
  6
DOTSX
 62
     1
370
    25
100
AcDbCircle
 10
80.08440912941336
 20
221.3182340985406
 30
0.0
 40
2.0
  0
LINE
  5
50
330
1F
100
AcDbEntity
  8
NoLayerName_001
  6
DOTSX
 62
     7
370
    25
100
AcDbLine
 10
159.0844091294135
 20
227.0682340985406
 30
0.0
 11
157.5844091294135
 21
227.0682340985406
 31
0.0
  0
LINE
  5
51
330
1F
100
AcDbEntity
  8
NoLayerName_001
  6
DOTSX
 62
     7
370
    25
100
AcDbLine
 10
159.0844091294135
 20
209.0682340985406
 30
0.0
 11
157.5844091294135
 21
209.0682340985406
 31
0.0
  0
LINE
  5
52
330
1F
100
AcDbEntity
  8
NoLayerName_001
  6
DOTSX
 62
     1
370
    25
100
AcDbLine
 10
159.5844091294135
 20
226.5682340985406
 30
0.0
 11
159.5844091294135
 21
209.5682340985406
 31
0.0
  0
LINE
  5
53
330
1F
100
AcDbEntity
  8
NoLayerName_001
  6
DOTSX
 62
     7
370
    25
100
AcDbLine
 10
159.0844091294135
 20
200.3182340985406
 30
0.0
 11
157.5844091294134
 21
200.3182340985406
 31
0.0
  0
LINE
  5
54
330
1F
100
AcDbEntity
  8
NoLayerName_001
  6
DOTSX
 62
     1
370
    25
100
AcDbLine
 10
159.5844091294135
 20
182.8182340985406
 30
0.0
 11
159.5844091294135
 21
199.8182340985406
 31
0.0
  0
LINE
  5
55
330
1F
100
AcDbEntity
  8
NoLayerName_001
  6
DOTSX
 62
     7
370
    25
100
AcDbLine
 10
159.0844091294135
 20
182.3182340985406
 30
0.0
 11
157.5844091294135
 21
182.3182340985406
 31
0.0
  0
LINE
  5
56
330
1F
100
AcDbEntity
  8
NoLayerName_001
  6
DOTSX
 62
     7
370
    25
100
AcDbLine
 10
159.0844091294135
 20
173.5682340985406
 30
0.0
 11
157.5844091294134
 21
173.5682340985406
 31
0.0
  0
LINE
  5
57
330
1F
100
AcDbEntity
  8
NoLayerName_001
  6
DOTSX
 62
     1
370
    25
100
AcDbLine
 10
159.5844091294135
 20
156.0682340985406
 30
0.0
 11
159.5844091294135
 21
173.0682340985406
 31
0.0
  0
LINE
  5
58
330
1F
100
AcDbEntity
  8
NoLayerName_001
  6
DOTSX
 62
     7
370
    25
100
AcDbLine
 10
159.0844091294135
 20
155.5682340985406
 30
0.0
 11
157.5844091294135
 21
155.5682340985406
 31
0.0
  0
LINE
  5
59
330
1F
100
AcDbEntity
  8
NoLayerName_002
  6
DOTSX
 62
     4
370
    25
100
AcDbLine
 10
119.0844091294134
 20
142.3182340985406
 30
0.0
 11
119.0844091294134
 21
143.8182340985406
 31
0.0
  0
LINE
  5
5A
330
1F
100
AcDbEntity
  8
NoLayerName_001
  6
DOTSX
 62
     1
370
    25
100
AcDbLine
 10
101.5844091294134
 20
141.8182340985406
 30
0.0
 11
118.5844091294134
 21
141.8182340985406
 31
0.0
  0
LINE
  5
5B
330
1F
100
AcDbEntity
  8
NoLayerName_002
  6
DOTSX
 62
     4
370
    25
100
AcDbLine
 10
101.0844091294134
 20
142.3182340985406
 30
0.0
 11
101.0844091294134
 21
143.8182340985406
 31
0.0
  0
LINE
  5
5C
330
1F
100
AcDbEntity
  8
NoLayerName_002
  6
DOTSX
 62
     4
370
    25
100
AcDbLine
 10
101.0844091294134
 20
240.3182340985406
 30
0.0
 11
101.0844091294134
 21
238.8182340985406
 31
0.0
  0
LINE
  5
5D
330
1F
100
AcDbEntity
  8
NoLayerName_001
  6
DOTSX
 62
     1
370
    25
100
AcDbLine
 10
118.5844091294134
 20
240.8182340985406
 30
0.0
 11
101.5844091294134
 21
240.8182340985406
 31
0.0
  0
LINE
  5
5E
330
1F
100
AcDbEntity
  8
NoLayerName_002
  6
DOTSX
 62
     4
370
    25
100
AcDbLine
 10
119.0844091294134
 20
240.3182340985406
 30
0.0
 11
119.0844091294134
 21
238.8182340985406
 31
0.0
  0
LINE
  5
5F
330
1F
100
AcDbEntity
  8
NoLayerName_001
  6
DOTSX
 62
     1
370
    25
100
AcDbLine
 10
60.58440912941325
 20
226.5682340985406
 30
0.0
 11
60.58440912941325
 21
209.5682340985406
 31
0.0
  0
LINE
  5
60
330
1F
100
AcDbEntity
  8
NoLayerName_001
  6
DOTSX
 62
     1
370
    25
100
AcDbLine
 10
60.58440912941325
 20
199.8182340985406
 30
0.0
 11
60.58440912941325
 21
182.8182340985406
 31
0.0
  0
LINE
  5
61
330
1F
100
AcDbEntity
  8
NoLayerName_001
  6
DOTSX
 62
     1
370
    25
100
AcDbLine
 10
60.58440912941325
 20
173.0682340985406
 30
0.0
 11
60.58440912941325
 21
156.0682340985406
 31
0.0
  0
LINE
  5
62
330
1F
100
AcDbEntity
  8
NoLayerName_001
  6
DOTSX
 62
     7
370
    25
100
AcDbLine
 10
61.08440912941325
 20
200.3182340985406
 30
0.0
 11
62.58440912941336
 21
200.3182340985406
 31
0.0
  0
LINE
  5
63
330
1F
100
AcDbEntity
  8
NoLayerName_001
  6
DOTSX
 62
     7
370
    25
100
AcDbLine
 10
61.08440912941325
 20
209.0682340985406
 30
0.0
 11
62.58440912941336
 21
209.0682340985406
 31
0.0
  0
LINE
  5
64
330
1F
100
AcDbEntity
  8
NoLayerName_001
  6
DOTSX
 62
     7
370
    25
100
AcDbLine
 10
61.08440912941325
 20
227.0682340985406
 30
0.0
 11
62.58440912941336
 21
227.0682340985406
 31
0.0
  0
LINE
  5
65
330
1F
100
AcDbEntity
  8
NoLayerName_001
  6
DOTSX
 62
     7
370
    25
100
AcDbLine
 10
61.08440912941325
 20
182.3182340985406
 30
0.0
 11
62.58440912941336
 21
182.3182340985406
 31
0.0
  0
LINE
  5
66
330
1F
100
AcDbEntity
  8
NoLayerName_001
  6
DOTSX
 62
     7
370
    25
100
AcDbLine
 10
61.08440912941325
 20
173.5682340985406
 30
0.0
 11
62.58440912941336
 21
173.5682340985406
 31
0.0
  0
LINE
  5
67
330
1F
100
AcDbEntity
  8
NoLayerName_001
  6
DOTSX
 62
     7
370
    25
100
AcDbLine
 10
61.08440912941325
 20
155.5682340985406
 30
0.0
 11
62.58440912941336
 21
155.5682340985406
 31
0.0
  0
ARC
  5
68
330
1F
100
AcDbEntity
  8
NoLayerName_001
  6
DOTSX
 62
     7
370
    25
100
AcDbCircle
 10
159.0844091294135
 20
209.5682340985406
 30
0.0
 40
0.5
100
AcDbArc
 50
270.0
 51
0.0
  0
ARC
  5
69
330
1F
100
AcDbEntity
  8
NoLayerName_001
  6
DOTSX
 62
     7
370
    25
100
AcDbCircle
 10
159.0844091294135
 20
226.5682340985406
 30
0.0
 40
0.5
100
AcDbArc
 50
0.0
 51
90.0
  0
ARC
  5
6A
330
1F
100
AcDbEntity
  8
NoLayerName_001
  6
DOTSX
 62
     7
370
    25
100
AcDbCircle
 10
159.0844091294135
 20
199.8182340985406
 30
0.0
 40
0.5
100
AcDbArc
 50
0.0
 51
90.0
  0
ARC
  5
6B
330
1F
100
AcDbEntity
  8
NoLayerName_001
  6
DOTSX
 62
     7
370
    25
100
AcDbCircle
 10
159.0844091294135
 20
182.8182340985406
 30
0.0
 40
0.5
100
AcDbArc
 50
270.0
 51
0.0
  0
ARC
  5
6C
330
1F
100
AcDbEntity
  8
NoLayerName_001
  6
DOTSX
 62
     7
370
    25
100
AcDbCircle
 10
159.0844091294135
 20
173.0682340985406
 30
0.0
 40
0.5
100
AcDbArc
 50
0.0
 51
90.0
  0
ARC
  5
6D
330
1F
100
AcDbEntity
  8
NoLayerName_001
  6
DOTSX
 62
     7
370
    25
100
AcDbCircle
 10
159.0844091294135
 20
156.0682340985406
 30
0.0
 40
0.5
100
AcDbArc
 50
270.0
 51
0.0
  0
ARC
  5
6E
330
1F
100
AcDbEntity
  8
NoLayerName_002
  6
DOTSX
 62
     4
370
    25
100
AcDbCircle
 10
118.5844091294134
 20
142.3182340985406
 30
0.0
 40
0.5
100
AcDbArc
 50
270.0
 51
0.0
  0
ARC
  5
6F
330
1F
100
AcDbEntity
  8
NoLayerName_001
  6
DOTSX
 62
     1
370
    25
100
AcDbCircle
 10
101.5844091294134
 20
142.3182340985406
 30
0.0
 40
0.5
100
AcDbArc
 50
180.0
 51
270.0
  0
ARC
  5
70
330
1F
100
AcDbEntity
  8
NoLayerName_002
  6
DOTSX
 62
     4
370
    25
100
AcDbCircle
 10
101.5844091294134
 20
240.3182340985406
 30
0.0
 40
0.5
100
AcDbArc
 50
90.0
 51
180.0
  0
ARC
  5
71
330
1F
100
AcDbEntity
  8
NoLayerName_002
  6
DOTSX
 62
     4
370
    25
100
AcDbCircle
 10
118.5844091294134
 20
240.3182340985406
 30
0.0
 40
0.5
100
AcDbArc
 50
0.0
 51
90.0
  0
ARC
  5
72
330
1F
100
AcDbEntity
  8
NoLayerName_001
  6
DOTSX
 62
     1
370
    25
100
AcDbCircle
 10
61.08440912941325
 20
156.0682340985406
 30
0.0
 40
0.5
100
AcDbArc
 50
180.0
 51
270.0
  0
ARC
  5
73
330
1F
100
AcDbEntity
  8
NoLayerName_001
  6
DOTSX
 62
     1
370
    25
100
AcDbCircle
 10
61.08440912941325
 20
173.0682340985406
 30
0.0
 40
0.5
100
AcDbArc
 50
90.0
 51
180.0
  0
ARC
  5
74
330
1F
100
AcDbEntity
  8
NoLayerName_001
  6
DOTSX
 62
     1
370
    25
100
AcDbCircle
 10
61.08440912941325
 20
182.8182340985406
 30
0.0
 40
0.5
100
AcDbArc
 50
180.0
 51
270.0
  0
ARC
  5
75
330
1F
100
AcDbEntity
  8
NoLayerName_001
  6
DOTSX
 62
     1
370
    25
100
AcDbCircle
 10
61.08440912941325
 20
199.8182340985406
 30
0.0
 40
0.5
100
AcDbArc
 50
90.0
 51
180.0
  0
ARC
  5
76
330
1F
100
AcDbEntity
  8
NoLayerName_001
  6
DOTSX
 62
     1
370
    25
100
AcDbCircle
 10
61.08440912941325
 20
209.5682340985406
 30
0.0
 40
0.5
100
AcDbArc
 50
180.0
 51
270.0
  0
ARC
  5
77
330
1F
100
AcDbEntity
  8
NoLayerName_001
  6
DOTSX
 62
     1
370
    25
100
AcDbCircle
 10
61.08440912941325
 20
226.5682340985406
 30
0.0
 40
0.5
100
AcDbArc
 50
90.0
 51
180.0
  0
LINE
  5
78
330
1F
100
AcDbEntity
  8
NoLayerName_001
  6
Continuous
 62
     7
370
    50
100
AcDbLine
 10
157.5844091294135
 20
229.0682340985406
 30
0.0
 11
152.7647105948555
 21
228.1555424551137
 31
0.0
  0
LINE
  5
79
330
1F
100
AcDbEntity
  8
NoLayerName_001
  6
Continuous
 62
     7
370
    50
100
AcDbLine
 10
146.8344091294134
 20
233.0682340985406
 30
0.0
 11
146.8344091294134
 21
238.8182340985406
 31
0.0
  0
ARC
  5
7A
330
1F
100
AcDbEntity
  8
NoLayerName_001
  6
Continuous
 62
     7
370
    50
100
AcDbCircle
 10
151.8344091294134
 20
233.0682340985406
 30
0.0
 40
5.0
100
AcDbArc
 50
180.0
 51
280.7229560671142
  0
LINE
  5
7B
330
1F
100
AcDbEntity
  8
NoLayerName_001
  6
Continuous
 62
     7
370
    50
100
AcDbLine
 10
157.5844091294135
 20
153.5682340985406
 30
0.0
 11
152.7647105948555
 21
154.4809257419674
 31
0.0
  0
LINE
  5
7C
330
1F
100
AcDbEntity
  8
NoLayerName_002
  6
Continuous
 62
     4
370
    50
100
AcDbLine
 10
111.0844091294134
 20
238.8182340985406
 30
0.0
 11
111.0844091294134
 21
241.8182340985406
 31
0.0
  0
LINE
  5
7D
330
1F
100
AcDbEntity
  8
NoLayerName_002
  6
Continuous
 62
     4
370
    50
100
AcDbLine
 10
109.0844091294134
 20
238.8182340985406
 30
0.0
 11
109.0844091294134
 21
241.8182340985406
 31
0.0
  0
LINE
  5
7E
330
1F
100
AcDbEntity
  8
NoLayerName_002
  6
Continuous
 62
     4
370
    50
100
AcDbLine
 10
111.0844091294134
 20
143.8182340985406
 30
0.0
 11
111.0844091294134
 21
140.8182340985406
 31
0.0
  0
LINE
  5
7F
330
1F
100
AcDbEntity
  8
NoLayerName_002
  6
Continuous
 62
     4
370
    50
100
AcDbLine
 10
109.0844091294134
 20
143.8182340985406
 30
0.0
 11
109.0844091294134
 21
140.8182340985406
 31
0.0
  0
LINE
  5
80
330
1F
100
AcDbEntity
  8
NoLayerName_001
  6
Continuous
 62
     1
370
    50
100
AcDbLine
 10
111.0844091294133
 20
104.7843219703242
 30
0.0
 11
109.0844091294133
 21
104.7843219703242
 31
0.0
  0
LINE
  5
81
330
1F
100
AcDbEntity
  8
NoLayerName_002
  6
Continuous
 62
     3
370
    50
100
AcDbLine
 10
109.0844091294133
 20
105.7843219703242
 30
0.0
 11
109.0844091294133
 21
104.7843219703242
 31
0.0
  0
LINE
  5
82
330
1F
100
AcDbEntity
  8
NoLayerName_002
  6
Continuous
 62
     3
370
    50
100
AcDbLine
 10
111.0844091294133
 20
105.7843219703242
 30
0.0
 11
111.0844091294133
 21
104.7843219703242
 31
0.0
  0
LINE
  5
83
330
1F
100
AcDbEntity
  8
NoLayerName_001
  6
Continuous
 62
     1
370
    50
100
AcDbLine
 10
160.5844091294133
 20
105.7843219703242
 30
0.0
 11
111.0844091294133
 21
105.7843219703242
 31
0.0
  0
LINE
  5
84
330
1F
100
AcDbEntity
  8
NoLayerName_001
  6
Continuous
 62
     1
370
    50
100
AcDbLine
 10
109.0844091294133
 20
105.7843219703242
 30
0.0
 11
59.5844091294133
 21
105.7843219703242
 31
0.0
  0
LINE
  5
85
330
1F
100
AcDbEntity
  8
NoLayerName_001
  6
Continuous
 62
     7
370
    50
100
AcDbLine
 10
146.8344091294134
 20
149.5682340985406
 30
0.0
 11
146.8344091294134
 21
143.8182340985406
 31
0.0
  0
ARC
  5
86
330
1F
100
AcDbEntity
  8
NoLayerName_001
  6
Continuous
 62
     7
370
    50
100
AcDbCircle
 10
151.8344091294134
 20
149.5682340985406
 30
0.0
 40
5.0
100
AcDbArc
 50
79.27704393288585
 51
180.0
  0
LINE
  5
87
330
1F
100
AcDbEntity
  8
NoLayerName_001
  6
Continuous
 62
     7
370
    50
100
AcDbLine
 10
62.58440912941325
 20
229.0682340985406
 30
0.0
 11
67.40410766397119
 21
228.1555424551137
 31
0.0
  0
LINE
  5
88
330
1F
100
AcDbEntity
  8
NoLayerName_001
  6
Continuous
 62
     7
370
    50
100
AcDbLine
 10
73.33440912941336
 20
233.0682340985406
 30
0.0
 11
73.33440912941336
 21
238.8182340985406
 31
0.0
  0
ARC
  5
89
330
1F
100
AcDbEntity
  8
NoLayerName_001
  6
Continuous
 62
     7
370
    50
100
AcDbCircle
 10
68.33440912941336
 20
233.0682340985406
 30
0.0
 40
5.0
100
AcDbArc
 50
259.2770439328858
 51
0.0
  0
LINE
  5
8A
330
1F
100
AcDbEntity
  8
NoLayerName_001
  6
Continuous
 62
     7
370
    50
100
AcDbLine
 10
62.58440912941325
 20
153.5682340985406
 30
0.0
 11
67.40410766397119
 21
154.4809257419674
 31
0.0
  0
LINE
  5
8B
330
1F
100
AcDbEntity
  8
NoLayerName_001
  6
Continuous
 62
     7
370
    50
100
AcDbLine
 10
73.33440912941336
 20
149.5682340985406
 30
0.0
 11
73.33440912941336
 21
143.8182340985406
 31
0.0
  0
ARC
  5
8C
330
1F
100
AcDbEntity
  8
NoLayerName_001
  6
Continuous
 62
     7
370
    50
100
AcDbCircle
 10
68.33440912941336
 20
149.5682340985406
 30
0.0
 40
5.0
100
AcDbArc
 50
0.0
 51
100.7229560671142
  0
CIRCLE
  5
8D
330
1F
100
AcDbEntity
  8
NoLayerName_001
  6
DOTSX
 62
    30
370
    25
100
AcDbCircle
 10
110.0844091294134
 20
211.3182340985407
 30
0.0
 40
2.5
  0
LINE
  5
8E
330
1F
100
AcDbEntity
  8
NoLayerName_001
  6
DOTSX
 62
    30
370
    25
100
AcDbLine
 10
110.5844091294134
 20
208.8687443557575
 30
0.0
 11
110.5844091294134
 21
209.9040205361676
 31
0.0
  0
LINE
  5
8F
330
1F
100
AcDbEntity
  8
NoLayerName_001
  6
DOTSX
 62
    30
370
    25
100
AcDbLine
 10
109.5844091294134
 20
208.8687443557575
 30
0.0
 11
109.5844091294134
 21
209.9040205361676
 31
0.0
  0
CIRCLE
  5
90
330
1F
100
AcDbEntity
  8
NoLayerName_001
  6
DOTSX
 62
    30
370
    25
100
AcDbCircle
 10
110.0844091294134
 20
211.3182340985407
 30
0.0
 40
1.5
  0
CIRCLE
  5
91
330
1F
100
AcDbEntity
  8
NoLayerName_001
  6
DOTSX
 62
    30
370
    25
100
AcDbCircle
 10
110.0844091294135
 20
171.3182340985407
 30
0.0
 40
2.5
  0
LINE
  5
92
330
1F
100
AcDbEntity
  8
NoLayerName_001
  6
DOTSX
 62
    30
370
    25
100
AcDbLine
 10
110.5844091294135
 20
173.7677238413239
 30
0.0
 11
110.5844091294135
 21
172.7324476609138
 31
0.0
  0
LINE
  5
93
330
1F
100
AcDbEntity
  8
NoLayerName_001
  6
DOTSX
 62
    30
370
    25
100
AcDbLine
 10
109.5844091294135
 20
173.7677238413239
 30
0.0
 11
109.5844091294135
 21
172.7324476609138
 31
0.0
  0
CIRCLE
  5
94
330
1F
100
AcDbEntity
  8
NoLayerName_001
  6
DOTSX
 62
    30
370
    25
100
AcDbCircle
 10
110.0844091294135
 20
171.3182340985407
 30
0.0
 40
1.5
  0
CIRCLE
  5
95
330
1F
100
AcDbEntity
  8
NoLayerName_001
  6
DOTSX
 62
    30
370
    25
100
AcDbCircle
 10
135.0844091294134
 20
191.3182340985406
 30
0.0
 40
2.5
  0
LINE
  5
96
330
1F
100
AcDbEntity
  8
NoLayerName_001
  6
DOTSX
 62
    30
370
    25
100
AcDbLine
 10
132.6349193866302
 20
190.8182340985406
 30
0.0
 11
133.6701955670403
 21
190.8182340985406
 31
0.0
  0
LINE
  5
97
330
1F
100
AcDbEntity
  8
NoLayerName_001
  6
DOTSX
 62
    30
370
    25
100
AcDbLine
 10
132.6349193866302
 20
191.8182340985406
 30
0.0
 11
133.6701955670403
 21
191.8182340985406
 31
0.0
  0
CIRCLE
  5
98
330
1F
100
AcDbEntity
  8
NoLayerName_001
  6
DOTSX
 62
    30
370
    25
100
AcDbCircle
 10
135.0844091294134
 20
191.3182340985406
 30
0.0
 40
1.5
  0
CIRCLE
  5
99
330
1F
100
AcDbEntity
  8
NoLayerName_001
  6
DOTSX
 62
    30
370
    25
100
AcDbCircle
 10
110.0844091294132
 20
171.3182340985405
 30
0.0
 40
2.5
  0
LINE
  5
9A
330
1F
100
AcDbEntity
  8
NoLayerName_001
  6
DOTSX
 62
    30
370
    25
100
AcDbLine
 10
109.5844091294132
 20
173.7677238413236
 30
0.0
 11
109.5844091294132
 21
172.7324476609136
 31
0.0
  0
LINE
  5
9B
330
1F
100
AcDbEntity
  8
NoLayerName_001
  6
DOTSX
 62
    30
370
    25
100
AcDbLine
 10
110.5844091294132
 20
173.7677238413236
 30
0.0
 11
110.5844091294132
 21
172.7324476609136
 31
0.0
  0
CIRCLE
  5
9C
330
1F
100
AcDbEntity
  8
NoLayerName_001
  6
DOTSX
 62
    30
370
    25
100
AcDbCircle
 10
110.0844091294132
 20
171.3182340985405
 30
0.0
 40
1.5
  0
CIRCLE
  5
9D
330
1F
100
AcDbEntity
  8
NoLayerName_001
  6
DOTSX
 62
    30
370
    25
100
AcDbCircle
 10
110.0844091294131
 20
211.3182340985405
 30
0.0
 40
2.5
  0
LINE
  5
9E
330
1F
100
AcDbEntity
  8
NoLayerName_001
  6
DOTSX
 62
    30
370
    25
100
AcDbLine
 10
109.5844091294131
 20
208.8687443557573
 30
0.0
 11
109.5844091294131
 21
209.9040205361674
 31
0.0
  0
LINE
  5
9F
330
1F
100
AcDbEntity
  8
NoLayerName_001
  6
DOTSX
 62
    30
370
    25
100
AcDbLine
 10
110.5844091294131
 20
208.8687443557573
 30
0.0
 11
110.5844091294131
 21
209.9040205361674
 31
0.0
  0
CIRCLE
  5
A0
330
1F
100
AcDbEntity
  8
NoLayerName_001
  6
DOTSX
 62
    30
370
    25
100
AcDbCircle
 10
110.0844091294131
 20
211.3182340985405
 30
0.0
 40
1.5
  0
CIRCLE
  5
A1
330
1F
100
AcDbEntity
  8
NoLayerName_001
  6
DOTSX
 62
    30
370
    25
100
AcDbCircle
 10
110.0844091294134
 20
221.3182340985406
 30
0.0
 40
2.5
  0
LINE
  5
A2
330
1F
100
AcDbEntity
  8
NoLayerName_001
  6
DOTSX
 62
    30
370
    25
100
AcDbLine
 10
110.5844091294134
 20
218.8687443557574
 30
0.0
 11
110.5844091294134
 21
219.9040205361675
 31
0.0
  0
LINE
  5
A3
330
1F
100
AcDbEntity
  8
NoLayerName_001
  6
DOTSX
 62
    30
370
    25
100
AcDbLine
 10
109.5844091294134
 20
218.8687443557574
 30
0.0
 11
109.5844091294134
 21
219.9040205361675
 31
0.0
  0
CIRCLE
  5
A4
330
1F
100
AcDbEntity
  8
NoLayerName_001
  6
DOTSX
 62
    30
370
    25
100
AcDbCircle
 10
110.0844091294134
 20
221.3182340985406
 30
0.0
 40
1.5
  0
CIRCLE
  5
A5
330
1F
100
AcDbEntity
  8
NoLayerName_001
  6
DOTSX
 62
    30
370
    25
100
AcDbCircle
 10
110.0844091294134
 20
161.3182340985405
 30
0.0
 40
2.5
  0
LINE
  5
A6
330
1F
100
AcDbEntity
  8
NoLayerName_001
  6
DOTSX
 62
    30
370
    25
100
AcDbLine
 10
109.5844091294134
 20
163.7677238413236
 30
0.0
 11
109.5844091294134
 21
162.7324476609136
 31
0.0
  0
LINE
  5
A7
330
1F
100
AcDbEntity
  8
NoLayerName_001
  6
DOTSX
 62
    30
370
    25
100
AcDbLine
 10
110.5844091294134
 20
163.7677238413236
 30
0.0
 11
110.5844091294134
 21
162.7324476609136
 31
0.0
  0
CIRCLE
  5
A8
330
1F
100
AcDbEntity
  8
NoLayerName_001
  6
DOTSX
 62
    30
370
    25
100
AcDbCircle
 10
110.0844091294134
 20
161.3182340985405
 30
0.0
 40
1.5
  0
CIRCLE
  5
A9
330
1F
100
AcDbEntity
  8
NoLayerName_001
  6
DOTSX
 62
    30
370
    25
100
AcDbCircle
 10
85.08440912941336
 20
191.3182340985406
 30
0.0
 40
2.5
  0
LINE
  5
AA
330
1F
100
AcDbEntity
  8
NoLayerName_001
  6
DOTSX
 62
    30
370
    25
100
AcDbLine
 10
87.53389887219652
 20
190.8182340985406
 30
0.0
 11
86.49862269178644
 21
190.8182340985406
 31
0.0
  0
LINE
  5
AB
330
1F
100
AcDbEntity
  8
NoLayerName_001
  6
DOTSX
 62
    30
370
    25
100
AcDbLine
 10
87.53389887219652
 20
191.8182340985406
 30
0.0
 11
86.49862269178644
 21
191.8182340985406
 31
0.0
  0
CIRCLE
  5
AC
330
1F
100
AcDbEntity
  8
NoLayerName_001
  6
DOTSX
 62
    30
370
    25
100
AcDbCircle
 10
85.08440912941336
 20
191.3182340985406
 30
0.0
 40
1.5
  0
LINE
  5
AD
330
1F
100
AcDbEntity
  8
NoLayerName_002
  6
DOTSX
 62
     4
370
    25
100
AcDbLine
 10
120.0844091294134
 20
241.8182340985406
 30
0.0
 11
120.0844091294134
 21
238.8182340985406
 31
0.0
  0
LINE
  5
AE
330
1F
100
AcDbEntity
  8
NoLayerName_002
  6
DOTSX
 62
     4
370
    25
100
AcDbLine
 10
100.0844091294134
 20
241.8182340985406
 30
0.0
 11
100.0844091294134
 21
238.8182340985406
 31
0.0
  0
LINE
  5
AF
330
1F
100
AcDbEntity
  8
NoLayerName_002
  6
DOTSX
 62
     4
370
    25
100
AcDbLine
 10
120.0844091294134
 20
140.8182340985406
 30
0.0
 11
120.0844091294134
 21
143.8182340985406
 31
0.0
  0
LINE
  5
B0
330
1F
100
AcDbEntity
  8
NoLayerName_002
  6
DOTSX
 62
     4
370
    25
100
AcDbLine
 10
100.0844091294134
 20
140.8182340985406
 30
0.0
 11
100.0844091294134
 21
143.8182340985406
 31
0.0
  0
LINE
  5
B1
330
1F
100
AcDbEntity
  8
NoLayerName_001
  6
Continuous
 62
     1
370
    50
100
AcDbLine
 10
158.5844091294135
 20
140.8182340985406
 30
0.0
 11
136.0844091294135
 21
140.8182340985406
 31
0.0
  0
LINE
  5
B2
330
1F
100
AcDbEntity
  8
NoLayerName_001
  6
Continuous
 62
     1
370
    50
100
AcDbLine
 10
59.58440912941336
 20
142.8182340985406
 30
0.0
 11
59.58440912941338
 21
239.8182340985406
 31
0.0
  0
LINE
  5
B3
330
1F
100
AcDbEntity
  8
NoLayerName_001
  6
Continuous
 62
     1
370
    50
100
AcDbLine
 10
61.58440912941336
 20
241.8182340985406
 30
0.0
 11
84.08440912941336
 21
241.8182340985406
 31
0.0
  0
LINE
  5
B4
330
1F
100
AcDbEntity
  8
NoLayerName_001
  6
Continuous
 62
     1
370
    50
100
AcDbLine
 10
160.5844091294135
 20
239.8182340985406
 30
0.0
 11
160.5844091294134
 21
142.8182340985406
 31
0.0
  0
LINE
  5
B5
330
1F
100
AcDbEntity
  8
NoLayerName_001
  6
Continuous
 62
     1
370
    50
100
AcDbLine
 10
157.5844091294135
 20
143.8182340985406
 30
0.0
 11
62.58440912941347
 21
143.8182340985406
 31
0.0
  0
LINE
  5
B6
330
1F
100
AcDbEntity
  8
NoLayerName_001
  6
Continuous
 62
     1
370
    50
100
AcDbLine
 10
62.58440912941336
 20
238.8182340985406
 30
0.0
 11
157.5844091294134
 21
238.8182340985406
 31
0.0
  0
LINE
  5
B7
330
1F
100
AcDbEntity
  8
NoLayerName_001
  6
Continuous
 62
     1
370
    50
100
AcDbLine
 10
127.0844091294135
 20
143.8182340985406
 30
0.0
 11
129.0844091294135
 21
142.3182340985406
 31
0.0
  0
LINE
  5
B8
330
1F
100
AcDbEntity
  8
NoLayerName_001
  6
Continuous
 62
     1
370
    50
100
AcDbLine
 10
129.0844091294135
 20
142.3182340985406
 30
0.0
 11
133.0844091294135
 21
142.3182340985406
 31
0.0
  0
LINE
  5
B9
330
1F
100
AcDbEntity
  8
NoLayerName_001
  6
Continuous
 62
     1
370
    50
100
AcDbLine
 10
133.0844091294135
 20
142.3182340985406
 30
0.0
 11
135.0844091294135
 21
143.8182340985406
 31
0.0
  0
LINE
  5
BA
330
1F
100
AcDbEntity
  8
NoLayerName_001
  6
Continuous
 62
     1
370
    50
100
AcDbLine
 10
136.0844091294135
 20
140.8182340985406
 30
0.0
 11
135.0844091294135
 21
140.3182340985406
 31
0.0
  0
LINE
  5
BB
330
1F
100
AcDbEntity
  8
NoLayerName_001
  6
Continuous
 62
     1
370
    50
100
AcDbLine
 10
135.0844091294135
 20
140.3182340985406
 30
0.0
 11
127.0844091294135
 21
140.3182340985406
 31
0.0
  0
LINE
  5
BC
330
1F
100
AcDbEntity
  8
NoLayerName_001
  6
Continuous
 62
     1
370
    50
100
AcDbLine
 10
127.0844091294135
 20
140.3182340985406
 30
0.0
 11
126.0844091294135
 21
140.8182340985406
 31
0.0
  0
LINE
  5
BD
330
1F
100
AcDbEntity
  8
NoLayerName_001
  6
Continuous
 62
     1
370
    50
100
AcDbLine
 10
126.0844091294135
 20
140.8182340985406
 30
0.0
 11
94.08440912941347
 21
140.8182340985406
 31
0.0
  0
LINE
  5
BE
330
1F
100
AcDbEntity
  8
NoLayerName_001
  6
Continuous
 62
     1
370
    50
100
AcDbLine
 10
93.08440912941336
 20
143.8182340985406
 30
0.0
 11
91.08440912941336
 21
142.3182340985406
 31
0.0
  0
LINE
  5
BF
330
1F
100
AcDbEntity
  8
NoLayerName_001
  6
Continuous
 62
     1
370
    50
100
AcDbLine
 10
91.08440912941336
 20
142.3182340985406
 30
0.0
 11
87.08440912941336
 21
142.3182340985406
 31
0.0
  0
LINE
  5
C0
330
1F
100
AcDbEntity
  8
NoLayerName_001
  6
Continuous
 62
     1
370
    50
100
AcDbLine
 10
87.08440912941336
 20
142.3182340985406
 30
0.0
 11
85.08440912941336
 21
143.8182340985406
 31
0.0
  0
LINE
  5
C1
330
1F
100
AcDbEntity
  8
NoLayerName_001
  6
Continuous
 62
     1
370
    50
100
AcDbLine
 10
84.08440912941336
 20
140.8182340985406
 30
0.0
 11
85.08440912941336
 21
140.3182340985406
 31
0.0
  0
LINE
  5
C2
330
1F
100
AcDbEntity
  8
NoLayerName_001
  6
Continuous
 62
     1
370
    50
100
AcDbLine
 10
85.08440912941336
 20
140.3182340985406
 30
0.0
 11
93.08440912941336
 21
140.3182340985406
 31
0.0
  0
LINE
  5
C3
330
1F
100
AcDbEntity
  8
NoLayerName_001
  6
Continuous
 62
     1
370
    50
100
AcDbLine
 10
93.08440912941336
 20
140.3182340985406
 30
0.0
 11
94.08440912941336
 21
140.8182340985406
 31
0.0
  0
LINE
  5
C4
330
1F
100
AcDbEntity
  8
NoLayerName_001
  6
Continuous
 62
     1
370
    50
100
AcDbLine
 10
84.08440912941336
 20
140.8182340985406
 30
0.0
 11
61.58440912941336
 21
140.8182340985406
 31
0.0
  0
LINE
  5
C5
330
1F
100
AcDbEntity
  8
NoLayerName_001
  6
Continuous
 62
     1
370
    50
100
AcDbLine
 10
93.08440912941336
 20
238.8182340985406
 30
0.0
 11
91.08440912941336
 21
240.3182340985406
 31
0.0
  0
LINE
  5
C6
330
1F
100
AcDbEntity
  8
NoLayerName_001
  6
Continuous
 62
     1
370
    50
100
AcDbLine
 10
91.08440912941336
 20
240.3182340985406
 30
0.0
 11
87.08440912941336
 21
240.3182340985406
 31
0.0
  0
LINE
  5
C7
330
1F
100
AcDbEntity
  8
NoLayerName_001
  6
Continuous
 62
     1
370
    50
100
AcDbLine
 10
87.08440912941336
 20
240.3182340985406
 30
0.0
 11
85.08440912941336
 21
238.8182340985406
 31
0.0
  0
LINE
  5
C8
330
1F
100
AcDbEntity
  8
NoLayerName_001
  6
Continuous
 62
     1
370
    50
100
AcDbLine
 10
84.08440912941336
 20
241.8182340985406
 30
0.0
 11
85.08440912941336
 21
242.3182340985406
 31
0.0
  0
LINE
  5
C9
330
1F
100
AcDbEntity
  8
NoLayerName_001
  6
Continuous
 62
     1
370
    50
100
AcDbLine
 10
85.08440912941336
 20
242.3182340985406
 30
0.0
 11
93.08440912941336
 21
242.3182340985406
 31
0.0
  0
LINE
  5
CA
330
1F
100
AcDbEntity
  8
NoLayerName_001
  6
Continuous
 62
     1
370
    50
100
AcDbLine
 10
93.08440912941336
 20
242.3182340985406
 30
0.0
 11
94.08440912941336
 21
241.8182340985406
 31
0.0
  0
LINE
  5
CB
330
1F
100
AcDbEntity
  8
NoLayerName_001
  6
Continuous
 62
     1
370
    50
100
AcDbLine
 10
127.0844091294135
 20
238.8182340985406
 30
0.0
 11
129.0844091294135
 21
240.3182340985406
 31
0.0
  0
LINE
  5
CC
330
1F
100
AcDbEntity
  8
NoLayerName_001
  6
Continuous
 62
     1
370
    50
100
AcDbLine
 10
129.0844091294135
 20
240.3182340985406
 30
0.0
 11
133.0844091294135
 21
240.3182340985406
 31
0.0
  0
LINE
  5
CD
330
1F
100
AcDbEntity
  8
NoLayerName_001
  6
Continuous
 62
     1
370
    50
100
AcDbLine
 10
133.0844091294135
 20
240.3182340985406
 30
0.0
 11
135.0844091294135
 21
238.8182340985406
 31
0.0
  0
LINE
  5
CE
330
1F
100
AcDbEntity
  8
NoLayerName_001
  6
Continuous
 62
     1
370
    50
100
AcDbLine
 10
136.0844091294135
 20
241.8182340985406
 30
0.0
 11
135.0844091294135
 21
242.3182340985406
 31
0.0
  0
LINE
  5
CF
330
1F
100
AcDbEntity
  8
NoLayerName_001
  6
Continuous
 62
     1
370
    50
100
AcDbLine
 10
135.0844091294135
 20
242.3182340985406
 30
0.0
 11
127.0844091294135
 21
242.3182340985406
 31
0.0
  0
LINE
  5
D0
330
1F
100
AcDbEntity
  8
NoLayerName_001
  6
Continuous
 62
     1
370
    50
100
AcDbLine
 10
127.0844091294135
 20
242.3182340985406
 30
0.0
 11
126.0844091294135
 21
241.8182340985406
 31
0.0
  0
LINE
  5
D1
330
1F
100
AcDbEntity
  8
NoLayerName_001
  6
Continuous
 62
     1
370
    50
100
AcDbLine
 10
94.08440912941336
 20
241.8182340985406
 30
0.0
 11
126.0844091294134
 21
241.8182340985406
 31
0.0
  0
LINE
  5
D2
330
1F
100
AcDbEntity
  8
NoLayerName_001
  6
Continuous
 62
     1
370
    50
100
AcDbLine
 10
136.0844091294135
 20
241.8182340985406
 30
0.0
 11
158.5844091294135
 21
241.8182340985406
 31
0.0
  0
ARC
  5
D3
330
1F
100
AcDbEntity
  8
NoLayerName_001
  6
Continuous
 62
     1
370
    50
100
AcDbCircle
 10
158.5844091294135
 20
239.8182340985406
 30
0.0
 40
2.0
100
AcDbArc
 50
0.0
 51
90.0
  0
ARC
  5
D4
330
1F
100
AcDbEntity
  8
NoLayerName_001
  6
Continuous
 62
     1
370
    50
100
AcDbCircle
 10
158.5844091294135
 20
142.8182340985406
 30
0.0
 40
2.0
100
AcDbArc
 50
270.0
 51
0.0
  0
ARC
  5
D5
330
1F
100
AcDbEntity
  8
NoLayerName_001
  6
Continuous
 62
     1
370
    50
100
AcDbCircle
 10
61.58440912941336
 20
142.8182340985406
 30
0.0
 40
2.0
100
AcDbArc
 50
180.0
 51
270.0
  0
ARC
  5
D6
330
1F
100
AcDbEntity
  8
NoLayerName_001
  6
Continuous
 62
     1
370
    50
100
AcDbCircle
 10
61.58440912941336
 20
239.8182340985406
 30
0.0
 40
2.0
100
AcDbArc
 50
90.0
 51
180.0
  0
LINE
  5
D7
330
1F
100
AcDbEntity
  8
NoLayerName_002
  6
DOTSX
 62
     4
370
    25
100
AcDbLine
 10
160.5844091294135
 20
181.3182340985406
 30
0.0
 11
157.5844091294135
 21
181.3182340985406
 31
0.0
  0
LINE
  5
D8
330
1F
100
AcDbEntity
  8
NoLayerName_002
  6
DOTSX
 62
     4
370
    25
100
AcDbLine
 10
160.5844091294135
 20
201.3182340985406
 30
0.0
 11
157.5844091294135
 21
201.3182340985406
 31
0.0
  0
LINE
  5
D9
330
1F
100
AcDbEntity
  8
NoLayerName_002
  6
DOTSX
 62
     4
370
    25
100
AcDbLine
 10
59.58440912941336
 20
181.3182340985406
 30
0.0
 11
62.58440912941336
 21
181.3182340985406
 31
0.0
  0
LINE
  5
DA
330
1F
100
AcDbEntity
  8
NoLayerName_002
  6
DOTSX
 62
     4
370
    25
100
AcDbLine
 10
59.58440912941336
 20
201.3182340985406
 30
0.0
 11
62.58440912941336
 21
201.3182340985406
 31
0.0
  0
LINE
  5
DB
330
1F
100
AcDbEntity
  8
NoLayerName_002
  6
Continuous
 62
     4
370
    50
100
AcDbLine
 10
158.5844091294135
 20
189.7182340985407
 30
0.0
 11
157.5844091294135
 21
189.7182340985407
 31
0.0
  0
LINE
  5
DC
330
1F
100
AcDbEntity
  8
NoLayerName_002
  6
Continuous
 62
     4
370
    50
100
AcDbLine
 10
158.5844091294135
 20
191.3182340985406
 30
0.0
 11
158.5844091294135
 21
189.7182340985406
 31
0.0
  0
LINE
  5
DD
330
1F
100
AcDbEntity
  8
NoLayerName_002
  6
Continuous
 62
     4
370
    50
100
AcDbLine
 10
158.5844091294135
 20
192.9182340985405
 30
0.0
 11
157.5844091294135
 21
192.9182340985405
 31
0.0
  0
LINE
  5
DE
330
1F
100
AcDbEntity
  8
NoLayerName_002
  6
Continuous
 62
     4
370
    50
100
AcDbLine
 10
158.5844091294135
 20
191.3182340985406
 30
0.0
 11
158.5844091294135
 21
192.9182340985406
 31
0.0
  0
LINE
  5
DF
330
1F
100
AcDbEntity
  8
NoLayerName_002
  6
Continuous
 62
     4
370
    50
100
AcDbLine
 10
61.58440912941336
 20
189.7182340985407
 30
0.0
 11
62.58440912941336
 21
189.7182340985407
 31
0.0
  0
LINE
  5
E0
330
1F
100
AcDbEntity
  8
NoLayerName_002
  6
Continuous
 62
     4
370
    50
100
AcDbLine
 10
61.58440912941336
 20
191.3182340985406
 30
0.0
 11
61.58440912941336
 21
189.7182340985406
 31
0.0
  0
LINE
  5
E1
330
1F
100
AcDbEntity
  8
NoLayerName_002
  6
Continuous
 62
     4
370
    50
100
AcDbLine
 10
61.58440912941336
 20
192.9182340985405
 30
0.0
 11
62.58440912941336
 21
192.9182340985405
 31
0.0
  0
LINE
  5
E2
330
1F
100
AcDbEntity
  8
NoLayerName_002
  6
Continuous
 62
     4
370
    50
100
AcDbLine
 10
61.58440912941336
 20
191.3182340985406
 30
0.0
 11
61.58440912941336
 21
192.9182340985406
 31
0.0
  0
LINE
  5
E3
330
1F
100
AcDbEntity
  8
NoLayerName_001
  6
DOTSX
 62
     7
370
    25
100
AcDbLine
 10
59.58440912941336
 20
228.0682340985406
 30
0.0
 11
62.58440912941336
 21
228.0682340985406
 31
0.0
  0
LINE
  5
E4
330
1F
100
AcDbEntity
  8
NoLayerName_001
  6
DOTSX
 62
     7
370
    25
100
AcDbLine
 10
59.58440912941336
 20
208.0682340985406
 30
0.0
 11
62.58440912941336
 21
208.0682340985406
 31
0.0
  0
LINE
  5
E5
330
1F
100
AcDbEntity
  8
NoLayerName_001
  6
DOTSX
 62
     7
370
    25
100
AcDbLine
 10
59.58440912941336
 20
154.5682340985406
 30
0.0
 11
62.58440912941336
 21
154.5682340985406
 31
0.0
  0
LINE
  5
E6
330
1F
100
AcDbEntity
  8
NoLayerName_001
  6
DOTSX
 62
     7
370
    25
100
AcDbLine
 10
59.58440912941336
 20
174.5682340985406
 30
0.0
 11
62.58440912941336
 21
174.5682340985406
 31
0.0
  0
LINE
  5
E7
330
1F
100
AcDbEntity
  8
NoLayerName_002
  6
DOTSX
 62
     4
370
    25
100
AcDbLine
 10
160.5844091294134
 20
201.3182340985406
 30
0.0
 11
157.5844091294134
 21
201.3182340985406
 31
0.0
  0
LINE
  5
E8
330
1F
100
AcDbEntity
  8
NoLayerName_001
  6
DOTSX
 62
     7
370
    25
100
AcDbLine
 10
160.5844091294134
 20
174.5682340985406
 30
0.0
 11
157.5844091294134
 21
174.5682340985406
 31
0.0
  0
LINE
  5
E9
330
1F
100
AcDbEntity
  8
NoLayerName_001
  6
DOTSX
 62
     7
370
    25
100
AcDbLine
 10
157.5844091294135
 20
154.5682340985406
 30
0.0
 11
160.5844091294135
 21
154.5682340985406
 31
0.0
  0
LINE
  5
EA
330
1F
100
AcDbEntity
  8
NoLayerName_001
  6
DOTSX
 62
     7
370
    25
100
AcDbLine
 10
157.5844091294135
 20
208.0682340985406
 30
0.0
 11
160.5844091294135
 21
208.0682340985406
 31
0.0
  0
LINE
  5
EB
330
1F
100
AcDbEntity
  8
NoLayerName_001
  6
DOTSX
 62
     7
370
    25
100
AcDbLine
 10
157.5844091294135
 20
228.0682340985406
 30
0.0
 11
160.5844091294135
 21
228.0682340985406
 31
0.0
  0
LINE
  5
EC
330
1F
100
AcDbEntity
  8
NoLayerName_002
  6
Continuous
 62
     4
370
    50
100
AcDbLine
 10
158.5844091294135
 20
176.3432340985407
 30
0.0
 11
157.5844091294135
 21
176.3432340985407
 31
0.0
  0
LINE
  5
ED
330
1F
100
AcDbEntity
  8
NoLayerName_002
  6
Continuous
 62
     4
370
    50
100
AcDbLine
 10
158.5844091294135
 20
177.9432340985406
 30
0.0
 11
158.5844091294135
 21
176.3432340985406
 31
0.0
  0
LINE
  5
EE
330
1F
100
AcDbEntity
  8
NoLayerName_002
  6
Continuous
 62
     4
370
    50
100
AcDbLine
 10
158.5844091294135
 20
179.5432340985405
 30
0.0
 11
157.5844091294135
 21
179.5432340985405
 31
0.0
  0
LINE
  5
EF
330
1F
100
AcDbEntity
  8
NoLayerName_002
  6
Continuous
 62
     4
370
    50
100
AcDbLine
 10
158.5844091294135
 20
177.9432340985406
 30
0.0
 11
158.5844091294135
 21
179.5432340985406
 31
0.0
  0
LINE
  5
F0
330
1F
100
AcDbEntity
  8
NoLayerName_002
  6
Continuous
 62
     4
370
    50
100
AcDbLine
 10
158.5844091294135
 20
206.2932340985405
 30
0.0
 11
157.5844091294135
 21
206.2932340985405
 31
0.0
  0
LINE
  5
F1
330
1F
100
AcDbEntity
  8
NoLayerName_002
  6
Continuous
 62
     4
370
    50
100
AcDbLine
 10
158.5844091294135
 20
204.6932340985406
 30
0.0
 11
158.5844091294135
 21
206.2932340985406
 31
0.0
  0
LINE
  5
F2
330
1F
100
AcDbEntity
  8
NoLayerName_002
  6
Continuous
 62
     4
370
    50
100
AcDbLine
 10
158.5844091294135
 20
203.0932340985407
 30
0.0
 11
157.5844091294135
 21
203.0932340985407
 31
0.0
  0
LINE
  5
F3
330
1F
100
AcDbEntity
  8
NoLayerName_002
  6
Continuous
 62
     4
370
    50
100
AcDbLine
 10
158.5844091294135
 20
204.6932340985406
 30
0.0
 11
158.5844091294135
 21
203.0932340985406
 31
0.0
  0
LINE
  5
F4
330
1F
100
AcDbEntity
  8
NoLayerName_002
  6
Continuous
 62
     4
370
    50
100
AcDbLine
 10
61.58440912941325
 20
176.3432340985407
 30
0.0
 11
62.58440912941325
 21
176.3432340985407
 31
0.0
  0
LINE
  5
F5
330
1F
100
AcDbEntity
  8
NoLayerName_002
  6
Continuous
 62
     4
370
    50
100
AcDbLine
 10
61.58440912941325
 20
177.9432340985406
 30
0.0
 11
61.58440912941325
 21
176.3432340985406
 31
0.0
  0
LINE
  5
F6
330
1F
100
AcDbEntity
  8
NoLayerName_002
  6
Continuous
 62
     4
370
    50
100
AcDbLine
 10
61.58440912941325
 20
179.5432340985405
 30
0.0
 11
62.58440912941325
 21
179.5432340985405
 31
0.0
  0
LINE
  5
F7
330
1F
100
AcDbEntity
  8
NoLayerName_002
  6
Continuous
 62
     4
370
    50
100
AcDbLine
 10
61.58440912941325
 20
177.9432340985406
 30
0.0
 11
61.58440912941325
 21
179.5432340985406
 31
0.0
  0
LINE
  5
F8
330
1F
100
AcDbEntity
  8
NoLayerName_002
  6
Continuous
 62
     4
370
    50
100
AcDbLine
 10
61.58440912941325
 20
206.2932340985405
 30
0.0
 11
62.58440912941325
 21
206.2932340985405
 31
0.0
  0
LINE
  5
F9
330
1F
100
AcDbEntity
  8
NoLayerName_002
  6
Continuous
 62
     4
370
    50
100
AcDbLine
 10
61.58440912941325
 20
204.6932340985406
 30
0.0
 11
61.58440912941325
 21
206.2932340985406
 31
0.0
  0
LINE
  5
FA
330
1F
100
AcDbEntity
  8
NoLayerName_002
  6
Continuous
 62
     4
370
    50
100
AcDbLine
 10
61.58440912941325
 20
203.0932340985407
 30
0.0
 11
62.58440912941325
 21
203.0932340985407
 31
0.0
  0
LINE
  5
FB
330
1F
100
AcDbEntity
  8
NoLayerName_002
  6
Continuous
 62
     4
370
    50
100
AcDbLine
 10
61.58440912941325
 20
204.6932340985406
 30
0.0
 11
61.58440912941325
 21
203.0932340985406
 31
0.0
  0
LINE
  5
FC
330
1F
100
AcDbEntity
  8
NoLayerName_001
  6
Continuous
 62
     7
370
    50
100
AcDbLine
 10
109.0844091294133
 20
78.84335046225704
 30
0.0
 11
109.3344091294133
 21
77.31248663273459
 31
0.0
  0
LINE
  5
FD
330
1F
100
AcDbEntity
  8
NoLayerName_001
  6
Continuous
 62
     7
370
    50
100
AcDbLine
 10
102.2743133708066
 20
90.63878232057323
 30
0.0
 11
101.0735464047054
 21
91.62072058628056
 31
0.0
  0
LINE
  5
FE
330
1F
100
AcDbEntity
  8
NoLayerName_001
  6
Continuous
 62
     7
370
    50
100
AcDbLine
 10
103.2743133708066
 20
92.37083312814218
 30
0.0
 11
101.8235464047054
 21
92.9197586919573
 31
0.0
  0
ARC
  5
FF
330
1F
100
AcDbEntity
  8
NoLayerName_001
  6
Continuous
 62
     1
370
    50
100
AcDbCircle
 10
110.0844091294133
 20
87.28432197032419
 30
0.0
 40
9.0
100
AcDbArc
 50
155.8437598791971
 51
264.1562401208026
  0
LINE
  5
100
330
1F
100
AcDbEntity
  8
NoLayerName_001
  6
Continuous
 62
     1
370
    50
100
AcDbLine
 10
157.5844091294135
 20
238.8182340985406
 30
0.0
 11
157.5844091294135
 21
206.2932340985405
 31
0.0
  0
LINE
  5
101
330
1F
100
AcDbEntity
  8
NoLayerName_001
  6
Continuous
 62
     1
370
    50
100
AcDbLine
 10
157.5844091294135
 20
203.0932340985407
 30
0.0
 11
157.5844091294135
 21
192.9182340985405
 31
0.0
  0
LINE
  5
102
330
1F
100
AcDbEntity
  8
NoLayerName_001
  6
Continuous
 62
     1
370
    50
100
AcDbLine
 10
157.5844091294135
 20
189.7182340985407
 30
0.0
 11
157.5844091294135
 21
179.5432340985405
 31
0.0
  0
LINE
  5
103
330
1F
100
AcDbEntity
  8
NoLayerName_001
  6
Continuous
 62
     1
370
    50
100
AcDbLine
 10
157.5844091294135
 20
176.3432340985407
 30
0.0
 11
157.5844091294135
 21
143.8182340985406
 31
0.0
  0
LINE
  5
104
330
1F
100
AcDbEntity
  8
NoLayerName_001
  6
Continuous
 62
     1
370
    50
100
AcDbLine
 10
160.4844091294135
 20
191.5182340985406
 30
0.0
 11
158.5844091294135
 21
191.5182340985406
 31
0.0
  0
LINE
  5
105
330
1F
100
AcDbEntity
  8
NoLayerName_001
  6
Continuous
 62
     1
370
    50
100
AcDbLine
 10
160.5844091294135
 20
191.1182340985405
 30
0.0
 11
158.5844091294135
 21
191.1182340985405
 31
0.0
  0
LINE
  5
106
330
1F
100
AcDbEntity
  8
NoLayerName_001
  6
Continuous
 62
     1
370
    50
100
AcDbLine
 10
62.58440912941336
 20
206.2932340985405
 30
0.0
 11
62.58440912941337
 21
238.8182340985406
 31
0.0
  0
LINE
  5
107
330
1F
100
AcDbEntity
  8
NoLayerName_001
  6
Continuous
 62
     1
370
    50
100
AcDbLine
 10
62.58440912941336
 20
192.9182340985405
 30
0.0
 11
62.58440912941336
 21
203.0932340985407
 31
0.0
  0
LINE
  5
108
330
1F
100
AcDbEntity
  8
NoLayerName_001
  6
Continuous
 62
     1
370
    50
100
AcDbLine
 10
62.58440912941336
 20
143.8182340985406
 30
0.0
 11
62.58440912941337
 21
176.3432340985407
 31
0.0
  0
LINE
  5
109
330
1F
100
AcDbEntity
  8
NoLayerName_001
  6
Continuous
 62
     1
370
    50
100
AcDbLine
 10
62.58440912941336
 20
179.5432340985405
 30
0.0
 11
62.58440912941336
 21
189.7182340985407
 31
0.0
  0
LINE
  5
10A
330
1F
100
AcDbEntity
  8
NoLayerName_001
  6
Continuous
 62
     1
370
    50
100
AcDbLine
 10
61.58440912941336
 20
191.1182340985405
 30
0.0
 11
59.58440912941336
 21
191.1182340985405
 31
0.0
  0
LINE
  5
10B
330
1F
100
AcDbEntity
  8
NoLayerName_001
  6
Continuous
 62
     1
370
    50
100
AcDbLine
 10
61.58440912941336
 20
191.5182340985406
 30
0.0
 11
59.58440912941336
 21
191.5182340985406
 31
0.0
  0
ARC
  5
10C
330
1F
100
AcDbEntity
  8
NoLayerName_001
  6
Continuous
 62
     1
370
    50
100
AcDbCircle
 10
89.0844091294133
 20
98.78432197032419
 30
0.0
 40
2.0
100
AcDbArc
 50
90.0
 51
180.0
  0
ARC
  5
10D
330
1F
100
AcDbEntity
  8
NoLayerName_001
  6
Continuous
 62
     1
370
    50
100
AcDbCircle
 10
89.0844091294133
 20
98.78432197032419
 30
0.0
 40
2.0
100
AcDbArc
 50
0.0
 51
90.0
  0
ARC
  5
10E
330
1F
100
AcDbEntity
  8
NoLayerName_001
  6
Continuous
 62
     1
370
    50
100
AcDbCircle
 10
89.0844091294133
 20
82.78432197032419
 30
0.0
 40
2.0
100
AcDbArc
 50
180.0
 51
270.0
  0
ARC
  5
10F
330
1F
100
AcDbEntity
  8
NoLayerName_001
  6
Continuous
 62
     1
370
    50
100
AcDbCircle
 10
89.0844091294133
 20
82.78432197032419
 30
0.0
 40
2.0
100
AcDbArc
 50
270.0
 51
0.0
  0
LINE
  5
110
330
1F
100
AcDbEntity
  8
NoLayerName_001
  6
Continuous
 62
     1
370
    50
100
AcDbLine
 10
87.0844091294133
 20
82.78432197032419
 30
0.0
 11
87.0844091294133
 21
98.78432197032413
 31
0.0
  0
LINE
  5
111
330
1F
100
AcDbEntity
  8
NoLayerName_001
  6
Continuous
 62
     1
370
    50
100
AcDbLine
 10
91.0844091294133
 20
98.78432197032419
 30
0.0
 11
91.0844091294133
 21
82.78432197032419
 31
0.0
  0
LINE
  5
112
330
1F
100
AcDbEntity
  8
NoLayerName_001
  6
Continuous
 62
     1
370
    50
100
AcDbLine
 10
91.0844091294133
 20
82.78432197032419
 30
0.0
 11
93.0844091294133
 21
82.78432197032419
 31
0.0
  0
LINE
  5
113
330
1F
100
AcDbEntity
  8
NoLayerName_001
  6
Continuous
 62
     1
370
    50
100
AcDbLine
 10
91.0844091294133
 20
83.78432197032419
 30
0.0
 11
93.0844091294133
 21
83.78432197032419
 31
0.0
  0
LINE
  5
114
330
1F
100
AcDbEntity
  8
NoLayerName_001
  6
Continuous
 62
     1
370
    50
100
AcDbLine
 10
91.0844091294133
 20
84.78432197032419
 30
0.0
 11
93.0844091294133
 21
84.78432197032419
 31
0.0
  0
LINE
  5
115
330
1F
100
AcDbEntity
  8
NoLayerName_001
  6
Continuous
 62
     1
370
    50
100
AcDbLine
 10
91.0844091294133
 20
85.78432197032419
 30
0.0
 11
93.0844091294133
 21
85.78432197032419
 31
0.0
  0
LINE
  5
116
330
1F
100
AcDbEntity
  8
NoLayerName_001
  6
Continuous
 62
     1
370
    50
100
AcDbLine
 10
91.0844091294133
 20
86.78432197032419
 30
0.0
 11
93.0844091294133
 21
86.78432197032419
 31
0.0
  0
LINE
  5
117
330
1F
100
AcDbEntity
  8
NoLayerName_001
  6
Continuous
 62
     1
370
    50
100
AcDbLine
 10
91.0844091294133
 20
87.78432197032419
 30
0.0
 11
93.0844091294133
 21
87.78432197032419
 31
0.0
  0
LINE
  5
118
330
1F
100
AcDbEntity
  8
NoLayerName_001
  6
Continuous
 62
     1
370
    50
100
AcDbLine
 10
91.0844091294133
 20
88.78432197032419
 30
0.0
 11
93.0844091294133
 21
88.78432197032419
 31
0.0
  0
LINE
  5
119
330
1F
100
AcDbEntity
  8
NoLayerName_001
  6
Continuous
 62
     1
370
    50
100
AcDbLine
 10
91.0844091294133
 20
89.78432197032419
 30
0.0
 11
93.08440912941336
 21
89.78432197032419
 31
0.0
  0
LINE
  5
11A
330
1F
100
AcDbEntity
  8
NoLayerName_001
  6
Continuous
 62
     1
370
    50
100
AcDbLine
 10
85.0844091294133
 20
89.78432197032419
 30
0.0
 11
87.0844091294133
 21
89.78432197032419
 31
0.0
  0
LINE
  5
11B
330
1F
100
AcDbEntity
  8
NoLayerName_001
  6
Continuous
 62
     1
370
    50
100
AcDbLine
 10
85.0844091294133
 20
97.78432197032419
 30
0.0
 11
87.0844091294133
 21
97.78432197032419
 31
0.0
  0
LINE
  5
11C
330
1F
100
AcDbEntity
  8
NoLayerName_001
  6
Continuous
 62
     1
370
    50
100
AcDbLine
 10
87.0844091294133
 20
88.78432197032419
 30
0.0
 11
85.0844091294133
 21
88.78432197032419
 31
0.0
  0
LINE
  5
11D
330
1F
100
AcDbEntity
  8
NoLayerName_001
  6
Continuous
 62
     1
370
    50
100
AcDbLine
 10
87.0844091294133
 20
87.78432197032419
 30
0.0
 11
85.0844091294133
 21
87.78432197032419
 31
0.0
  0
LINE
  5
11E
330
1F
100
AcDbEntity
  8
NoLayerName_001
  6
Continuous
 62
     1
370
    50
100
AcDbLine
 10
87.0844091294133
 20
86.78432197032419
 30
0.0
 11
85.0844091294133
 21
86.78432197032419
 31
0.0
  0
LINE
  5
11F
330
1F
100
AcDbEntity
  8
NoLayerName_001
  6
Continuous
 62
     1
370
    50
100
AcDbLine
 10
87.0844091294133
 20
85.78432197032419
 30
0.0
 11
85.0844091294133
 21
85.78432197032419
 31
0.0
  0
LINE
  5
120
330
1F
100
AcDbEntity
  8
NoLayerName_001
  6
Continuous
 62
     1
370
    50
100
AcDbLine
 10
87.0844091294133
 20
84.78432197032419
 30
0.0
 11
85.0844091294133
 21
84.78432197032419
 31
0.0
  0
LINE
  5
121
330
1F
100
AcDbEntity
  8
NoLayerName_001
  6
Continuous
 62
     1
370
    50
100
AcDbLine
 10
87.0844091294133
 20
83.78432197032419
 30
0.0
 11
85.0844091294133
 21
83.78432197032419
 31
0.0
  0
LINE
  5
122
330
1F
100
AcDbEntity
  8
NoLayerName_001
  6
Continuous
 62
     1
370
    50
100
AcDbLine
 10
87.0844091294133
 20
82.78432197032419
 30
0.0
 11
85.0844091294133
 21
82.78432197032419
 31
0.0
  0
LINE
  5
123
330
1F
100
AcDbEntity
  8
NoLayerName_001
  6
Continuous
 62
     1
370
    50
100
AcDbLine
 10
87.35235832184446
 20
81.78432197032419
 30
0.0
 11
85.0844091294133
 21
81.78432197032419
 31
0.0
  0
LINE
  5
124
330
1F
100
AcDbEntity
  8
NoLayerName_001
  6
Continuous
 62
     1
370
    50
100
AcDbLine
 10
90.81645993698214
 20
81.78432197032419
 30
0.0
 11
93.0844091294133
 21
81.78432197032419
 31
0.0
  0
LINE
  5
125
330
1F
100
AcDbEntity
  8
NoLayerName_001
  6
Continuous
 62
     1
370
    50
100
AcDbLine
 10
91.0844091294133
 20
97.78432197032419
 30
0.0
 11
93.08440912941336
 21
97.78432197032419
 31
0.0
  0
LINE
  5
126
330
1F
100
AcDbEntity
  8
NoLayerName_001
  6
Continuous
 62
     1
370
    50
100
AcDbLine
 10
91.0844091294133
 20
98.78432197032419
 30
0.0
 11
93.0844091294133
 21
98.78432197032419
 31
0.0
  0
LINE
  5
127
330
1F
100
AcDbEntity
  8
NoLayerName_001
  6
Continuous
 62
     1
370
    50
100
AcDbLine
 10
87.0844091294133
 20
98.78432197032419
 30
0.0
 11
85.0844091294133
 21
98.78432197032419
 31
0.0
  0
LINE
  5
128
330
1F
100
AcDbEntity
  8
NoLayerName_001
  6
Continuous
 62
     1
370
    50
100
AcDbLine
 10
87.3523583218444
 20
99.78432197032419
 30
0.0
 11
85.0844091294133
 21
99.78432197032419
 31
0.0
  0
LINE
  5
129
330
1F
100
AcDbEntity
  8
NoLayerName_001
  6
Continuous
 62
     1
370
    50
100
AcDbLine
 10
90.8164599369822
 20
99.78432197032419
 30
0.0
 11
93.0844091294133
 21
99.78432197032419
 31
0.0
  0
LINE
  5
12A
330
1F
100
AcDbEntity
  8
NoLayerName_001
  6
Continuous
 62
     7
370
    50
100
AcDbLine
 10
67.41456458079404
 20
228.1131957142348
 30
0.0
 11
62.58440912941325
 21
229.0682340985406
 31
0.0
  0
LINE
  5
12B
330
1F
100
AcDbEntity
  8
NoLayerName_001
  6
Continuous
 62
     1
370
    50
100
AcDbLine
 10
59.5844091294133
 20
105.7843219703242
 30
0.0
 11
59.5844091294133
 21
71.78432197032419
 31
0.0
  0
LINE
  5
12C
330
1F
100
AcDbEntity
  8
NoLayerName_001
  6
Continuous
 62
     1
370
    50
100
AcDbLine
 10
61.5844091294133
 20
69.78432197032419
 30
0.0
 11
158.5844091294133
 21
69.78432197032417
 31
0.0
  0
LINE
  5
12D
330
1F
100
AcDbEntity
  8
NoLayerName_001
  6
Continuous
 62
     1
370
    50
100
AcDbLine
 10
160.5844091294133
 20
71.78432197032419
 30
0.0
 11
160.5844091294133
 21
105.7843219703242
 31
0.0
  0
LINE
  5
12E
330
1F
100
AcDbEntity
  8
NoLayerName_001
  6
Continuous
 62
     1
370
    50
100
AcDbLine
 10
85.0844091294133
 20
71.78432197032419
 30
0.0
 11
85.0844091294133
 21
90.78432197032419
 31
0.0
  0
LINE
  5
12F
330
1F
100
AcDbEntity
  8
NoLayerName_001
  6
Continuous
 62
     1
370
    50
100
AcDbLine
 10
93.0844091294133
 20
71.78432197032419
 30
0.0
 11
93.0844091294133
 21
90.78432197032419
 31
0.0
  0
LINE
  5
130
330
1F
100
AcDbEntity
  8
NoLayerName_001
  6
Continuous
 62
     1
370
    50
100
AcDbLine
 10
84.0844091294133
 20
71.78432197032419
 30
0.0
 11
84.0844091294133
 21
105.7843219703242
 31
0.0
  0
LINE
  5
131
330
1F
100
AcDbEntity
  8
NoLayerName_001
  6
Continuous
 62
     1
370
    50
100
AcDbLine
 10
94.0844091294133
 20
71.78432197032419
 30
0.0
 11
94.0844091294133
 21
105.7843219703242
 31
0.0
  0
LINE
  5
132
330
1F
100
AcDbEntity
  8
NoLayerName_001
  6
Continuous
 62
     1
370
    50
100
AcDbLine
 10
85.0844091294133
 20
104.7843219703242
 30
0.0
 11
93.0844091294133
 21
104.7843219703242
 31
0.0
  0
LINE
  5
133
330
1F
100
AcDbEntity
  8
NoLayerName_001
  6
Continuous
 62
     1
370
    50
100
AcDbLine
 10
85.0844091294133
 20
103.7843219703242
 30
0.0
 11
93.0844091294133
 21
103.7843219703242
 31
0.0
  0
LINE
  5
134
330
1F
100
AcDbEntity
  8
NoLayerName_001
  6
Continuous
 62
     1
370
    50
100
AcDbLine
 10
85.0844091294133
 20
102.7843219703242
 30
0.0
 11
93.0844091294133
 21
102.7843219703242
 31
0.0
  0
LINE
  5
135
330
1F
100
AcDbEntity
  8
NoLayerName_001
  6
Continuous
 62
     1
370
    50
100
AcDbLine
 10
85.0844091294133
 20
101.7843219703242
 30
0.0
 11
93.0844091294133
 21
101.7843219703242
 31
0.0
  0
LINE
  5
136
330
1F
100
AcDbEntity
  8
NoLayerName_001
  6
Continuous
 62
     1
370
    50
100
AcDbLine
 10
85.0844091294133
 20
100.7843219703242
 30
0.0
 11
93.0844091294133
 21
100.7843219703242
 31
0.0
  0
LINE
  5
137
330
1F
100
AcDbEntity
  8
NoLayerName_001
  6
Continuous
 62
     1
370
    50
100
AcDbLine
 10
85.0844091294133
 20
80.78432197032419
 30
0.0
 11
93.0844091294133
 21
80.78432197032419
 31
0.0
  0
LINE
  5
138
330
1F
100
AcDbEntity
  8
NoLayerName_001
  6
Continuous
 62
     1
370
    50
100
AcDbLine
 10
85.0844091294133
 20
79.78432197032419
 30
0.0
 11
93.0844091294133
 21
79.78432197032419
 31
0.0
  0
LINE
  5
139
330
1F
100
AcDbEntity
  8
NoLayerName_001
  6
Continuous
 62
     1
370
    50
100
AcDbLine
 10
85.0844091294133
 20
78.78432197032419
 30
0.0
 11
93.0844091294133
 21
78.78432197032419
 31
0.0
  0
LINE
  5
13A
330
1F
100
AcDbEntity
  8
NoLayerName_001
  6
Continuous
 62
     1
370
    50
100
AcDbLine
 10
85.0844091294133
 20
77.78432197032419
 30
0.0
 11
93.0844091294133
 21
77.78432197032419
 31
0.0
  0
LINE
  5
13B
330
1F
100
AcDbEntity
  8
NoLayerName_001
  6
Continuous
 62
     1
370
    50
100
AcDbLine
 10
85.0844091294133
 20
76.78432197032419
 30
0.0
 11
93.0844091294133
 21
76.78432197032419
 31
0.0
  0
LINE
  5
13C
330
1F
100
AcDbEntity
  8
NoLayerName_001
  6
Continuous
 62
     1
370
    50
100
AcDbLine
 10
85.0844091294133
 20
75.78432197032419
 30
0.0
 11
93.0844091294133
 21
75.78432197032419
 31
0.0
  0
LINE
  5
13D
330
1F
100
AcDbEntity
  8
NoLayerName_001
  6
Continuous
 62
     1
370
    50
100
AcDbLine
 10
85.0844091294133
 20
74.78432197032419
 30
0.0
 11
93.0844091294133
 21
74.78432197032419
 31
0.0
  0
LINE
  5
13E
330
1F
100
AcDbEntity
  8
NoLayerName_001
  6
Continuous
 62
     1
370
    50
100
AcDbLine
 10
85.0844091294133
 20
73.78432197032419
 30
0.0
 11
93.0844091294133
 21
73.78432197032419
 31
0.0
  0
LINE
  5
13F
330
1F
100
AcDbEntity
  8
NoLayerName_001
  6
Continuous
 62
     1
370
    50
100
AcDbLine
 10
85.0844091294133
 20
72.78432197032419
 30
0.0
 11
93.0844091294133
 21
72.78432197032419
 31
0.0
  0
LINE
  5
140
330
1F
100
AcDbEntity
  8
NoLayerName_001
  6
Continuous
 62
     1
370
    50
100
AcDbLine
 10
84.0844091294133
 20
71.78432197032419
 30
0.0
 11
94.0844091294133
 21
71.78432197032419
 31
0.0
  0
LINE
  5
141
330
1F
100
AcDbEntity
  8
NoLayerName_001
  6
Continuous
 62
     1
370
    50
100
AcDbLine
 10
85.0844091294133
 20
96.78432197032419
 30
0.0
 11
87.0844091294133
 21
96.78432197032419
 31
0.0
  0
LINE
  5
142
330
1F
100
AcDbEntity
  8
NoLayerName_001
  6
Continuous
 62
     1
370
    50
100
AcDbLine
 10
85.0844091294133
 20
95.78432197032419
 30
0.0
 11
87.0844091294133
 21
95.78432197032419
 31
0.0
  0
LINE
  5
143
330
1F
100
AcDbEntity
  8
NoLayerName_001
  6
Continuous
 62
     1
370
    50
100
AcDbLine
 10
85.0844091294133
 20
94.78432197032419
 30
0.0
 11
87.0844091294133
 21
94.78432197032419
 31
0.0
  0
LINE
  5
144
330
1F
100
AcDbEntity
  8
NoLayerName_001
  6
Continuous
 62
     1
370
    50
100
AcDbLine
 10
85.0844091294133
 20
93.78432197032419
 30
0.0
 11
87.0844091294133
 21
93.78432197032419
 31
0.0
  0
LINE
  5
145
330
1F
100
AcDbEntity
  8
NoLayerName_001
  6
Continuous
 62
     1
370
    50
100
AcDbLine
 10
85.0844091294133
 20
92.78432197032419
 30
0.0
 11
87.0844091294133
 21
92.78432197032419
 31
0.0
  0
LINE
  5
146
330
1F
100
AcDbEntity
  8
NoLayerName_001
  6
Continuous
 62
     1
370
    50
100
AcDbLine
 10
85.0844091294133
 20
91.78432197032419
 30
0.0
 11
87.0844091294133
 21
91.78432197032419
 31
0.0
  0
LINE
  5
147
330
1F
100
AcDbEntity
  8
NoLayerName_001
  6
Continuous
 62
     1
370
    50
100
AcDbLine
 10
85.0844091294133
 20
90.78432197032419
 30
0.0
 11
87.0844091294133
 21
90.78432197032419
 31
0.0
  0
LINE
  5
148
330
1F
100
AcDbEntity
  8
NoLayerName_001
  6
Continuous
 62
     1
370
    50
100
AcDbLine
 10
91.0844091294133
 20
90.78432197032419
 30
0.0
 11
93.0844091294133
 21
90.78432197032419
 31
0.0
  0
LINE
  5
149
330
1F
100
AcDbEntity
  8
NoLayerName_001
  6
Continuous
 62
     1
370
    50
100
AcDbLine
 10
91.0844091294133
 20
91.78432197032419
 30
0.0
 11
93.0844091294133
 21
91.78432197032419
 31
0.0
  0
LINE
  5
14A
330
1F
100
AcDbEntity
  8
NoLayerName_001
  6
Continuous
 62
     1
370
    50
100
AcDbLine
 10
91.0844091294133
 20
92.78432197032419
 30
0.0
 11
93.0844091294133
 21
92.78432197032419
 31
0.0
  0
LINE
  5
14B
330
1F
100
AcDbEntity
  8
NoLayerName_001
  6
Continuous
 62
     1
370
    50
100
AcDbLine
 10
91.0844091294133
 20
93.78432197032419
 30
0.0
 11
93.0844091294133
 21
93.78432197032419
 31
0.0
  0
LINE
  5
14C
330
1F
100
AcDbEntity
  8
NoLayerName_001
  6
Continuous
 62
     1
370
    50
100
AcDbLine
 10
91.0844091294133
 20
94.78432197032419
 30
0.0
 11
93.0844091294133
 21
94.78432197032419
 31
0.0
  0
LINE
  5
14D
330
1F
100
AcDbEntity
  8
NoLayerName_001
  6
Continuous
 62
     1
370
    50
100
AcDbLine
 10
91.0844091294133
 20
95.78432197032419
 30
0.0
 11
93.0844091294133
 21
95.78432197032419
 31
0.0
  0
LINE
  5
14E
330
1F
100
AcDbEntity
  8
NoLayerName_001
  6
Continuous
 62
     1
370
    50
100
AcDbLine
 10
91.0844091294133
 20
96.78432197032419
 30
0.0
 11
93.0844091294133
 21
96.78432197032419
 31
0.0
  0
ARC
  5
14F
330
1F
100
AcDbEntity
  8
NoLayerName_001
  6
Continuous
 62
     1
370
    50
100
AcDbCircle
 10
158.5844091294133
 20
71.78432197032419
 30
0.0
 40
2.0
100
AcDbArc
 50
270.0
 51
0.0
  0
ARC
  5
150
330
1F
100
AcDbEntity
  8
NoLayerName_001
  6
Continuous
 62
     1
370
    50
100
AcDbCircle
 10
61.5844091294133
 20
71.78432197032419
 30
0.0
 40
2.0
100
AcDbArc
 50
180.0
 51
270.0
  0
LINE
  5
151
330
1F
100
AcDbEntity
  8
NoLayerName_001
  6
Continuous
 62
     1
370
    50
100
AcDbLine
 10
93.0844091294133
 20
90.78432197032419
 30
0.0
 11
93.0844091294133
 21
105.7843219703242
 31
0.0
  0
LINE
  5
152
330
1F
100
AcDbEntity
  8
NoLayerName_001
  6
Continuous
 62
     1
370
    50
100
AcDbLine
 10
85.0844091294133
 20
90.78432197032419
 30
0.0
 11
85.0844091294133
 21
105.7843219703242
 31
0.0
  0
LINE
  5
153
330
1F
100
AcDbEntity
  8
NoLayerName_002
  6
CENTER
 62
     3
370
    25
100
AcDbLine
 10
110.0844091294133
 20
113.2843219703242
 30
0.0
 11
110.0844091294133
 21
64.48432197032417
 31
0.0
  0
CIRCLE
  5
154
330
1F
100
AcDbEntity
  8
NoLayerName_001
  6
Continuous
 62
     7
370
    50
100
AcDbCircle
 10
151.8344091294134
 20
149.5682340985406
 30
0.0
 40
2.45
  0
CIRCLE
  5
155
330
1F
100
AcDbEntity
  8
NoLayerName_001
  6
Continuous
 62
     7
370
    50
100
AcDbCircle
 10
68.33440912941336
 20
149.5682340985406
 30
0.0
 40
2.45
  0
CIRCLE
  5
156
330
1F
100
AcDbEntity
  8
NoLayerName_001
  6
Continuous
 62
     7
370
    50
100
AcDbCircle
 10
68.33440912941336
 20
233.0682340985406
 30
0.0
 40
2.45
  0
CIRCLE
  5
157
330
1F
100
AcDbEntity
  8
NoLayerName_001
  6
Continuous
 62
     7
370
    50
100
AcDbCircle
 10
151.8344091294134
 20
233.0682340985406
 30
0.0
 40
2.45
  0
CIRCLE
  5
158
330
1F
100
AcDbEntity
  8
NoLayerName_001
  6
Continuous
 62
     7
370
    50
100
AcDbCircle
 10
151.8344091294134
 20
233.0682340985406
 30
0.0
 40
2.0
  0
CIRCLE
  5
159
330
1F
100
AcDbEntity
  8
NoLayerName_001
  6
Continuous
 62
     7
370
    50
100
AcDbCircle
 10
151.8344091294134
 20
149.5682340985406
 30
0.0
 40
2.0
  0
CIRCLE
  5
15A
330
1F
100
AcDbEntity
  8
NoLayerName_001
  6
Continuous
 62
     7
370
    50
100
AcDbCircle
 10
68.33440912941336
 20
149.5682340985406
 30
0.0
 40
2.0
  0
CIRCLE
  5
15B
330
1F
100
AcDbEntity
  8
NoLayerName_001
  6
Continuous
 62
     7
370
    50
100
AcDbCircle
 10
68.33440912941336
 20
233.0682340985406
 30
0.0
 40
2.0
  0
CIRCLE
  5
15C
330
1F
100
AcDbEntity
  8
NoLayerName_001
  6
Continuous
 62
     7
370
    50
100
AcDbCircle
 10
140.0844091294135
 20
211.3182340985406
 30
0.0
 40
4.0
  0
ARC
  5
15D
330
1F
100
AcDbEntity
  8
NoLayerName_001
  6
Continuous
 62
     7
370
    50
100
AcDbCircle
 10
140.0844091294135
 20
211.3182340985406
 30
0.0
 40
2.25
100
AcDbArc
 50
350.7931037786541
 51
9.206896221345922
  0
ARC
  5
15E
330
1F
100
AcDbEntity
  8
NoLayerName_001
  6
Continuous
 62
     7
370
    50
100
AcDbCircle
 10
140.0844091294135
 20
211.3182340985406
 30
0.0
 40
2.25
100
AcDbArc
 50
80.79310377865423
 51
99.20689622134572
  0
ARC
  5
15F
330
1F
100
AcDbEntity
  8
NoLayerName_001
  6
Continuous
 62
     7
370
    50
100
AcDbCircle
 10
140.0844091294135
 20
211.3182340985406
 30
0.0
 40
2.25
100
AcDbArc
 50
170.7931037786541
 51
189.2068962213459
  0
ARC
  5
160
330
1F
100
AcDbEntity
  8
NoLayerName_001
  6
Continuous
 62
     7
370
    50
100
AcDbCircle
 10
140.0844091294135
 20
211.3182340985406
 30
0.0
 40
2.25
100
AcDbArc
 50
260.7931037786541
 51
279.2068962213459
  0
LINE
  5
161
330
1F
100
AcDbEntity
  8
NoLayerName_001
  6
Continuous
 62
     7
370
    50
100
AcDbLine
 10
140.4687521144486
 20
210.4918294949188
 30
0.0
 11
140.633529424312
 21
210.8296730463367
 31
0.0
  0
LINE
  5
162
330
1F
100
AcDbEntity
  8
NoLayerName_001
  6
Continuous
 62
     7
370
    50
100
AcDbLine
 10
140.8658440103961
 20
210.9331061640769
 30
0.0
 11
140.633529424312
 21
210.8296730463368
 31
0.0
  0
LINE
  5
163
330
1F
100
AcDbEntity
  8
NoLayerName_001
  6
Continuous
 62
     7
370
    50
100
AcDbLine
 10
140.8658440103961
 20
210.9331061640769
 30
0.0
 11
142.305422411679
 21
210.9582340985406
 31
0.0
  0
LINE
  5
164
330
1F
100
AcDbEntity
  8
NoLayerName_001
  6
Continuous
 62
     7
370
    50
100
AcDbLine
 10
140.4687521144486
 20
210.4918294949188
 30
0.0
 11
140.4444091294135
 21
209.097220816275
 31
0.0
  0
LINE
  5
165
330
1F
100
AcDbEntity
  8
NoLayerName_001
  6
Continuous
 62
     7
370
    50
100
AcDbLine
 10
140.8658440103961
 20
211.7033620330042
 30
0.0
 11
140.633529424312
 21
211.8067951507444
 31
0.0
  0
LINE
  5
166
330
1F
100
AcDbEntity
  8
NoLayerName_001
  6
Continuous
 62
     7
370
    50
100
AcDbLine
 10
140.4687521144486
 20
212.1446387021624
 30
0.0
 11
140.633529424312
 21
211.8067951507444
 31
0.0
  0
LINE
  5
167
330
1F
100
AcDbEntity
  8
NoLayerName_001
  6
Continuous
 62
     7
370
    50
100
AcDbLine
 10
140.4687521144486
 20
212.1446387021624
 30
0.0
 11
140.4444091294135
 21
213.5392473808062
 31
0.0
  0
LINE
  5
168
330
1F
100
AcDbEntity
  8
NoLayerName_001
  6
Continuous
 62
     7
370
    50
100
AcDbLine
 10
140.8658440103961
 20
211.7033620330042
 30
0.0
 11
142.305422411679
 21
211.6782340985406
 31
0.0
  0
LINE
  5
169
330
1F
100
AcDbEntity
  8
NoLayerName_001
  6
Continuous
 62
     7
370
    50
100
AcDbLine
 10
139.7000661443783
 20
212.1446387021624
 30
0.0
 11
139.5352888345149
 21
211.8067951507444
 31
0.0
  0
LINE
  5
16A
330
1F
100
AcDbEntity
  8
NoLayerName_001
  6
Continuous
 62
     7
370
    50
100
AcDbLine
 10
139.3029742484309
 20
211.7033620330042
 30
0.0
 11
139.5352888345149
 21
211.8067951507444
 31
0.0
  0
LINE
  5
16B
330
1F
100
AcDbEntity
  8
NoLayerName_001
  6
Continuous
 62
     7
370
    50
100
AcDbLine
 10
139.3029742484309
 20
211.7033620330042
 30
0.0
 11
137.863395847148
 21
211.6782340985406
 31
0.0
  0
LINE
  5
16C
330
1F
100
AcDbEntity
  8
NoLayerName_001
  6
Continuous
 62
     7
370
    50
100
AcDbLine
 10
139.7000661443783
 20
212.1446387021624
 30
0.0
 11
139.7244091294135
 21
213.5392473808062
 31
0.0
  0
LINE
  5
16D
330
1F
100
AcDbEntity
  8
NoLayerName_001
  6
Continuous
 62
     7
370
    50
100
AcDbLine
 10
139.3029742484309
 20
210.9331061640769
 30
0.0
 11
139.5352888345149
 21
210.8296730463368
 31
0.0
  0
LINE
  5
16E
330
1F
100
AcDbEntity
  8
NoLayerName_001
  6
Continuous
 62
     7
370
    50
100
AcDbLine
 10
139.7000661443783
 20
210.4918294949188
 30
0.0
 11
139.5352888345149
 21
210.8296730463367
 31
0.0
  0
LINE
  5
16F
330
1F
100
AcDbEntity
  8
NoLayerName_001
  6
Continuous
 62
     7
370
    50
100
AcDbLine
 10
139.7000661443783
 20
210.4918294949188
 30
0.0
 11
139.7244091294135
 21
209.097220816275
 31
0.0
  0
LINE
  5
170
330
1F
100
AcDbEntity
  8
NoLayerName_001
  6
Continuous
 62
     7
370
    50
100
AcDbLine
 10
139.3029742484309
 20
210.9331061640769
 30
0.0
 11
137.863395847148
 21
210.9582340985406
 31
0.0
  0
CIRCLE
  5
171
330
1F
100
AcDbEntity
  8
NoLayerName_001
  6
Continuous
 62
     7
370
    50
100
AcDbCircle
 10
140.0844091294135
 20
171.3182340985406
 30
0.0
 40
4.0
  0
ARC
  5
172
330
1F
100
AcDbEntity
  8
NoLayerName_001
  6
Continuous
 62
     7
370
    50
100
AcDbCircle
 10
140.0844091294135
 20
171.3182340985406
 30
0.0
 40
2.25
100
AcDbArc
 50
350.7931037786541
 51
9.206896221345922
  0
ARC
  5
173
330
1F
100
AcDbEntity
  8
NoLayerName_001
  6
Continuous
 62
     7
370
    50
100
AcDbCircle
 10
140.0844091294135
 20
171.3182340985406
 30
0.0
 40
2.25
100
AcDbArc
 50
80.79310377865423
 51
99.20689622134572
  0
ARC
  5
174
330
1F
100
AcDbEntity
  8
NoLayerName_001
  6
Continuous
 62
     7
370
    50
100
AcDbCircle
 10
140.0844091294135
 20
171.3182340985406
 30
0.0
 40
2.25
100
AcDbArc
 50
170.7931037786541
 51
189.2068962213459
  0
ARC
  5
175
330
1F
100
AcDbEntity
  8
NoLayerName_001
  6
Continuous
 62
     7
370
    50
100
AcDbCircle
 10
140.0844091294135
 20
171.3182340985406
 30
0.0
 40
2.25
100
AcDbArc
 50
260.7931037786541
 51
279.2068962213459
  0
LINE
  5
176
330
1F
100
AcDbEntity
  8
NoLayerName_001
  6
Continuous
 62
     7
370
    50
100
AcDbLine
 10
140.4687521144486
 20
170.4918294949188
 30
0.0
 11
140.633529424312
 21
170.8296730463367
 31
0.0
  0
LINE
  5
177
330
1F
100
AcDbEntity
  8
NoLayerName_001
  6
Continuous
 62
     7
370
    50
100
AcDbLine
 10
140.8658440103961
 20
170.9331061640769
 30
0.0
 11
140.633529424312
 21
170.8296730463368
 31
0.0
  0
LINE
  5
178
330
1F
100
AcDbEntity
  8
NoLayerName_001
  6
Continuous
 62
     7
370
    50
100
AcDbLine
 10
140.8658440103961
 20
170.9331061640769
 30
0.0
 11
142.305422411679
 21
170.9582340985406
 31
0.0
  0
LINE
  5
179
330
1F
100
AcDbEntity
  8
NoLayerName_001
  6
Continuous
 62
     7
370
    50
100
AcDbLine
 10
140.4687521144486
 20
170.4918294949188
 30
0.0
 11
140.4444091294135
 21
169.097220816275
 31
0.0
  0
LINE
  5
17A
330
1F
100
AcDbEntity
  8
NoLayerName_001
  6
Continuous
 62
     7
370
    50
100
AcDbLine
 10
140.8658440103961
 20
171.7033620330042
 30
0.0
 11
140.633529424312
 21
171.8067951507444
 31
0.0
  0
LINE
  5
17B
330
1F
100
AcDbEntity
  8
NoLayerName_001
  6
Continuous
 62
     7
370
    50
100
AcDbLine
 10
140.4687521144486
 20
172.1446387021624
 30
0.0
 11
140.633529424312
 21
171.8067951507444
 31
0.0
  0
LINE
  5
17C
330
1F
100
AcDbEntity
  8
NoLayerName_001
  6
Continuous
 62
     7
370
    50
100
AcDbLine
 10
140.4687521144486
 20
172.1446387021624
 30
0.0
 11
140.4444091294135
 21
173.5392473808062
 31
0.0
  0
LINE
  5
17D
330
1F
100
AcDbEntity
  8
NoLayerName_001
  6
Continuous
 62
     7
370
    50
100
AcDbLine
 10
140.8658440103961
 20
171.7033620330042
 30
0.0
 11
142.305422411679
 21
171.6782340985406
 31
0.0
  0
LINE
  5
17E
330
1F
100
AcDbEntity
  8
NoLayerName_001
  6
Continuous
 62
     7
370
    50
100
AcDbLine
 10
139.7000661443783
 20
172.1446387021624
 30
0.0
 11
139.5352888345149
 21
171.8067951507444
 31
0.0
  0
LINE
  5
17F
330
1F
100
AcDbEntity
  8
NoLayerName_001
  6
Continuous
 62
     7
370
    50
100
AcDbLine
 10
139.3029742484309
 20
171.7033620330042
 30
0.0
 11
139.5352888345149
 21
171.8067951507444
 31
0.0
  0
LINE
  5
180
330
1F
100
AcDbEntity
  8
NoLayerName_001
  6
Continuous
 62
     7
370
    50
100
AcDbLine
 10
139.3029742484309
 20
171.7033620330042
 30
0.0
 11
137.863395847148
 21
171.6782340985406
 31
0.0
  0
LINE
  5
181
330
1F
100
AcDbEntity
  8
NoLayerName_001
  6
Continuous
 62
     7
370
    50
100
AcDbLine
 10
139.7000661443783
 20
172.1446387021624
 30
0.0
 11
139.7244091294135
 21
173.5392473808062
 31
0.0
  0
LINE
  5
182
330
1F
100
AcDbEntity
  8
NoLayerName_001
  6
Continuous
 62
     7
370
    50
100
AcDbLine
 10
139.3029742484309
 20
170.9331061640769
 30
0.0
 11
139.5352888345149
 21
170.8296730463368
 31
0.0
  0
LINE
  5
183
330
1F
100
AcDbEntity
  8
NoLayerName_001
  6
Continuous
 62
     7
370
    50
100
AcDbLine
 10
139.7000661443783
 20
170.4918294949188
 30
0.0
 11
139.5352888345149
 21
170.8296730463367
 31
0.0
  0
LINE
  5
184
330
1F
100
AcDbEntity
  8
NoLayerName_001
  6
Continuous
 62
     7
370
    50
100
AcDbLine
 10
139.7000661443783
 20
170.4918294949188
 30
0.0
 11
139.7244091294135
 21
169.097220816275
 31
0.0
  0
LINE
  5
185
330
1F
100
AcDbEntity
  8
NoLayerName_001
  6
Continuous
 62
     7
370
    50
100
AcDbLine
 10
139.3029742484309
 20
170.9331061640769
 30
0.0
 11
137.863395847148
 21
170.9582340985406
 31
0.0
  0
CIRCLE
  5
186
330
1F
100
AcDbEntity
  8
NoLayerName_001
  6
Continuous
 62
     7
370
    50
100
AcDbCircle
 10
80.08440912941336
 20
211.3182340985406
 30
0.0
 40
4.0
  0
ARC
  5
187
330
1F
100
AcDbEntity
  8
NoLayerName_001
  6
Continuous
 62
     7
370
    50
100
AcDbCircle
 10
80.08440912941336
 20
211.3182340985406
 30
0.0
 40
2.25
100
AcDbArc
 50
350.7931037786541
 51
9.206896221345922
  0
ARC
  5
188
330
1F
100
AcDbEntity
  8
NoLayerName_001
  6
Continuous
 62
     7
370
    50
100
AcDbCircle
 10
80.08440912941336
 20
211.3182340985406
 30
0.0
 40
2.25
100
AcDbArc
 50
80.79310377865423
 51
99.20689622134572
  0
ARC
  5
189
330
1F
100
AcDbEntity
  8
NoLayerName_001
  6
Continuous
 62
     7
370
    50
100
AcDbCircle
 10
80.08440912941336
 20
211.3182340985406
 30
0.0
 40
2.25
100
AcDbArc
 50
170.7931037786541
 51
189.2068962213459
  0
ARC
  5
18A
330
1F
100
AcDbEntity
  8
NoLayerName_001
  6
Continuous
 62
     7
370
    50
100
AcDbCircle
 10
80.08440912941336
 20
211.3182340985406
 30
0.0
 40
2.25
100
AcDbArc
 50
260.7931037786541
 51
279.2068962213459
  0
LINE
  5
18B
330
1F
100
AcDbEntity
  8
NoLayerName_001
  6
Continuous
 62
     7
370
    50
100
AcDbLine
 10
80.46875211444853
 20
210.4918294949188
 30
0.0
 11
80.63352942431192
 21
210.8296730463367
 31
0.0
  0
LINE
  5
18C
330
1F
100
AcDbEntity
  8
NoLayerName_001
  6
Continuous
 62
     7
370
    50
100
AcDbLine
 10
80.86584401039596
 20
210.9331061640769
 30
0.0
 11
80.6335294243119
 21
210.8296730463368
 31
0.0
  0
LINE
  5
18D
330
1F
100
AcDbEntity
  8
NoLayerName_001
  6
Continuous
 62
     7
370
    50
100
AcDbLine
 10
80.86584401039596
 20
210.9331061640769
 30
0.0
 11
82.30542241167889
 21
210.9582340985406
 31
0.0
  0
LINE
  5
18E
330
1F
100
AcDbEntity
  8
NoLayerName_001
  6
Continuous
 62
     7
370
    50
100
AcDbLine
 10
80.46875211444853
 20
210.4918294949188
 30
0.0
 11
80.44440912941336
 21
209.097220816275
 31
0.0
  0
LINE
  5
18F
330
1F
100
AcDbEntity
  8
NoLayerName_001
  6
Continuous
 62
     7
370
    50
100
AcDbLine
 10
80.86584401039596
 20
211.7033620330042
 30
0.0
 11
80.6335294243119
 21
211.8067951507444
 31
0.0
  0
LINE
  5
190
330
1F
100
AcDbEntity
  8
NoLayerName_001
  6
Continuous
 62
     7
370
    50
100
AcDbLine
 10
80.46875211444853
 20
212.1446387021624
 30
0.0
 11
80.63352942431192
 21
211.8067951507444
 31
0.0
  0
LINE
  5
191
330
1F
100
AcDbEntity
  8
NoLayerName_001
  6
Continuous
 62
     7
370
    50
100
AcDbLine
 10
80.46875211444853
 20
212.1446387021624
 30
0.0
 11
80.44440912941336
 21
213.5392473808062
 31
0.0
  0
LINE
  5
192
330
1F
100
AcDbEntity
  8
NoLayerName_001
  6
Continuous
 62
     7
370
    50
100
AcDbLine
 10
80.86584401039596
 20
211.7033620330042
 30
0.0
 11
82.30542241167889
 21
211.6782340985406
 31
0.0
  0
LINE
  5
193
330
1F
100
AcDbEntity
  8
NoLayerName_001
  6
Continuous
 62
     7
370
    50
100
AcDbLine
 10
79.70006614437818
 20
212.1446387021624
 30
0.0
 11
79.5352888345148
 21
211.8067951507444
 31
0.0
  0
LINE
  5
194
330
1F
100
AcDbEntity
  8
NoLayerName_001
  6
Continuous
 62
     7
370
    50
100
AcDbLine
 10
79.30297424843076
 20
211.7033620330042
 30
0.0
 11
79.53528883451482
 21
211.8067951507444
 31
0.0
  0
LINE
  5
195
330
1F
100
AcDbEntity
  8
NoLayerName_001
  6
Continuous
 62
     7
370
    50
100
AcDbLine
 10
79.30297424843076
 20
211.7033620330042
 30
0.0
 11
77.86339584714783
 21
211.6782340985406
 31
0.0
  0
LINE
  5
196
330
1F
100
AcDbEntity
  8
NoLayerName_001
  6
Continuous
 62
     7
370
    50
100
AcDbLine
 10
79.70006614437818
 20
212.1446387021624
 30
0.0
 11
79.72440912941336
 21
213.5392473808062
 31
0.0
  0
LINE
  5
197
330
1F
100
AcDbEntity
  8
NoLayerName_001
  6
Continuous
 62
     7
370
    50
100
AcDbLine
 10
79.30297424843076
 20
210.9331061640769
 30
0.0
 11
79.53528883451482
 21
210.8296730463368
 31
0.0
  0
LINE
  5
198
330
1F
100
AcDbEntity
  8
NoLayerName_001
  6
Continuous
 62
     7
370
    50
100
AcDbLine
 10
79.70006614437818
 20
210.4918294949188
 30
0.0
 11
79.5352888345148
 21
210.8296730463367
 31
0.0
  0
LINE
  5
199
330
1F
100
AcDbEntity
  8
NoLayerName_001
  6
Continuous
 62
     7
370
    50
100
AcDbLine
 10
79.70006614437818
 20
210.4918294949188
 30
0.0
 11
79.72440912941336
 21
209.097220816275
 31
0.0
  0
LINE
  5
19A
330
1F
100
AcDbEntity
  8
NoLayerName_001
  6
Continuous
 62
     7
370
    50
100
AcDbLine
 10
79.30297424843076
 20
210.9331061640769
 30
0.0
 11
77.86339584714783
 21
210.9582340985406
 31
0.0
  0
CIRCLE
  5
19B
330
1F
100
AcDbEntity
  8
NoLayerName_001
  6
Continuous
 62
     7
370
    50
100
AcDbCircle
 10
80.08440912941336
 20
171.3182340985406
 30
0.0
 40
4.0
  0
ARC
  5
19C
330
1F
100
AcDbEntity
  8
NoLayerName_001
  6
Continuous
 62
     7
370
    50
100
AcDbCircle
 10
80.08440912941336
 20
171.3182340985406
 30
0.0
 40
2.25
100
AcDbArc
 50
350.7931037786541
 51
9.206896221345922
  0
ARC
  5
19D
330
1F
100
AcDbEntity
  8
NoLayerName_001
  6
Continuous
 62
     7
370
    50
100
AcDbCircle
 10
80.08440912941336
 20
171.3182340985406
 30
0.0
 40
2.25
100
AcDbArc
 50
80.79310377865423
 51
99.20689622134572
  0
ARC
  5
19E
330
1F
100
AcDbEntity
  8
NoLayerName_001
  6
Continuous
 62
     7
370
    50
100
AcDbCircle
 10
80.08440912941336
 20
171.3182340985406
 30
0.0
 40
2.25
100
AcDbArc
 50
170.7931037786541
 51
189.2068962213459
  0
ARC
  5
19F
330
1F
100
AcDbEntity
  8
NoLayerName_001
  6
Continuous
 62
     7
370
    50
100
AcDbCircle
 10
80.08440912941336
 20
171.3182340985406
 30
0.0
 40
2.25
100
AcDbArc
 50
260.7931037786541
 51
279.2068962213459
  0
LINE
  5
1A0
330
1F
100
AcDbEntity
  8
NoLayerName_001
  6
Continuous
 62
     7
370
    50
100
AcDbLine
 10
80.46875211444853
 20
170.4918294949188
 30
0.0
 11
80.63352942431192
 21
170.8296730463367
 31
0.0
  0
LINE
  5
1A1
330
1F
100
AcDbEntity
  8
NoLayerName_001
  6
Continuous
 62
     7
370
    50
100
AcDbLine
 10
80.86584401039596
 20
170.9331061640769
 30
0.0
 11
80.6335294243119
 21
170.8296730463368
 31
0.0
  0
LINE
  5
1A2
330
1F
100
AcDbEntity
  8
NoLayerName_001
  6
Continuous
 62
     7
370
    50
100
AcDbLine
 10
80.86584401039596
 20
170.9331061640769
 30
0.0
 11
82.30542241167889
 21
170.9582340985406
 31
0.0
  0
LINE
  5
1A3
330
1F
100
AcDbEntity
  8
NoLayerName_001
  6
Continuous
 62
     7
370
    50
100
AcDbLine
 10
80.46875211444853
 20
170.4918294949188
 30
0.0
 11
80.44440912941336
 21
169.097220816275
 31
0.0
  0
LINE
  5
1A4
330
1F
100
AcDbEntity
  8
NoLayerName_001
  6
Continuous
 62
     7
370
    50
100
AcDbLine
 10
80.86584401039596
 20
171.7033620330042
 30
0.0
 11
80.6335294243119
 21
171.8067951507444
 31
0.0
  0
LINE
  5
1A5
330
1F
100
AcDbEntity
  8
NoLayerName_001
  6
Continuous
 62
     7
370
    50
100
AcDbLine
 10
80.46875211444853
 20
172.1446387021624
 30
0.0
 11
80.63352942431192
 21
171.8067951507444
 31
0.0
  0
LINE
  5
1A6
330
1F
100
AcDbEntity
  8
NoLayerName_001
  6
Continuous
 62
     7
370
    50
100
AcDbLine
 10
80.46875211444853
 20
172.1446387021624
 30
0.0
 11
80.44440912941336
 21
173.5392473808062
 31
0.0
  0
LINE
  5
1A7
330
1F
100
AcDbEntity
  8
NoLayerName_001
  6
Continuous
 62
     7
370
    50
100
AcDbLine
 10
80.86584401039596
 20
171.7033620330042
 30
0.0
 11
82.30542241167889
 21
171.6782340985406
 31
0.0
  0
LINE
  5
1A8
330
1F
100
AcDbEntity
  8
NoLayerName_001
  6
Continuous
 62
     7
370
    50
100
AcDbLine
 10
79.70006614437818
 20
172.1446387021624
 30
0.0
 11
79.5352888345148
 21
171.8067951507444
 31
0.0
  0
LINE
  5
1A9
330
1F
100
AcDbEntity
  8
NoLayerName_001
  6
Continuous
 62
     7
370
    50
100
AcDbLine
 10
79.30297424843076
 20
171.7033620330042
 30
0.0
 11
79.53528883451482
 21
171.8067951507444
 31
0.0
  0
LINE
  5
1AA
330
1F
100
AcDbEntity
  8
NoLayerName_001
  6
Continuous
 62
     7
370
    50
100
AcDbLine
 10
79.30297424843076
 20
171.7033620330042
 30
0.0
 11
77.86339584714783
 21
171.6782340985406
 31
0.0
  0
LINE
  5
1AB
330
1F
100
AcDbEntity
  8
NoLayerName_001
  6
Continuous
 62
     7
370
    50
100
AcDbLine
 10
79.70006614437818
 20
172.1446387021624
 30
0.0
 11
79.72440912941336
 21
173.5392473808062
 31
0.0
  0
LINE
  5
1AC
330
1F
100
AcDbEntity
  8
NoLayerName_001
  6
Continuous
 62
     7
370
    50
100
AcDbLine
 10
79.30297424843076
 20
170.9331061640769
 30
0.0
 11
79.53528883451482
 21
170.8296730463368
 31
0.0
  0
LINE
  5
1AD
330
1F
100
AcDbEntity
  8
NoLayerName_001
  6
Continuous
 62
     7
370
    50
100
AcDbLine
 10
79.70006614437818
 20
170.4918294949188
 30
0.0
 11
79.5352888345148
 21
170.8296730463367
 31
0.0
  0
LINE
  5
1AE
330
1F
100
AcDbEntity
  8
NoLayerName_001
  6
Continuous
 62
     7
370
    50
100
AcDbLine
 10
79.70006614437818
 20
170.4918294949188
 30
0.0
 11
79.72440912941336
 21
169.097220816275
 31
0.0
  0
LINE
  5
1AF
330
1F
100
AcDbEntity
  8
NoLayerName_001
  6
Continuous
 62
     7
370
    50
100
AcDbLine
 10
79.30297424843076
 20
170.9331061640769
 30
0.0
 11
77.86339584714783
 21
170.9582340985406
 31
0.0
  0
LINE
  5
1B0
330
1F
100
AcDbEntity
  8
NoLayerName_001
  6
Continuous
 62
     1
370
    50
100
AcDbLine
 10
145.0844091294134
 20
192.6182340985406
 30
0.0
 11
145.0844091294134
 21
189.8182340985406
 31
0.0
  0
LINE
  5
1B1
330
1F
100
AcDbEntity
  8
NoLayerName_001
  6
Continuous
 62
     1
370
    50
100
AcDbLine
 10
75.08440912941336
 20
192.8182340985406
 30
0.0
 11
75.08440912941336
 21
189.8182340985406
 31
0.0
  0
LINE
  5
1B2
330
1F
100
AcDbEntity
  8
NoLayerName_002
  6
Continuous
 62
     4
370
    50
100
AcDbLine
 10
158.0844091294135
 20
191.3182340985406
 30
0.0
 11
158.0844091294135
 21
192.9182340985406
 31
0.0
  0
LINE
  5
1B3
330
1F
100
AcDbEntity
  8
NoLayerName_002
  6
Continuous
 62
     4
370
    50
100
AcDbLine
 10
62.08440912941336
 20
191.3182340985406
 30
0.0
 11
62.08440912941336
 21
192.9182340985406
 31
0.0
  0
LINE
  5
1B4
330
1F
100
AcDbEntity
  8
NoLayerName_002
  6
Continuous
 62
     4
370
    50
100
AcDbLine
 10
62.08440912941336
 20
191.3182340985406
 30
0.0
 11
62.08440912941336
 21
189.7182340985406
 31
0.0
  0
LINE
  5
1B5
330
1F
100
AcDbEntity
  8
NoLayerName_002
  6
Continuous
 62
     4
370
    50
100
AcDbLine
 10
158.0844091294135
 20
191.3182340985406
 30
0.0
 11
158.0844091294135
 21
189.7182340985406
 31
0.0
  0
LINE
  5
1B6
330
1F
100
AcDbEntity
  8
NoLayerName_001
  6
Continuous
 62
     1
370
    50
100
AcDbLine
 10
62.08440912941336
 20
192.8182340985406
 30
0.0
 11
158.0844091294135
 21
192.8182340985406
 31
0.0
  0
LINE
  5
1B7
330
1F
100
AcDbEntity
  8
NoLayerName_001
  6
Continuous
 62
     1
370
    50
100
AcDbLine
 10
62.08440912941336
 20
189.8182340985406
 30
0.0
 11
158.0844091294135
 21
189.8182340985406
 31
0.0
  0
LINE
  5
1B8
330
1F
100
AcDbEntity
  8
NoLayerName_001
  6
DOTSX
 62
     7
370
    25
100
AcDbLine
 10
62.08440912941336
 20
192.8182340985406
 30
0.0
 11
61.58440912941336
 21
192.8182340985406
 31
0.0
  0
LINE
  5
1B9
330
1F
100
AcDbEntity
  8
NoLayerName_001
  6
DOTSX
 62
     7
370
    25
100
AcDbLine
 10
62.08440912941336
 20
189.8182340985406
 30
0.0
 11
61.58440912941336
 21
189.8182340985406
 31
0.0
  0
LINE
  5
1BA
330
1F
100
AcDbEntity
  8
NoLayerName_001
  6
DOTSX
 62
     7
370
    25
100
AcDbLine
 10
158.0844091294135
 20
192.8182340985406
 30
0.0
 11
158.5844091294135
 21
192.8182340985406
 31
0.0
  0
LINE
  5
1BB
330
1F
100
AcDbEntity
  8
NoLayerName_001
  6
DOTSX
 62
     7
370
    25
100
AcDbLine
 10
158.0844091294135
 20
189.8182340985406
 30
0.0
 11
158.5844091294135
 21
189.8182340985406
 31
0.0
  0
ARC
  5
1BC
330
1F
100
AcDbEntity
  8
NoLayerName_001
  6
Continuous
 62
     1
370
    50
100
AcDbCircle
 10
110.0844091294134
 20
191.3182340985406
 30
0.0
 40
2.5
100
AcDbArc
 50
216.869897645844
 51
323.130102354156
  0
ARC
  5
1BD
330
1F
100
AcDbEntity
  8
NoLayerName_001
  6
Continuous
 62
     1
370
    50
100
AcDbCircle
 10
110.0844091294134
 20
191.3182340985406
 30
0.0
 40
2.5
100
AcDbArc
 50
36.86989764584402
 51
143.130102354156
  0
LINE
  5
1BE
330
1F
100
AcDbEntity
  8
NoLayerName_002
  6
CENTER
 62
     4
370
    25
100
AcDbLine
 10
57.4838240821029
 20
191.3182340985406
 30
0.0
 11
165.3561434406403
 21
191.3182340985406
 31
0.0
  0
LINE
  5
1BF
330
1F
100
AcDbEntity
  8
NoLayerName_002
  6
Continuous
 62
     4
370
    50
100
AcDbLine
 10
158.0844091294135
 20
177.9432340985406
 30
0.0
 11
158.0844091294135
 21
179.5432340985406
 31
0.0
  0
LINE
  5
1C0
330
1F
100
AcDbEntity
  8
NoLayerName_002
  6
Continuous
 62
     4
370
    50
100
AcDbLine
 10
158.0844091294135
 20
177.9432340985406
 30
0.0
 11
158.0844091294135
 21
176.3432340985406
 31
0.0
  0
LINE
  5
1C1
330
1F
100
AcDbEntity
  8
NoLayerName_002
  6
Continuous
 62
     4
370
    50
100
AcDbLine
 10
158.0844091294135
 20
204.6932340985406
 30
0.0
 11
158.0844091294135
 21
203.0932340985406
 31
0.0
  0
LINE
  5
1C2
330
1F
100
AcDbEntity
  8
NoLayerName_002
  6
Continuous
 62
     4
370
    50
100
AcDbLine
 10
158.0844091294135
 20
204.6932340985406
 30
0.0
 11
158.0844091294135
 21
206.2932340985406
 31
0.0
  0
LINE
  5
1C3
330
1F
100
AcDbEntity
  8
NoLayerName_002
  6
Continuous
 62
     4
370
    50
100
AcDbLine
 10
62.08440912941325
 20
204.6932340985406
 30
0.0
 11
62.08440912941325
 21
203.0932340985406
 31
0.0
  0
LINE
  5
1C4
330
1F
100
AcDbEntity
  8
NoLayerName_002
  6
Continuous
 62
     4
370
    50
100
AcDbLine
 10
62.08440912941325
 20
204.6932340985406
 30
0.0
 11
62.08440912941325
 21
206.2932340985406
 31
0.0
  0
LINE
  5
1C5
330
1F
100
AcDbEntity
  8
NoLayerName_002
  6
Continuous
 62
     4
370
    50
100
AcDbLine
 10
62.08440912941325
 20
177.9432340985406
 30
0.0
 11
62.08440912941325
 21
179.5432340985406
 31
0.0
  0
LINE
  5
1C6
330
1F
100
AcDbEntity
  8
NoLayerName_002
  6
Continuous
 62
     4
370
    50
100
AcDbLine
 10
62.08440912941325
 20
177.9432340985406
 30
0.0
 11
62.08440912941325
 21
176.3432340985406
 31
0.0
  0
LINE
  5
1C7
330
1F
100
AcDbEntity
  8
NoLayerName_002
  6
CENTER
 62
     4
370
    25
100
AcDbLine
 10
164.0941891912517
 20
87.28432197032417
 30
0.0
 11
55.89927130833013
 21
87.28432197032419
 31
0.0
  0
LINE
  5
1C8
330
1F
100
AcDbEntity
  8
NoLayerName_002
  6
CENTER
 62
     4
370
    25
100
AcDbLine
 10
110.0844091294133
 20
137.3182340985406
 30
0.0
 11
110.0844091294134
 21
246.3864414203253
 31
0.0
  0
ARC
  5
1C9
330
1F
100
AcDbEntity
  8
NoLayerName_001
  6
Continuous
 62
     1
370
    50
100
AcDbCircle
 10
131.0844091294133
 20
98.78432197032419
 30
0.0
 40
2.0
100
AcDbArc
 50
360.0
 51
89.99999999999999
  0
ARC
  5
1CA
330
1F
100
AcDbEntity
  8
NoLayerName_001
  6
Continuous
 62
     1
370
    50
100
AcDbCircle
 10
131.0844091294133
 20
98.78432197032419
 30
0.0
 40
2.0
100
AcDbArc
 50
89.99999999999997
 51
180.0
  0
ARC
  5
1CB
330
1F
100
AcDbEntity
  8
NoLayerName_001
  6
Continuous
 62
     1
370
    50
100
AcDbCircle
 10
131.0844091294133
 20
82.78432197032419
 30
0.0
 40
2.0
100
AcDbArc
 50
270.0
 51
0.0
  0
ARC
  5
1CC
330
1F
100
AcDbEntity
  8
NoLayerName_001
  6
Continuous
 62
     1
370
    50
100
AcDbCircle
 10
131.0844091294133
 20
82.78432197032419
 30
0.0
 40
2.0
100
AcDbArc
 50
180.0
 51
270.0
  0
LINE
  5
1CD
330
1F
100
AcDbEntity
  8
NoLayerName_001
  6
Continuous
 62
     1
370
    50
100
AcDbLine
 10
133.0844091294133
 20
82.78432197032419
 30
0.0
 11
133.0844091294133
 21
98.78432197032413
 31
0.0
  0
LINE
  5
1CE
330
1F
100
AcDbEntity
  8
NoLayerName_001
  6
Continuous
 62
     1
370
    50
100
AcDbLine
 10
129.0844091294133
 20
98.78432197032419
 30
0.0
 11
129.0844091294133
 21
82.78432197032419
 31
0.0
  0
LINE
  5
1CF
330
1F
100
AcDbEntity
  8
NoLayerName_001
  6
Continuous
 62
     1
370
    50
100
AcDbLine
 10
129.0844091294133
 20
82.78432197032419
 30
0.0
 11
127.0844091294133
 21
82.78432197032419
 31
0.0
  0
LINE
  5
1D0
330
1F
100
AcDbEntity
  8
NoLayerName_001
  6
Continuous
 62
     1
370
    50
100
AcDbLine
 10
129.0844091294133
 20
83.78432197032419
 30
0.0
 11
127.0844091294133
 21
83.78432197032419
 31
0.0
  0
LINE
  5
1D1
330
1F
100
AcDbEntity
  8
NoLayerName_001
  6
Continuous
 62
     1
370
    50
100
AcDbLine
 10
129.0844091294133
 20
84.78432197032419
 30
0.0
 11
127.0844091294133
 21
84.78432197032419
 31
0.0
  0
LINE
  5
1D2
330
1F
100
AcDbEntity
  8
NoLayerName_001
  6
Continuous
 62
     1
370
    50
100
AcDbLine
 10
129.0844091294133
 20
85.78432197032419
 30
0.0
 11
127.0844091294133
 21
85.78432197032419
 31
0.0
  0
LINE
  5
1D3
330
1F
100
AcDbEntity
  8
NoLayerName_001
  6
Continuous
 62
     1
370
    50
100
AcDbLine
 10
129.0844091294133
 20
86.78432197032419
 30
0.0
 11
127.0844091294133
 21
86.78432197032419
 31
0.0
  0
LINE
  5
1D4
330
1F
100
AcDbEntity
  8
NoLayerName_001
  6
Continuous
 62
     1
370
    50
100
AcDbLine
 10
129.0844091294133
 20
87.78432197032419
 30
0.0
 11
127.0844091294133
 21
87.78432197032419
 31
0.0
  0
LINE
  5
1D5
330
1F
100
AcDbEntity
  8
NoLayerName_001
  6
Continuous
 62
     1
370
    50
100
AcDbLine
 10
129.0844091294133
 20
88.78432197032419
 30
0.0
 11
127.0844091294133
 21
88.78432197032419
 31
0.0
  0
LINE
  5
1D6
330
1F
100
AcDbEntity
  8
NoLayerName_001
  6
Continuous
 62
     1
370
    50
100
AcDbLine
 10
129.0844091294133
 20
89.78432197032419
 30
0.0
 11
127.0844091294132
 21
89.78432197032419
 31
0.0
  0
LINE
  5
1D7
330
1F
100
AcDbEntity
  8
NoLayerName_001
  6
Continuous
 62
     1
370
    50
100
AcDbLine
 10
135.0844091294133
 20
89.78432197032419
 30
0.0
 11
133.0844091294133
 21
89.78432197032419
 31
0.0
  0
LINE
  5
1D8
330
1F
100
AcDbEntity
  8
NoLayerName_001
  6
Continuous
 62
     1
370
    50
100
AcDbLine
 10
135.0844091294133
 20
97.78432197032419
 30
0.0
 11
133.0844091294133
 21
97.78432197032419
 31
0.0
  0
LINE
  5
1D9
330
1F
100
AcDbEntity
  8
NoLayerName_001
  6
Continuous
 62
     1
370
    50
100
AcDbLine
 10
133.0844091294133
 20
88.78432197032419
 30
0.0
 11
135.0844091294133
 21
88.78432197032419
 31
0.0
  0
LINE
  5
1DA
330
1F
100
AcDbEntity
  8
NoLayerName_001
  6
Continuous
 62
     1
370
    50
100
AcDbLine
 10
133.0844091294133
 20
87.78432197032419
 30
0.0
 11
135.0844091294133
 21
87.78432197032419
 31
0.0
  0
LINE
  5
1DB
330
1F
100
AcDbEntity
  8
NoLayerName_001
  6
Continuous
 62
     1
370
    50
100
AcDbLine
 10
133.0844091294133
 20
86.78432197032419
 30
0.0
 11
135.0844091294133
 21
86.78432197032419
 31
0.0
  0
LINE
  5
1DC
330
1F
100
AcDbEntity
  8
NoLayerName_001
  6
Continuous
 62
     1
370
    50
100
AcDbLine
 10
133.0844091294133
 20
85.78432197032419
 30
0.0
 11
135.0844091294133
 21
85.78432197032419
 31
0.0
  0
LINE
  5
1DD
330
1F
100
AcDbEntity
  8
NoLayerName_001
  6
Continuous
 62
     1
370
    50
100
AcDbLine
 10
133.0844091294133
 20
84.78432197032419
 30
0.0
 11
135.0844091294133
 21
84.78432197032419
 31
0.0
  0
LINE
  5
1DE
330
1F
100
AcDbEntity
  8
NoLayerName_001
  6
Continuous
 62
     1
370
    50
100
AcDbLine
 10
133.0844091294133
 20
83.78432197032419
 30
0.0
 11
135.0844091294133
 21
83.78432197032419
 31
0.0
  0
LINE
  5
1DF
330
1F
100
AcDbEntity
  8
NoLayerName_001
  6
Continuous
 62
     1
370
    50
100
AcDbLine
 10
133.0844091294133
 20
82.78432197032419
 30
0.0
 11
135.0844091294133
 21
82.78432197032419
 31
0.0
  0
LINE
  5
1E0
330
1F
100
AcDbEntity
  8
NoLayerName_001
  6
Continuous
 62
     1
370
    50
100
AcDbLine
 10
132.8164599369821
 20
81.78432197032419
 30
0.0
 11
135.0844091294133
 21
81.78432197032419
 31
0.0
  0
LINE
  5
1E1
330
1F
100
AcDbEntity
  8
NoLayerName_001
  6
Continuous
 62
     1
370
    50
100
AcDbLine
 10
129.3523583218445
 20
81.78432197032419
 30
0.0
 11
127.0844091294133
 21
81.78432197032419
 31
0.0
  0
LINE
  5
1E2
330
1F
100
AcDbEntity
  8
NoLayerName_001
  6
Continuous
 62
     1
370
    50
100
AcDbLine
 10
129.0844091294133
 20
97.78432197032419
 30
0.0
 11
127.0844091294132
 21
97.78432197032419
 31
0.0
  0
LINE
  5
1E3
330
1F
100
AcDbEntity
  8
NoLayerName_001
  6
Continuous
 62
     1
370
    50
100
AcDbLine
 10
129.0844091294133
 20
98.78432197032419
 30
0.0
 11
127.0844091294133
 21
98.78432197032419
 31
0.0
  0
LINE
  5
1E4
330
1F
100
AcDbEntity
  8
NoLayerName_001
  6
Continuous
 62
     1
370
    50
100
AcDbLine
 10
133.0844091294133
 20
98.78432197032419
 30
0.0
 11
135.0844091294133
 21
98.78432197032419
 31
0.0
  0
LINE
  5
1E5
330
1F
100
AcDbEntity
  8
NoLayerName_001
  6
Continuous
 62
     1
370
    50
100
AcDbLine
 10
132.8164599369822
 20
99.78432197032419
 30
0.0
 11
135.0844091294133
 21
99.78432197032419
 31
0.0
  0
LINE
  5
1E6
330
1F
100
AcDbEntity
  8
NoLayerName_001
  6
Continuous
 62
     1
370
    50
100
AcDbLine
 10
129.3523583218444
 20
99.78432197032419
 30
0.0
 11
127.0844091294133
 21
99.78432197032419
 31
0.0
  0
LINE
  5
1E7
330
1F
100
AcDbEntity
  8
NoLayerName_001
  6
Continuous
 62
     1
370
    50
100
AcDbLine
 10
135.0844091294133
 20
71.78432197032419
 30
0.0
 11
135.0844091294133
 21
90.78432197032419
 31
0.0
  0
LINE
  5
1E8
330
1F
100
AcDbEntity
  8
NoLayerName_001
  6
Continuous
 62
     1
370
    50
100
AcDbLine
 10
127.0844091294133
 20
71.78432197032419
 30
0.0
 11
127.0844091294133
 21
90.78432197032419
 31
0.0
  0
LINE
  5
1E9
330
1F
100
AcDbEntity
  8
NoLayerName_001
  6
Continuous
 62
     1
370
    50
100
AcDbLine
 10
136.0844091294133
 20
71.78432197032419
 30
0.0
 11
136.0844091294133
 21
105.7843219703242
 31
0.0
  0
LINE
  5
1EA
330
1F
100
AcDbEntity
  8
NoLayerName_001
  6
Continuous
 62
     1
370
    50
100
AcDbLine
 10
126.0844091294133
 20
71.78432197032419
 30
0.0
 11
126.0844091294133
 21
105.7843219703242
 31
0.0
  0
LINE
  5
1EB
330
1F
100
AcDbEntity
  8
NoLayerName_001
  6
Continuous
 62
     1
370
    50
100
AcDbLine
 10
135.0844091294133
 20
104.7843219703242
 30
0.0
 11
127.0844091294133
 21
104.7843219703242
 31
0.0
  0
LINE
  5
1EC
330
1F
100
AcDbEntity
  8
NoLayerName_001
  6
Continuous
 62
     1
370
    50
100
AcDbLine
 10
135.0844091294133
 20
103.7843219703242
 30
0.0
 11
127.0844091294133
 21
103.7843219703242
 31
0.0
  0
LINE
  5
1ED
330
1F
100
AcDbEntity
  8
NoLayerName_001
  6
Continuous
 62
     1
370
    50
100
AcDbLine
 10
135.0844091294133
 20
102.7843219703242
 30
0.0
 11
127.0844091294133
 21
102.7843219703242
 31
0.0
  0
LINE
  5
1EE
330
1F
100
AcDbEntity
  8
NoLayerName_001
  6
Continuous
 62
     1
370
    50
100
AcDbLine
 10
135.0844091294133
 20
101.7843219703242
 30
0.0
 11
127.0844091294133
 21
101.7843219703242
 31
0.0
  0
LINE
  5
1EF
330
1F
100
AcDbEntity
  8
NoLayerName_001
  6
Continuous
 62
     1
370
    50
100
AcDbLine
 10
135.0844091294133
 20
100.7843219703242
 30
0.0
 11
127.0844091294133
 21
100.7843219703242
 31
0.0
  0
LINE
  5
1F0
330
1F
100
AcDbEntity
  8
NoLayerName_001
  6
Continuous
 62
     1
370
    50
100
AcDbLine
 10
135.0844091294133
 20
80.78432197032419
 30
0.0
 11
127.0844091294133
 21
80.78432197032419
 31
0.0
  0
LINE
  5
1F1
330
1F
100
AcDbEntity
  8
NoLayerName_001
  6
Continuous
 62
     1
370
    50
100
AcDbLine
 10
135.0844091294133
 20
79.78432197032419
 30
0.0
 11
127.0844091294133
 21
79.78432197032419
 31
0.0
  0
LINE
  5
1F2
330
1F
100
AcDbEntity
  8
NoLayerName_001
  6
Continuous
 62
     1
370
    50
100
AcDbLine
 10
135.0844091294133
 20
78.78432197032419
 30
0.0
 11
127.0844091294133
 21
78.78432197032419
 31
0.0
  0
LINE
  5
1F3
330
1F
100
AcDbEntity
  8
NoLayerName_001
  6
Continuous
 62
     1
370
    50
100
AcDbLine
 10
135.0844091294133
 20
77.78432197032419
 30
0.0
 11
127.0844091294133
 21
77.78432197032419
 31
0.0
  0
LINE
  5
1F4
330
1F
100
AcDbEntity
  8
NoLayerName_001
  6
Continuous
 62
     1
370
    50
100
AcDbLine
 10
135.0844091294133
 20
76.78432197032419
 30
0.0
 11
127.0844091294133
 21
76.78432197032419
 31
0.0
  0
LINE
  5
1F5
330
1F
100
AcDbEntity
  8
NoLayerName_001
  6
Continuous
 62
     1
370
    50
100
AcDbLine
 10
135.0844091294133
 20
75.78432197032419
 30
0.0
 11
127.0844091294133
 21
75.78432197032419
 31
0.0
  0
LINE
  5
1F6
330
1F
100
AcDbEntity
  8
NoLayerName_001
  6
Continuous
 62
     1
370
    50
100
AcDbLine
 10
135.0844091294133
 20
74.78432197032419
 30
0.0
 11
127.0844091294133
 21
74.78432197032419
 31
0.0
  0
LINE
  5
1F7
330
1F
100
AcDbEntity
  8
NoLayerName_001
  6
Continuous
 62
     1
370
    50
100
AcDbLine
 10
135.0844091294133
 20
73.78432197032419
 30
0.0
 11
127.0844091294133
 21
73.78432197032419
 31
0.0
  0
LINE
  5
1F8
330
1F
100
AcDbEntity
  8
NoLayerName_001
  6
Continuous
 62
     1
370
    50
100
AcDbLine
 10
135.0844091294133
 20
72.78432197032419
 30
0.0
 11
127.0844091294133
 21
72.78432197032419
 31
0.0
  0
LINE
  5
1F9
330
1F
100
AcDbEntity
  8
NoLayerName_001
  6
Continuous
 62
     1
370
    50
100
AcDbLine
 10
136.0844091294133
 20
71.78432197032419
 30
0.0
 11
126.0844091294133
 21
71.78432197032419
 31
0.0
  0
LINE
  5
1FA
330
1F
100
AcDbEntity
  8
NoLayerName_001
  6
Continuous
 62
     1
370
    50
100
AcDbLine
 10
135.0844091294133
 20
96.78432197032419
 30
0.0
 11
133.0844091294133
 21
96.78432197032419
 31
0.0
  0
LINE
  5
1FB
330
1F
100
AcDbEntity
  8
NoLayerName_001
  6
Continuous
 62
     1
370
    50
100
AcDbLine
 10
135.0844091294133
 20
95.78432197032419
 30
0.0
 11
133.0844091294133
 21
95.78432197032419
 31
0.0
  0
LINE
  5
1FC
330
1F
100
AcDbEntity
  8
NoLayerName_001
  6
Continuous
 62
     1
370
    50
100
AcDbLine
 10
135.0844091294133
 20
94.78432197032419
 30
0.0
 11
133.0844091294133
 21
94.78432197032419
 31
0.0
  0
LINE
  5
1FD
330
1F
100
AcDbEntity
  8
NoLayerName_001
  6
Continuous
 62
     1
370
    50
100
AcDbLine
 10
135.0844091294133
 20
93.78432197032419
 30
0.0
 11
133.0844091294133
 21
93.78432197032419
 31
0.0
  0
LINE
  5
1FE
330
1F
100
AcDbEntity
  8
NoLayerName_001
  6
Continuous
 62
     1
370
    50
100
AcDbLine
 10
135.0844091294133
 20
92.78432197032419
 30
0.0
 11
133.0844091294133
 21
92.78432197032419
 31
0.0
  0
LINE
  5
1FF
330
1F
100
AcDbEntity
  8
NoLayerName_001
  6
Continuous
 62
     1
370
    50
100
AcDbLine
 10
135.0844091294133
 20
91.78432197032419
 30
0.0
 11
133.0844091294133
 21
91.78432197032419
 31
0.0
  0
LINE
  5
200
330
1F
100
AcDbEntity
  8
NoLayerName_001
  6
Continuous
 62
     1
370
    50
100
AcDbLine
 10
135.0844091294133
 20
90.78432197032419
 30
0.0
 11
133.0844091294133
 21
90.78432197032419
 31
0.0
  0
LINE
  5
201
330
1F
100
AcDbEntity
  8
NoLayerName_001
  6
Continuous
 62
     1
370
    50
100
AcDbLine
 10
129.0844091294133
 20
90.78432197032419
 30
0.0
 11
127.0844091294133
 21
90.78432197032419
 31
0.0
  0
LINE
  5
202
330
1F
100
AcDbEntity
  8
NoLayerName_001
  6
Continuous
 62
     1
370
    50
100
AcDbLine
 10
129.0844091294133
 20
91.78432197032419
 30
0.0
 11
127.0844091294133
 21
91.78432197032419
 31
0.0
  0
LINE
  5
203
330
1F
100
AcDbEntity
  8
NoLayerName_001
  6
Continuous
 62
     1
370
    50
100
AcDbLine
 10
129.0844091294133
 20
92.78432197032419
 30
0.0
 11
127.0844091294133
 21
92.78432197032419
 31
0.0
  0
LINE
  5
204
330
1F
100
AcDbEntity
  8
NoLayerName_001
  6
Continuous
 62
     1
370
    50
100
AcDbLine
 10
129.0844091294133
 20
93.78432197032419
 30
0.0
 11
127.0844091294133
 21
93.78432197032419
 31
0.0
  0
LINE
  5
205
330
1F
100
AcDbEntity
  8
NoLayerName_001
  6
Continuous
 62
     1
370
    50
100
AcDbLine
 10
129.0844091294133
 20
94.78432197032419
 30
0.0
 11
127.0844091294133
 21
94.78432197032419
 31
0.0
  0
LINE
  5
206
330
1F
100
AcDbEntity
  8
NoLayerName_001
  6
Continuous
 62
     1
370
    50
100
AcDbLine
 10
129.0844091294133
 20
95.78432197032419
 30
0.0
 11
127.0844091294133
 21
95.78432197032419
 31
0.0
  0
LINE
  5
207
330
1F
100
AcDbEntity
  8
NoLayerName_001
  6
Continuous
 62
     1
370
    50
100
AcDbLine
 10
129.0844091294133
 20
96.78432197032419
 30
0.0
 11
127.0844091294133
 21
96.78432197032419
 31
0.0
  0
LINE
  5
208
330
1F
100
AcDbEntity
  8
NoLayerName_001
  6
Continuous
 62
     1
370
    50
100
AcDbLine
 10
127.0844091294133
 20
90.78432197032419
 30
0.0
 11
127.0844091294133
 21
105.7843219703242
 31
0.0
  0
LINE
  5
209
330
1F
100
AcDbEntity
  8
NoLayerName_001
  6
Continuous
 62
     1
370
    50
100
AcDbLine
 10
135.0844091294133
 20
90.78432197032419
 30
0.0
 11
135.0844091294133
 21
105.7843219703242
 31
0.0
  0
CIRCLE
  5
20A
330
1F
100
AcDbEntity
  8
NoLayerName_001
  6
Continuous
 62
     1
370
    50
100
AcDbCircle
 10
110.0844091294133
 20
87.28432197032419
 30
0.0
 40
8.5
  0
CIRCLE
  5
20B
330
1F
100
AcDbEntity
  8
NoLayerName_001
  6
Continuous
 62
     1
370
    50
100
AcDbCircle
 10
110.0844091294133
 20
87.28432197032419
 30
0.0
 40
10.0
  0
LINE
  5
20C
330
1F
100
AcDbEntity
  8
NoLayerName_001
  6
Continuous
 62
     7
370
    50
100
AcDbLine
 10
111.0844091294133
 20
78.84335046225704
 30
0.0
 11
110.8344091294133
 21
77.31248663273459
 31
0.0
  0
LINE
  5
20D
330
1F
100
AcDbEntity
  8
NoLayerName_001
  6
Continuous
 62
     7
370
    50
100
AcDbLine
 10
117.89450488802
 20
90.6387823205733
 30
0.0
 11
119.0952718541212
 21
91.62072058628063
 31
0.0
  0
LINE
  5
20E
330
1F
100
AcDbEntity
  8
NoLayerName_001
  6
Continuous
 62
     7
370
    50
100
AcDbLine
 10
116.89450488802
 20
92.37083312814215
 30
0.0
 11
118.3452718541212
 21
92.91975869195727
 31
0.0
  0
ARC
  5
20F
330
1F
100
AcDbEntity
  8
NoLayerName_001
  6
Continuous
 62
     1
370
    50
100
AcDbCircle
 10
110.0844091294133
 20
87.28432197032419
 30
0.0
 40
9.0
100
AcDbArc
 50
35.84375987919724
 51
144.1562401208026
  0
ARC
  5
210
330
1F
100
AcDbEntity
  8
NoLayerName_001
  6
Continuous
 62
     1
370
    50
100
AcDbCircle
 10
110.0844091294133
 20
87.28432197032419
 30
0.0
 40
9.0
100
AcDbArc
 50
275.8437598791977
 51
24.15624012080274
  0
LINE
  5
211
330
1F
100
AcDbEntity
  8
NoLayerName_003
  6
Continuous
 62
     7
370
   100
100
AcDbLine
 10
186.0
 20
40.0
 30
0.0
 11
186.0
 21
20.0
 31
0.0
  0
LINE
  5
212
330
1F
100
AcDbEntity
  8
NoLayerName_003
  6
Continuous
 62
     7
370
    25
100
AcDbLine
 10
126.5
 20
27.0
 30
0.0
 11
186.0
 21
27.0
 31
0.0
  0
LINE
  5
213
330
1F
100
AcDbEntity
  8
NoLayerName_003
  6
Continuous
 62
     7
370
    25
100
AcDbLine
 10
137.5
 20
40.0
 30
0.0
 11
137.5
 21
20.0
 31
0.0
  0
LINE
  5
214
330
1F
100
AcDbEntity
  8
NoLayerName_003
  6
Continuous
 62
     7
370
   100
100
AcDbLine
 10
126.5
 20
40.0
 30
0.0
 11
126.5
 21
20.0
 31
0.0
  0
LINE
  5
215
330
1F
100
AcDbEntity
  8
NoLayerName_003
  6
Continuous
 62
     7
370
   100
100
AcDbLine
 10
126.5
 20
20.0
 30
0.0
 11
186.0
 21
20.0
 31
0.0
  0
LINE
  5
216
330
1F
100
AcDbEntity
  8
NoLayerName_003
  6
Continuous
 62
     7
370
   100
100
AcDbLine
 10
186.0
 20
40.0
 30
0.0
 11
126.5
 21
40.0
 31
0.0
  0
MTEXT
  5
217
330
1F
100
AcDbEntity
  8
NoLayerName_003
 62
     7
370
    50
100
AcDbMText
 10
127.6480002403259
 20
31.89999997615814
 30
0.0
 40
2.206896584609459
 41
0.0
 71
     7
 72
     5
  1
\fＭＳ Ｐゴシック|b0|c128|p50;\A1;品　名
 73
     1
 44
1.299389002163688
1001
ACAD
1000
ACAD_MTEXT_DEFINED_HEIGHT_BEGIN
1070
    46
1040
3.200000047683716
1000
ACAD_MTEXT_DEFINED_HEIGHT_END
  0
MTEXT
  5
218
330
1F
100
AcDbEntity
  8
NoLayerName_001
 62
     7
370
    50
100
AcDbMText
 10
161.7500003959376
 20
33.50000002384186
 30
0.0
 40
2.206896584609459
 41
0.0
 71
     5
 72
     5
  1
\fＭＳ Ｐゴシック|b0|c128|p50;\A1;セパレートボックス\P中形　セパ付
 73
     1
 44
0.9745417371009623
1001
ACAD
1000
ACAD_MTEXT_DEFINED_HEIGHT_BEGIN
1070
    46
1040
6.400000095367432
1000
ACAD_MTEXT_DEFINED_HEIGHT_END
  0
MTEXT
  5
219
330
1F
100
AcDbEntity
  8
NoLayerName_003
 62
     7
370
    50
100
AcDbMText
 10
127.6480002403259
 20
21.89999997615814
 30
0.0
 40
2.206896584609459
 41
0.0
 71
     7
 72
     5
  1
\fＭＳ Ｐゴシック|b0|c128|p50;\A1;品　番
 73
     1
 44
1.299389002163688
1001
ACAD
1000
ACAD_MTEXT_DEFINED_HEIGHT_BEGIN
1070
    46
1040
3.200000047683716
1000
ACAD_MTEXT_DEFINED_HEIGHT_END
  0
MTEXT
  5
21A
330
1F
100
AcDbEntity
  8
NoLayerName_001
 62
     7
370
    50
100
AcDbMText
 10
161.7500002879851
 20
23.50000002384186
 30
0.0
 40
2.206896584609459
 41
0.0
 71
     5
 72
     5
  1
\fＭＳ Ｐゴシック|b0|c128|p50;\A1;ＳＢ２３６ＢＳ
 73
     1
 44
1.299389002163688
1001
ACAD
1000
ACAD_MTEXT_DEFINED_HEIGHT_BEGIN
1070
    46
1040
3.200000047683716
1000
ACAD_MTEXT_DEFINED_HEIGHT_END
  0
ENDSEC
  0
SECTION
  2
OBJECTS
  0
DICTIONARY
  5
C
330
0
100
AcDbDictionary
281
     1
  3
ACAD_GROUP
350
D
  3
ACAD_LAYOUT
350
1A
  3
ACAD_MATERIAL
350
3B
  3
ACAD_MLEADERSTYLE
350
23F
  3
ACAD_MLINESTYLE
350
17
  3
ACAD_PLOTSETTINGS
350
19
  3
ACAD_PLOTSTYLENAME
350
E
  3
ACAD_SCALELIST
350
21B
  3
ACAD_VISUALSTYLE
350
2A
  3
AcDbVariableDictionary
350
23D
  3
DWGPROPS
350
245
  0
DICTIONARY
  5
D
102
{ACAD_REACTORS
330
C
102
}
330
C
100
AcDbDictionary
281
     1
  0
DICTIONARY
  5
1A
102
{ACAD_REACTORS
330
C
102
}
330
C
100
AcDbDictionary
281
     1
  3
Layout1
350
1E
  3
Model
350
22
  0
DICTIONARY
  5
3B
102
{ACAD_REACTORS
330
C
102
}
330
C
100
AcDbDictionary
281
     1
  3
ByBlock
350
3D
  3
ByLayer
350
3C
  3
Global
350
3E
  0
DICTIONARY
  5
23F
102
{ACAD_REACTORS
330
C
102
}
330
C
100
AcDbDictionary
281
     1
  0
DICTIONARY
  5
17
102
{ACAD_REACTORS
330
C
102
}
330
C
100
AcDbDictionary
281
     1
  3
Standard
350
18
  0
DICTIONARY
  5
19
102
{ACAD_REACTORS
330
C
102
}
330
C
100
AcDbDictionary
281
     1
  0
ACDBDICTIONARYWDFLT
  5
E
102
{ACAD_REACTORS
330
C
102
}
330
C
100
AcDbDictionary
281
     1
  3
Normal
350
F
100
AcDbDictionaryWithDefault
340
F
  0
DICTIONARY
  5
21B
102
{ACAD_REACTORS
330
C
102
}
330
C
100
AcDbDictionary
281
     1
  3
A0
350
21C
  3
A1
350
21D
  3
A2
350
21E
  3
A3
350
21F
  3
A4
350
220
  3
A5
350
221
  3
A6
350
222
  3
A7
350
223
  3
A8
350
224
  3
A9
350
225
  3
B0
350
226
  3
B1
350
227
  3
B2
350
228
  3
B3
350
229
  3
B4
350
22A
  3
B5
350
22B
  3
B6
350
22C
  3
B7
350
22D
  3
B8
350
22E
  3
B9
350
22F
  3
C0
350
230
  3
C1
350
231
  3
C2
350
232
  3
C3
350
233
  3
C4
350
234
  3
C5
350
235
  3
C6
350
236
  3
C7
350
237
  3
C8
350
238
  3
C9
350
239
  3
D0
350
23A
  3
D1
350
23B
  3
D2
350
23C
  0
DICTIONARY
  5
2A
102
{ACAD_REACTORS
330
C
102
}
330
C
100
AcDbDictionary
281
     1
  3
2dWireframe
350
2F
  3
3D Hidden
350
31
  3
3dWireframe
350
30
  3
Basic
350
32
  3
Brighten
350
36
  3
ColorChange
350
3A
  3
Conceptual
350
34
  3
Dim
350
35
  3
Facepattern
350
39
  3
Flat
350
2B
  3
FlatWithEdges
350
2C
  3
Gouraud
350
2D
  3
GouraudWithEdges
350
2E
  3
Linepattern
350
38
  3
Realistic
350
33
  3
Thicken
350
37
  0
DICTIONARY
  5
23D
102
{ACAD_REACTORS
330
C
102
}
330
C
100
AcDbDictionary
281
     1
  3
CANNOSCALE
350
242
  3
DIMASSOC
350
243
  3
HIDETEXT
350
244
  3
PSOLHEIGHT
350
241
  3
PSOLWIDTH
350
240
  0
XRECORD
  5
245
102
{ACAD_REACTORS
330
C
102
}
330
C
100
AcDbXrecord
280
     1
  1
DWGPROPS COOKIE
  2

  3

  4

  6
File was created by TR2_DExp
  7

  8

  9

300
=
301
=
302
=
303
=
304
=
305
=
306
=
307
=
308
=
309
=
 40
0.0
 41
2457922.34649493
 42
2457922.346495475
  1

 90
        0
  0
LAYOUT
  5
1E
102
{ACAD_REACTORS
330
1A
102
}
330
1A
100
AcDbPlotSettings
  1

  2
none_device
  4

  6

 40
0.0
 41
0.0
 42
0.0
 43
0.0
 44
0.0
 45
0.0
 46
0.0
 47
0.0
 48
0.0
 49
0.0
140
0.0
141
0.0
142
1.0
143
1.0
 70
   688
 72
     0
 73
     0
 74
     5
  7

 75
    16
147
1.0
148
0.0
149
0.0
100
AcDbLayout
  1
Layout1
 70
     0
 71
     1
 10
0.0
 20
0.0
 11
420.0
 21
297.0
 12
0.0
 22
0.0
 32
0.0
 14
1.000000000000000E+20
 24
1.000000000000000E+20
 34
1.000000000000000E+20
 15
-1.000000000000000E+20
 25
-1.000000000000000E+20
 35
-1.000000000000000E+20
146
0.0
 13
0.0
 23
0.0
 33
0.0
 16
1.0
 26
0.0
 36
0.0
 17
0.0
 27
1.0
 37
0.0
 76
     0
330
1B
  0
LAYOUT
  5
22
102
{ACAD_REACTORS
330
1A
102
}
330
1A
100
AcDbPlotSettings
  1

  2
none_device
  4

  6

 40
0.0
 41
0.0
 42
0.0
 43
0.0
 44
0.0
 45
0.0
 46
0.0
 47
0.0
 48
0.0
 49
0.0
140
0.0
141
0.0
142
1.0
143
1.0
 70
  1712
 72
     0
 73
     0
 74
     0
  7

 75
     0
147
1.0
148
0.0
149
0.0
100
AcDbLayout
  1
Model
 70
     1
 71
     0
 10
55.89927130833013
 20
20.0
 11
186.0
 21
246.3864414203253
 12
0.0
 22
0.0
 32
0.0
 14
55.89927130833013
 24
20.0
 34
0.0
 15
186.0
 25
246.3864414203253
 35
0.0
146
0.0
 13
0.0
 23
0.0
 33
0.0
 16
1.0
 26
0.0
 36
0.0
 17
0.0
 27
1.0
 37
0.0
 76
     0
330
1F
331
29
  0
MATERIAL
  5
3D
102
{ACAD_REACTORS
330
3B
102
}
102
{ACAD_XDICTIONARY
360
268
102
}
330
3B
100
AcDbMaterial
  1
ByBlock
  0
MATERIAL
  5
3C
102
{ACAD_REACTORS
330
3B
102
}
102
{ACAD_XDICTIONARY
360
266
102
}
330
3B
100
AcDbMaterial
  1
ByLayer
  0
MATERIAL
  5
3E
102
{ACAD_REACTORS
330
3B
102
}
102
{ACAD_XDICTIONARY
360
26A
102
}
330
3B
100
AcDbMaterial
  1
Global
  0
MLINESTYLE
  5
18
102
{ACAD_REACTORS
330
17
102
}
330
17
100
AcDbMlineStyle
  2
Standard
 70
     0
  3

 62
   256
 51
90.0
 52
90.0
 71
     2
 49
0.5
 62
   256
  6
BYLAYER
 49
-0.5
 62
   256
  6
BYLAYER
  0
ACDBPLACEHOLDER
  5
F
102
{ACAD_REACTORS
330
E
102
}
330
E
  0
SCALE
  5
21C
102
{ACAD_REACTORS
330
21B
102
}
330
21B
100
AcDbScale
 70
     0
300
1:1
140
1.0
141
1.0
290
     1
  0
SCALE
  5
21D
102
{ACAD_REACTORS
330
21B
102
}
330
21B
100
AcDbScale
 70
     0
300
1:2
140
1.0
141
2.0
290
     0
  0
SCALE
  5
21E
102
{ACAD_REACTORS
330
21B
102
}
330
21B
100
AcDbScale
 70
     0
300
1:4
140
1.0
141
4.0
290
     0
  0
SCALE
  5
21F
102
{ACAD_REACTORS
330
21B
102
}
330
21B
100
AcDbScale
 70
     0
300
1:5
140
1.0
141
5.0
290
     0
  0
SCALE
  5
220
102
{ACAD_REACTORS
330
21B
102
}
330
21B
100
AcDbScale
 70
     0
300
1:8
140
1.0
141
8.0
290
     0
  0
SCALE
  5
221
102
{ACAD_REACTORS
330
21B
102
}
330
21B
100
AcDbScale
 70
     0
300
1:10
140
1.0
141
10.0
290
     0
  0
SCALE
  5
222
102
{ACAD_REACTORS
330
21B
102
}
330
21B
100
AcDbScale
 70
     0
300
1:16
140
1.0
141
16.0
290
     0
  0
SCALE
  5
223
102
{ACAD_REACTORS
330
21B
102
}
330
21B
100
AcDbScale
 70
     0
300
1:20
140
1.0
141
20.0
290
     0
  0
SCALE
  5
224
102
{ACAD_REACTORS
330
21B
102
}
330
21B
100
AcDbScale
 70
     0
300
1:30
140
1.0
141
30.0
290
     0
  0
SCALE
  5
225
102
{ACAD_REACTORS
330
21B
102
}
330
21B
100
AcDbScale
 70
     0
300
1:40
140
1.0
141
40.0
290
     0
  0
SCALE
  5
226
102
{ACAD_REACTORS
330
21B
102
}
330
21B
100
AcDbScale
 70
     0
300
1:50
140
1.0
141
50.0
290
     0
  0
SCALE
  5
227
102
{ACAD_REACTORS
330
21B
102
}
330
21B
100
AcDbScale
 70
     0
300
1:100
140
1.0
141
100.0
290
     0
  0
SCALE
  5
228
102
{ACAD_REACTORS
330
21B
102
}
330
21B
100
AcDbScale
 70
     0
300
2:1
140
2.0
141
1.0
290
     0
  0
SCALE
  5
229
102
{ACAD_REACTORS
330
21B
102
}
330
21B
100
AcDbScale
 70
     0
300
4:1
140
4.0
141
1.0
290
     0
  0
SCALE
  5
22A
102
{ACAD_REACTORS
330
21B
102
}
330
21B
100
AcDbScale
 70
     0
300
8:1
140
8.0
141
1.0
290
     0
  0
SCALE
  5
22B
102
{ACAD_REACTORS
330
21B
102
}
330
21B
100
AcDbScale
 70
     0
300
10:1
140
10.0
141
1.0
290
     0
  0
SCALE
  5
22C
102
{ACAD_REACTORS
330
21B
102
}
330
21B
100
AcDbScale
 70
     0
300
100:1
140
100.0
141
1.0
290
     0
  0
SCALE
  5
22D
102
{ACAD_REACTORS
330
21B
102
}
330
21B
100
AcDbScale
 70
     0
300
1/128" = 1'-0"
140
0.0078125
141
12.0
290
     0
  0
SCALE
  5
22E
102
{ACAD_REACTORS
330
21B
102
}
330
21B
100
AcDbScale
 70
     0
300
1/64" = 1'-0"
140
0.015625
141
12.0
290
     0
  0
SCALE
  5
22F
102
{ACAD_REACTORS
330
21B
102
}
330
21B
100
AcDbScale
 70
     0
300
1/32" = 1'-0"
140
0.03125
141
12.0
290
     0
  0
SCALE
  5
230
102
{ACAD_REACTORS
330
21B
102
}
330
21B
100
AcDbScale
 70
     0
300
1/16" = 1'-0"
140
0.0625
141
12.0
290
     0
  0
SCALE
  5
231
102
{ACAD_REACTORS
330
21B
102
}
330
21B
100
AcDbScale
 70
     0
300
3/32" = 1'-0"
140
0.09375
141
12.0
290
     0
  0
SCALE
  5
232
102
{ACAD_REACTORS
330
21B
102
}
330
21B
100
AcDbScale
 70
     0
300
1/8" = 1'-0"
140
0.125
141
12.0
290
     0
  0
SCALE
  5
233
102
{ACAD_REACTORS
330
21B
102
}
330
21B
100
AcDbScale
 70
     0
300
3/16" = 1'-0"
140
0.1875
141
12.0
290
     0
  0
SCALE
  5
234
102
{ACAD_REACTORS
330
21B
102
}
330
21B
100
AcDbScale
 70
     0
300
1/4" = 1'-0"
140
0.25
141
12.0
290
     0
  0
SCALE
  5
235
102
{ACAD_REACTORS
330
21B
102
}
330
21B
100
AcDbScale
 70
     0
300
3/8" = 1'-0"
140
0.375
141
12.0
290
     0
  0
SCALE
  5
236
102
{ACAD_REACTORS
330
21B
102
}
330
21B
100
AcDbScale
 70
     0
300
1/2" = 1'-0"
140
0.5
141
12.0
290
     0
  0
SCALE
  5
237
102
{ACAD_REACTORS
330
21B
102
}
330
21B
100
AcDbScale
 70
     0
300
3/4" = 1'-0"
140
0.75
141
12.0
290
     0
  0
SCALE
  5
238
102
{ACAD_REACTORS
330
21B
102
}
330
21B
100
AcDbScale
 70
     0
300
1" = 1'-0"
140
1.0
141
12.0
290
     0
  0
SCALE
  5
239
102
{ACAD_REACTORS
330
21B
102
}
330
21B
100
AcDbScale
 70
     0
300
1-1/2" = 1'-0"
140
1.5
141
12.0
290
     0
  0
SCALE
  5
23A
102
{ACAD_REACTORS
330
21B
102
}
330
21B
100
AcDbScale
 70
     0
300
3" = 1'-0"
140
3.0
141
12.0
290
     0
  0
SCALE
  5
23B
102
{ACAD_REACTORS
330
21B
102
}
330
21B
100
AcDbScale
 70
     0
300
6" = 1'-0"
140
6.0
141
12.0
290
     0
  0
SCALE
  5
23C
102
{ACAD_REACTORS
330
21B
102
}
330
21B
100
AcDbScale
 70
     0
300
1'-0" = 1'-0"
140
12.0
141
12.0
290
     0
  0
VISUALSTYLE
  5
2F
102
{ACAD_REACTORS
330
2A
102
}
102
{ACAD_XDICTIONARY
360
24E
102
}
330
2A
100
AcDbVisualStyle
  2
2dWireframe
 70
     4
 71
     0
 72
     2
 73
     0
 90
        0
 40
-0.6
 41
-30.0
 62
     5
 63
     7
 74
     1
 91
        4
 64
     7
 65
   257
 75
     1
175
     1
 42
1.0
 92
        0
 66
   257
 43
1.0
 76
     1
 77
     6
 78
     2
 67
     7
 79
     5
170
     0
171
     0
290
     0
174
     0
 93
        1
 44
0.0
173
     0
291
     0
 45
0.0
1001
ACAD
1000
AcDbSavedByObjectVersion
1070
     0
  0
VISUALSTYLE
  5
31
102
{ACAD_REACTORS
330
2A
102
}
102
{ACAD_XDICTIONARY
360
252
102
}
330
2A
100
AcDbVisualStyle
  2
3D Hidden
 70
     6
 71
     1
 72
     2
 73
     2
 90
        0
 40
-0.6
 41
-30.0
 62
     5
 63
     7
 74
     2
 91
        2
 64
     7
 65
   257
 75
     2
175
     1
 42
40.0
 92
        0
 66
   257
 43
1.0
 76
     1
 77
     6
 78
     2
 67
     7
 79
     3
170
     0
171
     0
290
     0
174
     0
 93
        1
 44
0.0
173
     0
291
     0
 45
0.0
1001
ACAD
1000
AcDbSavedByObjectVersion
1070
     0
  0
VISUALSTYLE
  5
30
102
{ACAD_REACTORS
330
2A
102
}
102
{ACAD_XDICTIONARY
360
250
102
}
330
2A
100
AcDbVisualStyle
  2
3dWireframe
 70
     5
 71
     0
 72
     2
 73
     0
 90
        0
 40
-0.6
 41
-30.0
 62
     5
 63
     7
 74
     1
 91
        4
 64
     7
 65
   257
 75
     1
175
     1
 42
1.0
 92
        0
 66
   257
 43
1.0
 76
     1
 77
     6
 78
     2
 67
     7
 79
     5
170
     0
171
     0
290
     0
174
     0
 93
        1
 44
0.0
173
     0
291
     0
 45
0.0
1001
ACAD
1000
AcDbSavedByObjectVersion
1070
     0
  0
VISUALSTYLE
  5
32
102
{ACAD_REACTORS
330
2A
102
}
102
{ACAD_XDICTIONARY
360
254
102
}
330
2A
100
AcDbVisualStyle
  2
Basic
 70
     7
 71
     1
 72
     0
 73
     1
 90
        0
 40
-0.6
 41
-30.0
 62
     5
 63
     7
 74
     0
 91
        4
 64
     7
 65
   257
 75
     1
175
     1
 42
1.0
 92
        8
 66
     7
 43
1.0
 76
     1
 77
     6
 78
     2
 67
     7
 79
     5
170
     0
171
     0
290
     0
174
     0
 93
        1
 44
0.0
173
     0
291
     1
 45
0.0
1001
ACAD
1000
AcDbSavedByObjectVersion
1070
     0
  0
VISUALSTYLE
  5
36
102
{ACAD_REACTORS
330
2A
102
}
102
{ACAD_XDICTIONARY
360
25C
102
}
330
2A
100
AcDbVisualStyle
  2
Brighten
 70
    12
 71
     2
 72
     2
 73
     0
 90
        0
 40
-0.6
 41
-30.0
 62
     5
 63
     7
 74
     1
 91
        4
 64
     7
 65
   257
 75
     1
175
     1
 42
1.0
 92
        8
 66
     7
 43
1.0
 76
     1
 77
     6
 78
     2
 67
     7
 79
     5
170
     0
171
     0
290
     0
174
     0
 93
        1
 44
50.0
173
     0
291
     1
 45
0.0
1001
ACAD
1000
AcDbSavedByObjectVersion
1070
     0
  0
VISUALSTYLE
  5
3A
102
{ACAD_REACTORS
330
2A
102
}
102
{ACAD_XDICTIONARY
360
264
102
}
330
2A
100
AcDbVisualStyle
  2
ColorChange
 70
    16
 71
     2
 72
     2
 73
     3
 90
        0
 40
-0.6
 41
-30.0
 62
     5
 63
     8
 74
     1
 91
        4
 64
     7
 65
   257
 75
     1
175
     1
 42
1.0
 92
        8
 66
     8
 43
1.0
 76
     1
 77
     6
 78
     2
 67
     7
 79
     5
170
     0
171
     0
290
     0
174
     0
 93
        1
 44
0.0
173
     0
291
     1
 45
0.0
1001
ACAD
1000
AcDbSavedByObjectVersion
1070
     0
  0
VISUALSTYLE
  5
34
102
{ACAD_REACTORS
330
2A
102
}
102
{ACAD_XDICTIONARY
360
258
102
}
330
2A
100
AcDbVisualStyle
  2
Conceptual
 70
     9
 71
     3
 72
     2
 73
     0
 90
        0
 40
-0.6
 41
-30.0
 62
     5
 63
     7
 74
     2
 91
        2
 64
     7
 65
   257
 75
     1
175
     1
 42
40.0
 92
        8
 66
     7
 43
1.0
 76
     1
 77
     6
 78
     2
 67
     7
 79
     3
170
     0
171
     0
290
     0
174
     0
 93
        1
 44
0.0
173
     0
291
     0
 45
0.0
1001
ACAD
1000
AcDbSavedByObjectVersion
1070
     0
  0
VISUALSTYLE
  5
35
102
{ACAD_REACTORS
330
2A
102
}
102
{ACAD_XDICTIONARY
360
25A
102
}
330
2A
100
AcDbVisualStyle
  2
Dim
 70
    11
 71
     2
 72
     2
 73
     0
 90
        0
 40
-0.6
 41
-30.0
 62
     5
 63
     7
 74
     1
 91
        4
 64
     7
 65
   257
 75
     1
175
     1
 42
1.0
 92
        8
 66
     7
 43
1.0
 76
     1
 77
     6
 78
     2
 67
     7
 79
     5
170
     0
171
     0
290
     0
174
     0
 93
        1
 44
-50.0
173
     0
291
     1
 45
0.0
1001
ACAD
1000
AcDbSavedByObjectVersion
1070
     0
  0
VISUALSTYLE
  5
39
102
{ACAD_REACTORS
330
2A
102
}
102
{ACAD_XDICTIONARY
360
262
102
}
330
2A
100
AcDbVisualStyle
  2
Facepattern
 70
    15
 71
     2
 72
     2
 73
     0
 90
        0
 40
-0.6
 41
-30.0
 62
     5
 63
     7
 74
     1
 91
        4
 64
     7
 65
   257
 75
     1
175
     1
 42
1.0
 92
        8
 66
     7
 43
1.0
 76
     1
 77
     6
 78
     2
 67
     7
 79
     5
170
     0
171
     0
290
     0
174
     0
 93
        1
 44
0.0
173
     0
291
     1
 45
0.0
1001
ACAD
1000
AcDbSavedByObjectVersion
1070
     0
  0
VISUALSTYLE
  5
2B
102
{ACAD_REACTORS
330
2A
102
}
102
{ACAD_XDICTIONARY
360
246
102
}
330
2A
100
AcDbVisualStyle
  2
Flat
 70
     0
 71
     2
 72
     1
 73
     1
 90
        2
 40
-0.6
 41
30.0
 62
     5
 63
     7
 74
     0
 91
        4
 64
     7
 65
   257
 75
     1
175
     1
 42
1.0
 92
        8
 66
     7
 43
1.0
 76
     1
 77
     6
 78
     2
 67
     7
 79
     5
170
     0
171
     0
290
     0
174
     0
 93
       13
 44
0.0
173
     0
291
     1
 45
0.0
1001
ACAD
1000
AcDbSavedByObjectVersion
1070
     0
  0
VISUALSTYLE
  5
2C
102
{ACAD_REACTORS
330
2A
102
}
102
{ACAD_XDICTIONARY
360
248
102
}
330
2A
100
AcDbVisualStyle
  2
FlatWithEdges
 70
     1
 71
     2
 72
     1
 73
     1
 90
        2
 40
-0.6
 41
30.0
 62
     5
 63
     7
 74
     1
 91
        4
 64
     7
 65
   257
 75
     1
175
     1
 42
1.0
 92
        0
 66
   257
 43
1.0
 76
     1
 77
     6
 78
     2
 67
     7
 79
     5
170
     0
171
     0
290
     0
174
     0
 93
       13
 44
0.0
173
     0
291
     1
 45
0.0
1001
ACAD
1000
AcDbSavedByObjectVersion
1070
     0
  0
VISUALSTYLE
  5
2D
102
{ACAD_REACTORS
330
2A
102
}
102
{ACAD_XDICTIONARY
360
24A
102
}
330
2A
100
AcDbVisualStyle
  2
Gouraud
 70
     2
 71
     2
 72
     2
 73
     1
 90
        2
 40
-0.6
 41
30.0
 62
     5
 63
     7
 74
     0
 91
        4
 64
     7
 65
   257
 75
     1
175
     1
 42
1.0
 92
        0
 66
     7
 43
1.0
 76
     1
 77
     6
 78
     2
 67
     7
 79
     5
170
     0
171
     0
290
     0
174
     0
 93
       13
 44
0.0
173
     0
291
     1
 45
0.0
1001
ACAD
1000
AcDbSavedByObjectVersion
1070
     0
  0
VISUALSTYLE
  5
2E
102
{ACAD_REACTORS
330
2A
102
}
102
{ACAD_XDICTIONARY
360
24C
102
}
330
2A
100
AcDbVisualStyle
  2
GouraudWithEdges
 70
     3
 71
     2
 72
     2
 73
     1
 90
        2
 40
-0.6
 41
30.0
 62
     5
 63
     7
 74
     1
 91
        4
 64
     7
 65
   257
 75
     1
175
     1
 42
1.0
 92
        0
 66
   257
 43
1.0
 76
     1
 77
     6
 78
     2
 67
     7
 79
     5
170
     0
171
     0
290
     0
174
     0
 93
       13
 44
0.0
173
     0
291
     1
 45
0.0
1001
ACAD
1000
AcDbSavedByObjectVersion
1070
     0
  0
VISUALSTYLE
  5
38
102
{ACAD_REACTORS
330
2A
102
}
102
{ACAD_XDICTIONARY
360
260
102
}
330
2A
100
AcDbVisualStyle
  2
Linepattern
 70
    14
 71
     2
 72
     2
 73
     0
 90
        0
 40
-0.6
 41
-30.0
 62
     5
 63
     7
 74
     1
 91
        4
 64
     7
 65
   257
 75
     7
175
     7
 42
1.0
 92
        8
 66
     7
 43
1.0
 76
     1
 77
     6
 78
     2
 67
     7
 79
     5
170
     0
171
     0
290
     0
174
     0
 93
        1
 44
0.0
173
     0
291
     1
 45
0.0
1001
ACAD
1000
AcDbSavedByObjectVersion
1070
     0
  0
VISUALSTYLE
  5
33
102
{ACAD_REACTORS
330
2A
102
}
102
{ACAD_XDICTIONARY
360
256
102
}
330
2A
100
AcDbVisualStyle
  2
Realistic
 70
     8
 71
     2
 72
     2
 73
     0
 90
        0
 40
-0.6
 41
-30.0
 62
     5
 63
     7
 74
     1
 91
        0
 64
     7
 65
   257
 75
     1
175
     1
 42
1.0
 92
        8
 66
     8
 43
1.0
 76
     1
 77
     6
 78
     2
 67
     7
 79
     5
170
     0
171
     0
290
     0
174
     0
 93
       13
 44
0.0
173
     0
291
     0
 45
0.0
1001
ACAD
1000
AcDbSavedByObjectVersion
1070
     0
  0
VISUALSTYLE
  5
37
102
{ACAD_REACTORS
330
2A
102
}
102
{ACAD_XDICTIONARY
360
25E
102
}
330
2A
100
AcDbVisualStyle
  2
Thicken
 70
    13
 71
     2
 72
     2
 73
     0
 90
        0
 40
-0.6
 41
-30.0
 62
     5
 63
     7
 74
     1
 91
        4
 64
     7
 65
   257
 75
     1
175
     1
 42
1.0
 92
       12
 66
     7
 43
1.0
 76
     1
 77
     6
 78
     2
 67
     7
 79
     5
170
     0
171
     0
290
     0
174
     0
 93
        1
 44
0.0
173
     0
291
     1
 45
0.0
1001
ACAD
1000
AcDbSavedByObjectVersion
1070
     0
  0
DICTIONARYVAR
  5
242
102
{ACAD_REACTORS
330
23D
102
}
330
23D
100
DictionaryVariables
280
     0
  1
1:1
  0
DICTIONARYVAR
  5
243
102
{ACAD_REACTORS
330
23D
102
}
330
23D
100
DictionaryVariables
280
     0
  1
2
  0
DICTIONARYVAR
  5
244
102
{ACAD_REACTORS
330
23D
102
}
330
23D
100
DictionaryVariables
280
     0
  1
1
  0
DICTIONARYVAR
  5
241
102
{ACAD_REACTORS
330
23D
102
}
330
23D
100
DictionaryVariables
280
     0
  1
80.000000
  0
DICTIONARYVAR
  5
240
102
{ACAD_REACTORS
330
23D
102
}
330
23D
100
DictionaryVariables
280
     0
  1
5.000000
  0
DICTIONARY
  5
268
330
3D
100
AcDbDictionary
280
     1
281
     1
  3
ACAD_XREC_ROUNDTRIP
360
269
  0
DICTIONARY
  5
266
330
3C
100
AcDbDictionary
280
     1
281
     1
  3
ACAD_XREC_ROUNDTRIP
360
267
  0
DICTIONARY
  5
26A
330
3E
100
AcDbDictionary
280
     1
281
     1
  3
ACAD_XREC_ROUNDTRIP
360
26B
  0
DICTIONARY
  5
24E
330
2F
100
AcDbDictionary
280
     1
281
     1
  3
ACAD_XREC_ROUNDTRIP
360
24F
  0
DICTIONARY
  5
252
330
31
100
AcDbDictionary
280
     1
281
     1
  3
ACAD_XREC_ROUNDTRIP
360
253
  0
DICTIONARY
  5
250
330
30
100
AcDbDictionary
280
     1
281
     1
  3
ACAD_XREC_ROUNDTRIP
360
251
  0
DICTIONARY
  5
254
330
32
100
AcDbDictionary
280
     1
281
     1
  3
ACAD_XREC_ROUNDTRIP
360
255
  0
DICTIONARY
  5
25C
330
36
100
AcDbDictionary
280
     1
281
     1
  3
ACAD_XREC_ROUNDTRIP
360
25D
  0
DICTIONARY
  5
264
330
3A
100
AcDbDictionary
280
     1
281
     1
  3
ACAD_XREC_ROUNDTRIP
360
265
  0
DICTIONARY
  5
258
330
34
100
AcDbDictionary
280
     1
281
     1
  3
ACAD_XREC_ROUNDTRIP
360
259
  0
DICTIONARY
  5
25A
330
35
100
AcDbDictionary
280
     1
281
     1
  3
ACAD_XREC_ROUNDTRIP
360
25B
  0
DICTIONARY
  5
262
330
39
100
AcDbDictionary
280
     1
281
     1
  3
ACAD_XREC_ROUNDTRIP
360
263
  0
DICTIONARY
  5
246
330
2B
100
AcDbDictionary
280
     1
281
     1
  3
ACAD_XREC_ROUNDTRIP
360
247
  0
DICTIONARY
  5
248
330
2C
100
AcDbDictionary
280
     1
281
     1
  3
ACAD_XREC_ROUNDTRIP
360
249
  0
DICTIONARY
  5
24A
330
2D
100
AcDbDictionary
280
     1
281
     1
  3
ACAD_XREC_ROUNDTRIP
360
24B
  0
DICTIONARY
  5
24C
330
2E
100
AcDbDictionary
280
     1
281
     1
  3
ACAD_XREC_ROUNDTRIP
360
24D
  0
DICTIONARY
  5
260
330
38
100
AcDbDictionary
280
     1
281
     1
  3
ACAD_XREC_ROUNDTRIP
360
261
  0
DICTIONARY
  5
256
330
33
100
AcDbDictionary
280
     1
281
     1
  3
ACAD_XREC_ROUNDTRIP
360
257
  0
DICTIONARY
  5
25E
330
37
100
AcDbDictionary
280
     1
281
     1
  3
ACAD_XREC_ROUNDTRIP
360
25F
  0
XRECORD
  5
269
102
{ACAD_REACTORS
330
268
102
}
330
268
100
AcDbXrecord
280
     1
102
MATERIAL
148
0.0
149
0.0
149
0.0
 93
        0
 94
      127
282
     0
 72
     1
 77
     1
171
     1
175
     1
179
     1
273
     0
  0
XRECORD
  5
267
102
{ACAD_REACTORS
330
266
102
}
330
266
100
AcDbXrecord
280
     1
102
MATERIAL
148
0.0
149
0.0
149
0.0
 93
        0
 94
      127
282
     0
 72
     1
 77
     1
171
     1
175
     1
179
     1
273
     0
  0
XRECORD
  5
26B
102
{ACAD_REACTORS
330
26A
102
}
330
26A
100
AcDbXrecord
280
     1
102
MATERIAL
148
0.0
149
0.0
149
0.0
 93
        0
 94
      127
282
     0
 72
     1
 77
     1
171
     1
175
     1
179
     1
273
     0
  0
XRECORD
  5
24F
102
{ACAD_REACTORS
330
24E
102
}
330
24E
100
AcDbXrecord
280
     1
102
RTVSPropertyOp0
 70
     1
102
RTVSPropertyOp1
 70
     1
102
RTVSPropertyOp2
 70
     1
102
RTVSPropertyOp3
 70
     1
102
RTVSPropertyOp4
 70
     1
102
RTVSPropertyOp5
 70
     1
102
RTVSPropertyOp6
 70
     1
102
RTVSPropertyOp7
 70
     1
102
RTVSPropertyOp8
 70
     1
102
RTVSPropertyOp9
 70
     1
102
RTVSPropertyOp10
 70
     1
102
RTVSPropertyOp11
 70
     1
102
RTVSPropertyOp12
 70
     1
102
RTVSPropertyOp13
 70
     1
102
RTVSPropertyOp14
 70
     1
102
RTVSPropertyOp15
 70
     1
102
RTVSPropertyOp16
 70
     1
102
RTVSPropertyOp17
 70
     1
102
RTVSPropertyOp18
 70
     1
102
RTVSPropertyOp19
 70
     1
102
RTVSPropertyOp20
 70
     1
102
RTVSPropertyOp21
 70
     1
102
RTVSPropertyOp22
 70
     1
102
RTVSPropertyOp23
 70
     1
102
RTVSPropertyOp24
 70
     1
102
RTVSPropertyOp25
 70
     1
102
RTVSPropertyOp26
 70
     1
102
RTVSPropertyOp27
 70
     1
102
RTVSPropertyOp28
 70
     1
102
RTVSPropertyOp29
 70
     1
102
RTVSPropertyOp30
 70
     1
102
RTVSPropertyOp31
 70
     1
102
RTVSPropertyOp32
 70
     1
  0
XRECORD
  5
253
102
{ACAD_REACTORS
330
252
102
}
330
252
100
AcDbXrecord
280
     1
102
RTVSPropertyOp0
 70
     1
102
RTVSPropertyOp1
 70
     1
102
RTVSPropertyOp2
 70
     1
102
RTVSPropertyOp3
 70
     1
102
RTVSPropertyOp4
 70
     1
102
RTVSPropertyOp5
 70
     1
102
RTVSPropertyOp6
 70
     1
102
RTVSPropertyOp7
 70
     1
102
RTVSPropertyOp8
 70
     1
102
RTVSPropertyOp9
 70
     1
102
RTVSPropertyOp10
 70
     1
102
RTVSPropertyOp11
 70
     1
102
RTVSPropertyOp12
 70
     1
102
RTVSPropertyOp13
 70
     1
102
RTVSPropertyOp14
 70
     1
102
RTVSPropertyOp15
 70
     1
102
RTVSPropertyOp16
 70
     1
102
RTVSPropertyOp17
 70
     1
102
RTVSPropertyOp18
 70
     1
102
RTVSPropertyOp19
 70
     1
102
RTVSPropertyOp20
 70
     1
102
RTVSPropertyOp21
 70
     1
102
RTVSPropertyOp22
 70
     1
102
RTVSPropertyOp23
 70
     1
102
RTVSPropertyOp24
 70
     1
102
RTVSPropertyOp25
 70
     1
102
RTVSPropertyOp26
 70
     1
102
RTVSPropertyOp27
 70
     1
102
RTVSPropertyOp28
 70
     1
102
RTVSPropertyOp29
 70
     1
102
RTVSPropertyOp30
 70
     1
102
RTVSPropertyOp31
 70
     1
102
RTVSPropertyOp32
 70
     1
  0
XRECORD
  5
251
102
{ACAD_REACTORS
330
250
102
}
330
250
100
AcDbXrecord
280
     1
102
RTVSPropertyOp0
 70
     1
102
RTVSPropertyOp1
 70
     1
102
RTVSPropertyOp2
 70
     1
102
RTVSPropertyOp3
 70
     1
102
RTVSPropertyOp4
 70
     1
102
RTVSPropertyOp5
 70
     1
102
RTVSPropertyOp6
 70
     1
102
RTVSPropertyOp7
 70
     1
102
RTVSPropertyOp8
 70
     1
102
RTVSPropertyOp9
 70
     1
102
RTVSPropertyOp10
 70
     1
102
RTVSPropertyOp11
 70
     1
102
RTVSPropertyOp12
 70
     1
102
RTVSPropertyOp13
 70
     1
102
RTVSPropertyOp14
 70
     1
102
RTVSPropertyOp15
 70
     1
102
RTVSPropertyOp16
 70
     1
102
RTVSPropertyOp17
 70
     1
102
RTVSPropertyOp18
 70
     1
102
RTVSPropertyOp19
 70
     1
102
RTVSPropertyOp20
 70
     1
102
RTVSPropertyOp21
 70
     1
102
RTVSPropertyOp22
 70
     1
102
RTVSPropertyOp23
 70
     1
102
RTVSPropertyOp24
 70
     1
102
RTVSPropertyOp25
 70
     1
102
RTVSPropertyOp26
 70
     1
102
RTVSPropertyOp27
 70
     1
102
RTVSPropertyOp28
 70
     1
102
RTVSPropertyOp29
 70
     1
102
RTVSPropertyOp30
 70
     1
102
RTVSPropertyOp31
 70
     1
102
RTVSPropertyOp32
 70
     1
  0
XRECORD
  5
255
102
{ACAD_REACTORS
330
254
102
}
330
254
100
AcDbXrecord
280
     1
102
RTVSPropertyOp0
 70
     1
102
RTVSPropertyOp1
 70
     1
102
RTVSPropertyOp2
 70
     1
102
RTVSPropertyOp3
 70
     1
102
RTVSPropertyOp4
 70
     1
102
RTVSPropertyOp5
 70
     1
102
RTVSPropertyOp6
 70
     1
102
RTVSPropertyOp7
 70
     1
102
RTVSPropertyOp8
 70
     1
102
RTVSPropertyOp9
 70
     1
102
RTVSPropertyOp10
 70
     1
102
RTVSPropertyOp11
 70
     1
102
RTVSPropertyOp12
 70
     1
102
RTVSPropertyOp13
 70
     1
102
RTVSPropertyOp14
 70
     1
102
RTVSPropertyOp15
 70
     1
102
RTVSPropertyOp16
 70
     1
102
RTVSPropertyOp17
 70
     1
102
RTVSPropertyOp18
 70
     1
102
RTVSPropertyOp19
 70
     1
102
RTVSPropertyOp20
 70
     1
102
RTVSPropertyOp21
 70
     1
102
RTVSPropertyOp22
 70
     1
102
RTVSPropertyOp23
 70
     1
102
RTVSPropertyOp24
 70
     1
102
RTVSPropertyOp25
 70
     1
102
RTVSPropertyOp26
 70
     1
102
RTVSPropertyOp27
 70
     1
102
RTVSPropertyOp28
 70
     1
102
RTVSPropertyOp29
 70
     1
102
RTVSPropertyOp30
 70
     1
102
RTVSPropertyOp31
 70
     1
102
RTVSPropertyOp32
 70
     1
  0
XRECORD
  5
25D
102
{ACAD_REACTORS
330
25C
102
}
330
25C
100
AcDbXrecord
280
     1
102
RTVSPropertyOp0
 70
     1
102
RTVSPropertyOp1
 70
     1
102
RTVSPropertyOp2
 70
     1
102
RTVSPropertyOp3
 70
     1
102
RTVSPropertyOp4
 70
     1
102
RTVSPropertyOp5
 70
     1
102
RTVSPropertyOp6
 70
     1
102
RTVSPropertyOp7
 70
     1
102
RTVSPropertyOp8
 70
     1
102
RTVSPropertyOp9
 70
     1
102
RTVSPropertyOp10
 70
     1
102
RTVSPropertyOp11
 70
     1
102
RTVSPropertyOp12
 70
     1
102
RTVSPropertyOp13
 70
     1
102
RTVSPropertyOp14
 70
     1
102
RTVSPropertyOp15
 70
     1
102
RTVSPropertyOp16
 70
     1
102
RTVSPropertyOp17
 70
     1
102
RTVSPropertyOp18
 70
     1
102
RTVSPropertyOp19
 70
     1
102
RTVSPropertyOp20
 70
     1
102
RTVSPropertyOp21
 70
     1
102
RTVSPropertyOp22
 70
     1
102
RTVSPropertyOp23
 70
     1
102
RTVSPropertyOp24
 70
     1
102
RTVSPropertyOp25
 70
     1
102
RTVSPropertyOp26
 70
     1
102
RTVSPropertyOp27
 70
     1
102
RTVSPropertyOp28
 70
     1
102
RTVSPropertyOp29
 70
     1
102
RTVSPropertyOp30
 70
     1
102
RTVSPropertyOp31
 70
     1
102
RTVSPropertyOp32
 70
     1
  0
XRECORD
  5
265
102
{ACAD_REACTORS
330
264
102
}
330
264
100
AcDbXrecord
280
     1
102
RTVSPropertyOp0
 70
     1
102
RTVSPropertyOp1
 70
     1
102
RTVSPropertyOp2
 70
     1
102
RTVSPropertyOp3
 70
     1
102
RTVSPropertyOp4
 70
     1
102
RTVSPropertyOp5
 70
     1
102
RTVSPropertyOp6
 70
     1
102
RTVSPropertyOp7
 70
     1
102
RTVSPropertyOp8
 70
     1
102
RTVSPropertyOp9
 70
     1
102
RTVSPropertyOp10
 70
     1
102
RTVSPropertyOp11
 70
     1
102
RTVSPropertyOp12
 70
     1
102
RTVSPropertyOp13
 70
     1
102
RTVSPropertyOp14
 70
     1
102
RTVSPropertyOp15
 70
     1
102
RTVSPropertyOp16
 70
     1
102
RTVSPropertyOp17
 70
     1
102
RTVSPropertyOp18
 70
     1
102
RTVSPropertyOp19
 70
     1
102
RTVSPropertyOp20
 70
     1
102
RTVSPropertyOp21
 70
     1
102
RTVSPropertyOp22
 70
     1
102
RTVSPropertyOp23
 70
     1
102
RTVSPropertyOp24
 70
     1
102
RTVSPropertyOp25
 70
     1
102
RTVSPropertyOp26
 70
     1
102
RTVSPropertyOp27
 70
     1
102
RTVSPropertyOp28
 70
     1
102
RTVSPropertyOp29
 70
     1
102
RTVSPropertyOp30
 70
     1
102
RTVSPropertyOp31
 70
     1
102
RTVSPropertyOp32
 70
     1
  0
XRECORD
  5
259
102
{ACAD_REACTORS
330
258
102
}
330
258
100
AcDbXrecord
280
     1
102
RTVSPropertyOp0
 70
     1
102
RTVSPropertyOp1
 70
     1
102
RTVSPropertyOp2
 70
     1
102
RTVSPropertyOp3
 70
     1
102
RTVSPropertyOp4
 70
     1
102
RTVSPropertyOp5
 70
     1
102
RTVSPropertyOp6
 70
     1
102
RTVSPropertyOp7
 70
     1
102
RTVSPropertyOp8
 70
     1
102
RTVSPropertyOp9
 70
     1
102
RTVSPropertyOp10
 70
     1
102
RTVSPropertyOp11
 70
     1
102
RTVSPropertyOp12
 70
     1
102
RTVSPropertyOp13
 70
     1
102
RTVSPropertyOp14
 70
     1
102
RTVSPropertyOp15
 70
     1
102
RTVSPropertyOp16
 70
     1
102
RTVSPropertyOp17
 70
     1
102
RTVSPropertyOp18
 70
     1
102
RTVSPropertyOp19
 70
     1
102
RTVSPropertyOp20
 70
     1
102
RTVSPropertyOp21
 70
     1
102
RTVSPropertyOp22
 70
     1
102
RTVSPropertyOp23
 70
     1
102
RTVSPropertyOp24
 70
     1
102
RTVSPropertyOp25
 70
     1
102
RTVSPropertyOp26
 70
     1
102
RTVSPropertyOp27
 70
     1
102
RTVSPropertyOp28
 70
     1
102
RTVSPropertyOp29
 70
     1
102
RTVSPropertyOp30
 70
     1
102
RTVSPropertyOp31
 70
     1
102
RTVSPropertyOp32
 70
     1
  0
XRECORD
  5
25B
102
{ACAD_REACTORS
330
25A
102
}
330
25A
100
AcDbXrecord
280
     1
102
RTVSPropertyOp0
 70
     1
102
RTVSPropertyOp1
 70
     1
102
RTVSPropertyOp2
 70
     1
102
RTVSPropertyOp3
 70
     1
102
RTVSPropertyOp4
 70
     1
102
RTVSPropertyOp5
 70
     1
102
RTVSPropertyOp6
 70
     1
102
RTVSPropertyOp7
 70
     1
102
RTVSPropertyOp8
 70
     1
102
RTVSPropertyOp9
 70
     1
102
RTVSPropertyOp10
 70
     1
102
RTVSPropertyOp11
 70
     1
102
RTVSPropertyOp12
 70
     1
102
RTVSPropertyOp13
 70
     1
102
RTVSPropertyOp14
 70
     1
102
RTVSPropertyOp15
 70
     1
102
RTVSPropertyOp16
 70
     1
102
RTVSPropertyOp17
 70
     1
102
RTVSPropertyOp18
 70
     1
102
RTVSPropertyOp19
 70
     1
102
RTVSPropertyOp20
 70
     1
102
RTVSPropertyOp21
 70
     1
102
RTVSPropertyOp22
 70
     1
102
RTVSPropertyOp23
 70
     1
102
RTVSPropertyOp24
 70
     1
102
RTVSPropertyOp25
 70
     1
102
RTVSPropertyOp26
 70
     1
102
RTVSPropertyOp27
 70
     1
102
RTVSPropertyOp28
 70
     1
102
RTVSPropertyOp29
 70
     1
102
RTVSPropertyOp30
 70
     1
102
RTVSPropertyOp31
 70
     1
102
RTVSPropertyOp32
 70
     1
  0
XRECORD
  5
263
102
{ACAD_REACTORS
330
262
102
}
330
262
100
AcDbXrecord
280
     1
102
RTVSPropertyOp0
 70
     1
102
RTVSPropertyOp1
 70
     1
102
RTVSPropertyOp2
 70
     1
102
RTVSPropertyOp3
 70
     1
102
RTVSPropertyOp4
 70
     1
102
RTVSPropertyOp5
 70
     1
102
RTVSPropertyOp6
 70
     1
102
RTVSPropertyOp7
 70
     1
102
RTVSPropertyOp8
 70
     1
102
RTVSPropertyOp9
 70
     1
102
RTVSPropertyOp10
 70
     1
102
RTVSPropertyOp11
 70
     1
102
RTVSPropertyOp12
 70
     1
102
RTVSPropertyOp13
 70
     1
102
RTVSPropertyOp14
 70
     1
102
RTVSPropertyOp15
 70
     1
102
RTVSPropertyOp16
 70
     1
102
RTVSPropertyOp17
 70
     1
102
RTVSPropertyOp18
 70
     1
102
RTVSPropertyOp19
 70
     1
102
RTVSPropertyOp20
 70
     1
102
RTVSPropertyOp21
 70
     1
102
RTVSPropertyOp22
 70
     1
102
RTVSPropertyOp23
 70
     1
102
RTVSPropertyOp24
 70
     1
102
RTVSPropertyOp25
 70
     1
102
RTVSPropertyOp26
 70
     1
102
RTVSPropertyOp27
 70
     1
102
RTVSPropertyOp28
 70
     1
102
RTVSPropertyOp29
 70
     1
102
RTVSPropertyOp30
 70
     1
102
RTVSPropertyOp31
 70
     1
102
RTVSPropertyOp32
 70
     1
  0
XRECORD
  5
247
102
{ACAD_REACTORS
330
246
102
}
330
246
100
AcDbXrecord
280
     1
102
RTVSPropertyOp0
 70
     1
102
RTVSPropertyOp1
 70
     1
102
RTVSPropertyOp2
 70
     1
102
RTVSPropertyOp3
 70
     1
102
RTVSPropertyOp4
 70
     1
102
RTVSPropertyOp5
 70
     1
102
RTVSPropertyOp6
 70
     1
102
RTVSPropertyOp7
 70
     1
102
RTVSPropertyOp8
 70
     1
102
RTVSPropertyOp9
 70
     1
102
RTVSPropertyOp10
 70
     1
102
RTVSPropertyOp11
 70
     1
102
RTVSPropertyOp12
 70
     1
102
RTVSPropertyOp13
 70
     1
102
RTVSPropertyOp14
 70
     1
102
RTVSPropertyOp15
 70
     1
102
RTVSPropertyOp16
 70
     1
102
RTVSPropertyOp17
 70
     1
102
RTVSPropertyOp18
 70
     1
102
RTVSPropertyOp19
 70
     1
102
RTVSPropertyOp20
 70
     1
102
RTVSPropertyOp21
 70
     1
102
RTVSPropertyOp22
 70
     1
102
RTVSPropertyOp23
 70
     1
102
RTVSPropertyOp24
 70
     1
102
RTVSPropertyOp25
 70
     1
102
RTVSPropertyOp26
 70
     1
102
RTVSPropertyOp27
 70
     1
102
RTVSPropertyOp28
 70
     1
102
RTVSPropertyOp29
 70
     1
102
RTVSPropertyOp30
 70
     1
102
RTVSPropertyOp31
 70
     1
102
RTVSPropertyOp32
 70
     1
  0
XRECORD
  5
249
102
{ACAD_REACTORS
330
248
102
}
330
248
100
AcDbXrecord
280
     1
102
RTVSPropertyOp0
 70
     1
102
RTVSPropertyOp1
 70
     1
102
RTVSPropertyOp2
 70
     1
102
RTVSPropertyOp3
 70
     1
102
RTVSPropertyOp4
 70
     1
102
RTVSPropertyOp5
 70
     1
102
RTVSPropertyOp6
 70
     1
102
RTVSPropertyOp7
 70
     1
102
RTVSPropertyOp8
 70
     1
102
RTVSPropertyOp9
 70
     1
102
RTVSPropertyOp10
 70
     1
102
RTVSPropertyOp11
 70
     1
102
RTVSPropertyOp12
 70
     1
102
RTVSPropertyOp13
 70
     1
102
RTVSPropertyOp14
 70
     1
102
RTVSPropertyOp15
 70
     1
102
RTVSPropertyOp16
 70
     1
102
RTVSPropertyOp17
 70
     1
102
RTVSPropertyOp18
 70
     1
102
RTVSPropertyOp19
 70
     1
102
RTVSPropertyOp20
 70
     1
102
RTVSPropertyOp21
 70
     1
102
RTVSPropertyOp22
 70
     1
102
RTVSPropertyOp23
 70
     1
102
RTVSPropertyOp24
 70
     1
102
RTVSPropertyOp25
 70
     1
102
RTVSPropertyOp26
 70
     1
102
RTVSPropertyOp27
 70
     1
102
RTVSPropertyOp28
 70
     1
102
RTVSPropertyOp29
 70
     1
102
RTVSPropertyOp30
 70
     1
102
RTVSPropertyOp31
 70
     1
102
RTVSPropertyOp32
 70
     1
  0
XRECORD
  5
24B
102
{ACAD_REACTORS
330
24A
102
}
330
24A
100
AcDbXrecord
280
     1
102
RTVSPropertyOp0
 70
     1
102
RTVSPropertyOp1
 70
     1
102
RTVSPropertyOp2
 70
     1
102
RTVSPropertyOp3
 70
     1
102
RTVSPropertyOp4
 70
     1
102
RTVSPropertyOp5
 70
     1
102
RTVSPropertyOp6
 70
     1
102
RTVSPropertyOp7
 70
     1
102
RTVSPropertyOp8
 70
     1
102
RTVSPropertyOp9
 70
     1
102
RTVSPropertyOp10
 70
     1
102
RTVSPropertyOp11
 70
     1
102
RTVSPropertyOp12
 70
     1
102
RTVSPropertyOp13
 70
     1
102
RTVSPropertyOp14
 70
     1
102
RTVSPropertyOp15
 70
     1
102
RTVSPropertyOp16
 70
     1
102
RTVSPropertyOp17
 70
     1
102
RTVSPropertyOp18
 70
     1
102
RTVSPropertyOp19
 70
     1
102
RTVSPropertyOp20
 70
     1
102
RTVSPropertyOp21
 70
     1
102
RTVSPropertyOp22
 70
     1
102
RTVSPropertyOp23
 70
     1
102
RTVSPropertyOp24
 70
     1
102
RTVSPropertyOp25
 70
     1
102
RTVSPropertyOp26
 70
     1
102
RTVSPropertyOp27
 70
     1
102
RTVSPropertyOp28
 70
     1
102
RTVSPropertyOp29
 70
     1
102
RTVSPropertyOp30
 70
     1
102
RTVSPropertyOp31
 70
     1
102
RTVSPropertyOp32
 70
     1
  0
XRECORD
  5
24D
102
{ACAD_REACTORS
330
24C
102
}
330
24C
100
AcDbXrecord
280
     1
102
RTVSPropertyOp0
 70
     1
102
RTVSPropertyOp1
 70
     1
102
RTVSPropertyOp2
 70
     1
102
RTVSPropertyOp3
 70
     1
102
RTVSPropertyOp4
 70
     1
102
RTVSPropertyOp5
 70
     1
102
RTVSPropertyOp6
 70
     1
102
RTVSPropertyOp7
 70
     1
102
RTVSPropertyOp8
 70
     1
102
RTVSPropertyOp9
 70
     1
102
RTVSPropertyOp10
 70
     1
102
RTVSPropertyOp11
 70
     1
102
RTVSPropertyOp12
 70
     1
102
RTVSPropertyOp13
 70
     1
102
RTVSPropertyOp14
 70
     1
102
RTVSPropertyOp15
 70
     1
102
RTVSPropertyOp16
 70
     1
102
RTVSPropertyOp17
 70
     1
102
RTVSPropertyOp18
 70
     1
102
RTVSPropertyOp19
 70
     1
102
RTVSPropertyOp20
 70
     1
102
RTVSPropertyOp21
 70
     1
102
RTVSPropertyOp22
 70
     1
102
RTVSPropertyOp23
 70
     1
102
RTVSPropertyOp24
 70
     1
102
RTVSPropertyOp25
 70
     1
102
RTVSPropertyOp26
 70
     1
102
RTVSPropertyOp27
 70
     1
102
RTVSPropertyOp28
 70
     1
102
RTVSPropertyOp29
 70
     1
102
RTVSPropertyOp30
 70
     1
102
RTVSPropertyOp31
 70
     1
102
RTVSPropertyOp32
 70
     1
  0
XRECORD
  5
261
102
{ACAD_REACTORS
330
260
102
}
330
260
100
AcDbXrecord
280
     1
102
RTVSPropertyOp0
 70
     1
102
RTVSPropertyOp1
 70
     1
102
RTVSPropertyOp2
 70
     1
102
RTVSPropertyOp3
 70
     1
102
RTVSPropertyOp4
 70
     1
102
RTVSPropertyOp5
 70
     1
102
RTVSPropertyOp6
 70
     1
102
RTVSPropertyOp7
 70
     1
102
RTVSPropertyOp8
 70
     1
102
RTVSPropertyOp9
 70
     1
102
RTVSPropertyOp10
 70
     1
102
RTVSPropertyOp11
 70
     1
102
RTVSPropertyOp12
 70
     1
102
RTVSPropertyOp13
 70
     1
102
RTVSPropertyOp14
 70
     1
102
RTVSPropertyOp15
 70
     1
102
RTVSPropertyOp16
 70
     1
102
RTVSPropertyOp17
 70
     1
102
RTVSPropertyOp18
 70
     1
102
RTVSPropertyOp19
 70
     1
102
RTVSPropertyOp20
 70
     1
102
RTVSPropertyOp21
 70
     1
102
RTVSPropertyOp22
 70
     1
102
RTVSPropertyOp23
 70
     1
102
RTVSPropertyOp24
 70
     1
102
RTVSPropertyOp25
 70
     1
102
RTVSPropertyOp26
 70
     1
102
RTVSPropertyOp27
 70
     1
102
RTVSPropertyOp28
 70
     1
102
RTVSPropertyOp29
 70
     1
102
RTVSPropertyOp30
 70
     1
102
RTVSPropertyOp31
 70
     1
102
RTVSPropertyOp32
 70
     1
  0
XRECORD
  5
257
102
{ACAD_REACTORS
330
256
102
}
330
256
100
AcDbXrecord
280
     1
102
RTVSPropertyOp0
 70
     1
102
RTVSPropertyOp1
 70
     1
102
RTVSPropertyOp2
 70
     1
102
RTVSPropertyOp3
 70
     1
102
RTVSPropertyOp4
 70
     1
102
RTVSPropertyOp5
 70
     1
102
RTVSPropertyOp6
 70
     1
102
RTVSPropertyOp7
 70
     1
102
RTVSPropertyOp8
 70
     1
102
RTVSPropertyOp9
 70
     1
102
RTVSPropertyOp10
 70
     1
102
RTVSPropertyOp11
 70
     1
102
RTVSPropertyOp12
 70
     1
102
RTVSPropertyOp13
 70
     1
102
RTVSPropertyOp14
 70
     1
102
RTVSPropertyOp15
 70
     1
102
RTVSPropertyOp16
 70
     1
102
RTVSPropertyOp17
 70
     1
102
RTVSPropertyOp18
 70
     1
102
RTVSPropertyOp19
 70
     1
102
RTVSPropertyOp20
 70
     1
102
RTVSPropertyOp21
 70
     1
102
RTVSPropertyOp22
 70
     1
102
RTVSPropertyOp23
 70
     1
102
RTVSPropertyOp24
 70
     1
102
RTVSPropertyOp25
 70
     1
102
RTVSPropertyOp26
 70
     1
102
RTVSPropertyOp27
 70
     1
102
RTVSPropertyOp28
 70
     1
102
RTVSPropertyOp29
 70
     1
102
RTVSPropertyOp30
 70
     1
102
RTVSPropertyOp31
 70
     1
102
RTVSPropertyOp32
 70
     1
  0
XRECORD
  5
25F
102
{ACAD_REACTORS
330
25E
102
}
330
25E
100
AcDbXrecord
280
     1
102
RTVSPropertyOp0
 70
     1
102
RTVSPropertyOp1
 70
     1
102
RTVSPropertyOp2
 70
     1
102
RTVSPropertyOp3
 70
     1
102
RTVSPropertyOp4
 70
     1
102
RTVSPropertyOp5
 70
     1
102
RTVSPropertyOp6
 70
     1
102
RTVSPropertyOp7
 70
     1
102
RTVSPropertyOp8
 70
     1
102
RTVSPropertyOp9
 70
     1
102
RTVSPropertyOp10
 70
     1
102
RTVSPropertyOp11
 70
     1
102
RTVSPropertyOp12
 70
     1
102
RTVSPropertyOp13
 70
     1
102
RTVSPropertyOp14
 70
     1
102
RTVSPropertyOp15
 70
     1
102
RTVSPropertyOp16
 70
     1
102
RTVSPropertyOp17
 70
     1
102
RTVSPropertyOp18
 70
     1
102
RTVSPropertyOp19
 70
     1
102
RTVSPropertyOp20
 70
     1
102
RTVSPropertyOp21
 70
     1
102
RTVSPropertyOp22
 70
     1
102
RTVSPropertyOp23
 70
     1
102
RTVSPropertyOp24
 70
     1
102
RTVSPropertyOp25
 70
     1
102
RTVSPropertyOp26
 70
     1
102
RTVSPropertyOp27
 70
     1
102
RTVSPropertyOp28
 70
     1
102
RTVSPropertyOp29
 70
     1
102
RTVSPropertyOp30
 70
     1
102
RTVSPropertyOp31
 70
     1
102
RTVSPropertyOp32
 70
     1
  0
ENDSEC
  0
SECTION
  2
THUMBNAILIMAGE
 90
    16364
310
28000000B40000005500000001000800000000000000000000000000000000000000000000000000FFFFFF00FF000000FFFF000000FF000000FFFF000000FF00FF00FF000000000080808000C0C0C000FF000000FF7F7F00A5000000A55252007F0000007F3F3F004C0000004C2626002600000026131300FF3F0000FF9F7F
310
00A5290000A56752007F1F00007F4F3F004C1300004C2F26002609000026171300FF7F0000FFBF7F00A5520000A57C52007F3F00007F5F3F004C2600004C39260026130000261C1300FFBF0000FFDF7F00A57C0000A59152007F5F00007F6F3F004C3900004C422600261C000026211300FFFF0000FFFF7F00A5A50000A5A5
310
52007F7F00007F7F3F004C4C00004C4C26002626000026261300BFFF0000DFFF7F007CA5000091A552005F7F00006F7F3F00394C0000424C26001C260000212613007FFF0000BFFF7F0052A500007CA552003F7F00005F7F3F00264C0000394C2600132600001C2613003FFF00009FFF7F0029A5000067A552001F7F00004F
310
7F3F00134C00002F4C2600092600001726130000FF00007FFF7F0000A5000052A55200007F00003F7F3F00004C0000264C2600002600001326130000FF3F007FFF9F0000A5290052A56700007F1F003F7F4F00004C1300264C2F00002609001326170000FF7F007FFFBF0000A5520052A57C00007F3F003F7F5F00004C2600
310
264C39000026130013261C0000FFBF007FFFDF0000A57C0052A59100007F5F003F7F6F00004C3900264C420000261C001326210000FFFF007FFFFF0000A5A50052A5A500007F7F003F7F7F00004C4C00264C4C00002626001326260000BFFF007FDFFF00007CA5005291A500005F7F003F6F7F0000394C0026424C00001C26
310
0013212600007FFF007FBFFF000052A500527CA500003F7F003F5F7F0000264C0026394C0000132600131C2600003FFF007F9FFF000029A5005267A500001F7F003F4F7F0000134C00262F4C0000092600131726000000FF007F7FFF000000A5005252A50000007F003F3F7F0000004C0026264C0000002600131326003F00
310
FF009F7FFF002900A5006752A5001F007F004F3F7F0013004C002F264C0009002600171326007F00FF00BF7FFF005200A5007C52A5003F007F005F3F7F0026004C0039264C00130026001C132600BF00FF00DF7FFF007C00A5009152A5005F007F006F3F7F0039004C0042264C001C00260021132600FF00FF00FF7FFF00A5
310
00A500A552A5007F007F007F3F7F004C004C004C264C002600260026132600FF00BF00FF7FDF00A5007C00A55291007F005F007F3F6F004C0039004C26420026001C0026132100FF007F00FF7FBF00A5005200A5527C007F003F007F3F5F004C0026004C2639002600130026131C00FF003F00FF7F9F00A5002900A5526700
310
7F001F007F3F4F004C0013004C262F002600090026131700000000002D2D2D005B5B5B0089898900B7B7B700B3B3B30000000000000000000000000000000000000000000000000000000000000000000000000000000000000000000000000000000000000000000000000000000000000000000000000000000000000000
310
00000000000000000000000000000000000000000000000000000000000000000000000000000000000000000000000000000000000000000000000000000000000000000000000000000000000000000000000000000000000000000000000000000000000000000000000000000000000000000000000000000000000000
310
00000000000000000000000000000000000000000000000000000000000000000000000000000000000000000000000000000000000000000000000000000000000000000000000000000000000000000000000000000000000000000000000000000000000000000000000000000000000000000000000000000000000000
310
00000000000000000000000000000000000000000000000000000000000000000000000000000000000000000000000000000000000000000000000000000000000000000000000000000000000000000000000000000000000000000000000000000000000000000000000000000000000000000000000000000000000000
310
00000000000000000000000000000000000000000000000000000000000000000000000000000000000000000000000000000000000000000000000000000000000000000000000000000000000000000000000000000000000000000000000000000000000000000000000000000000000000000000000000000000000000
310
00000000000000000000000000000000000000000000000000000000000000000000000000000000000000000000000000000000000000000000000000000000000000000000000000000000000000000000000000000000000000000000000000000000000000000000000000000000000000000000000000000000000000
310
00000000000000000000000000000000000000000000000000000000000000000000000000000000000000000000000000000000000000000000000000000000000000000000000000000000000000000000000000000000000000000000000000000707070707070707070707070707070707070707070000000000000000
310
00000000000000000000000000000000000000000000000000000000000000000000000000000000000000000000000000000000000000000000000000000000000000000000000000000000000000000000000000000000000000000000000000000000000000000000000000000000000000000000000000000000000000
310
00000000000000000000000000000000000000000000000007070007070000000000000000000000000000000700000000000000000000000000000000000000000000000000000000000000000000000000000000000000000000000000000000000000000000000000000000000000000000000000000000000000000000
310
00000000000000000000000000000000000000000000000000000000000000000000000000000000000000000000000000000000000000000000000000000000000000000000000000000000000707070707070707070707070707070707070707070000000000000000000000000000000000000000000000000000000000
310
00000000000000000000000000000000000000000000000000000000000000000000000000000000000000000000000000000000000000000000000000000000000000000000000000000000000000000000000000000000000000000000000000000000000000000000000000000000000000000000000000000000000000
310
00000007070707070000000007070707070707000000000700000000000000000000000000000000000000000000000000000000000000000000000000000000000000000000000000000000000000000000000000000000000000000000000000000000000000000000000000000000000000000000000000000000000000
310
00000000000000000000000000000000000000000000000000000000000000000000000000000000000000000000000000000000000000000707070707000000070707070707070707000000070000000000000000000000000000000000000000000000000000000000000000000000000000000000000000000000000000
310
00000000000000000000000000000000000000000000000000000000000000000000000000000000000000000000000000000000000000000000000000000000000000000000000000000000000000000000000000000000000000000000000000000000000000000000000000070000000700000007070700070700070700
310
00000700000000000000000000000000000000000000000000000000000000000000000000000000000000000000000000000000000000000000000000000000000000000000000000000000000000000000000000000000000000000000000000000000000000000000000000000000000000000000000000000000000000
310
00000000000000000000000000000000000000000000000000000000000000000000000700000007000000000000000000000000000000070000000000000000000000000000000000000000000000000000000000000000000000000000000000000000000000000000000000000000000000000000000000000000000000
310
00000000000000000000000000000000000000000000000000000000000000000000000000000000000000000000000000000000000000000000000000000000000000000000000000000000000000000000000000000000070707070707070707070707070707070707070707000000000000000000000000000000000000
310
00000000000000000000000000000000000000000000000000000000000000000000000000000000000000000000000000000000000000000000000000000000000000000000000000000000000000000000000000000000000000000000000000000000000000000000000000000000000000000000000000000000000000
310
00000000000000000000000000000000000000000000000000000000000000000000000000000000000000000000000000000000000000000000000000000000000000000000000000000000000000000000000000000000000000000000000000000000000000000000000000000000000000000000000000000000000000
310
00000000000000000000000000000000000000000000000000000000000000000000000000000000000000000000000000000000000000000000000000000000000000000000000000000000000000000000000000000000000000000000000000000000000000000000000000000000000000000000000000000000000000
310
00000000000000000000000000000000000000000000000000000000000000000000000000000000000000000000000000000000000000000000000000000000000000000000000000000000000000000000000000000000000000000000000000000000000000000000000000000000000000000000000000000000000000
310
00000000000000000000000000000000000000000000000000000000000000000000000000000000000000000000000000000000000000000000000000000000000000000000000000000000000000000000000000000000000000000000000000000000000000000000000000000000000000000000000000000000000000
310
00000000000000000000000000000000000000000000000000000000000000000000000000000000000000000000000000000000000000000000000000000000000000000000000000000000000000000000000000000000000000000000000000000000000000000000000000000000000000000000000000000000000000
310
00000000000000000000000000000000000000000000000000000000000000000000000000000000000000000000000000000000000000000000000000000000000000000000000000000000000000000000000000000000000000000000000000000000000000000000000000000000000000000000000000000000000000
310
00000000000000000000000000000000000000000000000000000000000000000000000000000000000000000000000000000000000000000000000000000000000000000000000000000000000000000000000000000000000000000000000000000000000000000000000000000000000000000000000000000000000000
310
00000000000000000000000000000000000000000000000000000000000000000000000000000000000000000000000000000000000000000000000000000000000000000000000000000000000000000000000000000000000000000000000000000000000000000000000000000000000000000000000000000000000000
310
00000000000000000000000000000000000000000000000000000000000000000000000000000000000000000000000000000000000000000000000000000000000000000000000000000000000000000000000000000000000000000000000000000000000000000000000000000000000000000000000000000000000000
310
00000000000000000000000000000000000000000000000000000000000000000000000000000000000000000000000000000000000000000000000000000000000000000000000000000000000000000000000000000000000000000000000000000000000000000000000000000000000000000000000000000000000300
310
00000000000000000000000000000000000000000000000000000000000000000000000000000000000000000000000000000000000000000000000000000000000000000000000000000000000000000000000000000000000000000000000000000000000000000000000000000000000000000000000000000000000000
310
00000000000000000000000000000000000000000000000000000000000000000000000000000000000000000000000000000003000000000000000000000000000000000000000000000000000000000000000000000000000000000000000000000000000000000000000000000000000000000000000000000000000000
310
00000000000000000000000000000000000000000000000000000000000000000000000000000000000000000000000000000000000000000000000000000000000000000000000000000000000000000000000000000005050505050505050505050505050505050305050505050505050505050505050505050000000000
310
00000000000000000000000000000000000000000000000000000000000000000000000000000000000000000000000000000000000000000000000000000000000000000000000000000000000000000000000000000000000000000000000000000000000000000000000000000000000000000000000000000000000000
310
00000000000000000000000000050000000000000005050505050000000003000000000005050505000000000000000005000000000000000000000000000000000000000000000000000000000000000000000000000000000000000000000000000000000000000000000000000000000000000000000000000000000000
310
00000000000000000000000000000000000000000000000000000000000000000000000000000000000000000000000000000000000000000000000000000000000005000000000000000505050505000000000507000000000505050500000000000000000500000000000000000000000000000000000000000000000000
310
00000000000000000000000000000000000000000000000000000000000000000000000000000000000000000000000000000000000000000000000000000000000000000000000000000000000000000000000000000000000000000000000000000000000000000000000000000000000000000000000500000000000000
310
05050505050000050505050505000005050505000000000000000005000000000000000000000000000000000000000000000000000000000000000000000000000000000000000000000000000000000000000000000000000000000000000000000000000000000000000000000000000000000000000000000000000000
310
00000000000000000000000000000000000000000000000000000000000000000000000000000000000000000005000000000000000505050505000005050300050500000505050500000000000000000500000000000000000000000000000000000000000000000000000000000000000000000000000000000000000000
310
00000000000000000000000000000000000000000000000000000000000000000000000000000000000000000000000000000000000000000000000000000000000000000000000000000000000000000000000000000000000000000000000000000500000000000000050500050500050000030005050500050505050000
310
00000000000005000000000000000000000000000000000000000000000000000000000000000000000000000000000000000000000000000000000000000000000000000000000000000000000000000000000000000000000000000000000000000000000000000000000000000000000000000000000000000000000000
310
00000000000000000000000000000000000000000000000202020202020202020202020202020502020202020505020505050502020202020202020202000000000000000000000000000000000000000000000000000000000000000000000000000000000000000000000000000000000000000000000000000000000000
310
00000000000000000000000000000000000000000000000000000000000000000000000000000000000000000000000000000000000000000000000000000000000000000000000000000000000500000000000000050500050500050500030000050500050505050000000000000000050000000000000000000000000000
310
00000000000000000000000000000000000000000000000000000000000000000000000000000000000000000000000000000000000000000000000000000000000000000000000000000000000000000000000000000000000000000000000000000000000000000000000000000000000000000000000000000000000000
310
00000005000000000000000505000505000705000305050500000505050500000000000000000500000000000000000000000000000000000000000000000000000000000000000000000000000000000000000000000000000000000000000000000000000000000000000000000000000000000000000000000000000000
310
00000000000000000000000000000000000000000000000000000000000000000000000000000000000000000000000000000000000000000500000000000000050500050500000005050500000000050505050000000000000000050000000000000000000000000000000000000000000000000000000000000000000000
310
00000000000000000000000000000000000000000000000000000000000000000000000000000000000000000000000000000000000000000000000000000000000000000000000000000000000000000000000000000000000000000000000000000000000000000000000000050000000000000005050505050000000003
310
00000000000505050500000000000000000500000000000000000000000000000000000000000000000000000000000000000000000000000000000000000000000000000000000000000000000000000000000000000000000000000000000000000000000000000000000000000000000000000000000000000000000000
310
00000000000000000000000000000000000000000000000000000000000000000000000500000000000000050505050500000000030000000000050505050000000000000000050000000000000000000000000000000000000000000000000000000000000000000000000000000000000000000000000000000000000000
310
00000000000000000000000000000000000000000000000000000000000000000000000000000000000000000000000000000000000000000000000000000000000000000000000000000000000000000000000000000000050505050505050505050505050505050503050505050505050505050505050505050505000000
310
00000000000000000000000000000000000000000000000000000000000000000000000000000000000000000000000000000000000000000000000000000000000000000000000000000000000000000000000000000000000000000000000000000000000000000000000000000000000000000000000000000000000000
310
00000000000000000000000000000000000000000000000000000000000000030000000000000000000000000000000000000000000000000000000000000000000000000000000000000000000000000000000000000000000000000000000000000000000000000000000000000000000000000000000000000000000000
310
00000000000000000000000000000000000000000000000000000000000000000000000000000000000000000000000000000000000000000000000000000000000000000000000000000000000000000000000003000000000000000000000000000000000000000000000000000000000000000000000000000000000000
310
00000000000000000000000000000000000000000000000000000000000000000000000000000000000000000000000000000000000000000000000000000000000000000000000000000000000000000000000000000000000000000000000000000000000000000000000000000000000000000000000000000000000000
310
00000000000000000000030000000000000000000000000000000000000000000000000000000000000000000000000000000000000000000000000000000000000000000000000000000000000000000000000000000000000000000000000000000000000000000000000000000000000000000000000000000000000000
310
00000000000000000000000000000000000000000000000000000000000000000000000000000000000000000000000000000000000000000000000000000000000000000000000000000000000000000000000000000000000000000000000000000000000000000000000000000000000000000000000000000000000000
310
00000000000000000000000000000000000000000000000000000000000000000000000000000000000000000000000000000000000000000000000000000000000000000000000000000000000000000000000000000000000000000000000000000000000000000000000000000000000000000000000000000000000000
310
00000000000000000000000000000000000000000000000000000000000000000000000000000000000000000000000000000000000000000000000000000000000000000000000000000000000000000000000000000000000000000000000000000000000000000000000000000000000000000000000000000000000000
310
00000000000000000000000000000000000000000000000000000000000000000000000000000000000000000000000000000000000000000000000000000000000000000000000000000000000000000000000000000000000000000000000000000000000000000000000000000000000000000000000000000000000000
310
00000000000000000000000000000000000000000000000000000000000000000000000000000000000000000000000000000000000000000000000000000000000000000000000000000000000000000000000000000000000000000000000000000000000000000000000000000000000000000000000000000000000000
310
00000000000000000000000000000000000000000000000000000000000000000000000000000000000000000000000000000000000000000000000000000000000000000000000000000000000000000000000000000000000000000000000000000000000000000000000000000000000000000000000000000000000000
310
00000000000000000000000000000000000000000000000000000000000000000000000000000000000000000000000000000000000000000000000000000000000000000000000000000000000000000000000000000000000000000000000000000000000000000000000000000000000000000000000000000000000000
310
00000000000000000000000000000000000000000000000000000000000000000000000000000000000000000000000000000000000000000000000000000000000000000000000000000000000000000000000000000000000000000000000000000000000000000000000000000000000000000000000000000000000000
310
00000000000000000000000000000000000000000000000000000000000000000000000000000000000000000000000000000000000000000000000000000000000000000000000000000000000000000000000000000000000000000000000000000000000000000000000000000000000000000000000000000000000000
310
00000000000000000000000000000000000000000000000000000000000000000000000000000000000000000000000000000000000000000000000000000000000000000000000000000000000000000000000000000000000000000000000000000000000000000000000000000000000000000000000000000000000000
310
00000000000000000000000000000000000000000000000000000000000000000000000000000000000000000000000000000000000200000000000000000000000000000000000000000000000000000000000000000000000000000000000000000000000000000000000000000000000000000000000000000000000000
310
00000000000000000000000000000000000000000000000000000000000000000000000000000000000000000000000000000000000000000000000000000000000000000000000000000000000000000000000000000000000505050505050505050505050505050505020505050505050505050505050505050505000000
310
00000000000000000000000000000000000000000000000000000000000000000000000000000000000000000000000000000000000000000000000000000000000000000000000000000000000000000000000000000000000000000000000000000000000000000000000000000000000000000000000000000000000000
310
00000000000000000000000000000005050505050505050505050505050505050205050505050505050505050505050505050500000000000000000000000000000000000000000000000000000000000000000000000000000000000000000000000000000000000000000000000000000000000000000000000000000000
310
00000000000000000000000000000000000000000000000000000000000000000000000000000000000000000000000000000000000000000000000000000000000000000505070707070000000000000000000000020000000000000000000000000707070005050000000000000000000000000000000000000000000000
310
00000000000000000000000000000000000000000000000000000000000000000000000000000000000000000000000000000000000000000000000000000000000000000000000000000000000000000000000000000000000000000000000000000000000000000000000000000000000000000000000000050507070707
310
00000000000000000000000200000000000000000000000007070700050500000000000000000000000000000000000000000000000000000000000000000000000000000000000000000000000000000000000000000000000000000000000000000000000000000000000000000000000000000000000000000000000000
310
00000000000000000000000000000000000000000000000000000000000000000000000000000000000000000000000505070707000000000000000000000000020000000000000000000000000707070705050000000000000000000000000000000000000000000000000000000000000000000000000000000000000000
310
00000000000000000000000000000000000000000000000000000000000000000000000000000000000000000000000000000000000000000000000000000000000000000000000000000000000000000000000000000000000000000000000000000000070500070700000000000000000000000002000000000000000000
310
00000000070700050700000000000000000000000000000000000000000000000000000000000000000000000000000000000000000000000000000000000000000000000000000000000000000000000000000000000000000000000000000000000000000000000000000000000000000000000000000000000000000000
310
00000000000000000000000000000000000000000000000000000505000000000005000000000000000000029600000000000000000005000000000005050000000000000000000000000000000000000000000000000000000000000000000000000000000000000000000000000000000000000000000000000000000000
310
00000000000000000000000000000000000000000000000000000000000000000000000000000000000000000000000000000000000000000000000000000000000000000000000000000000000000050500000000050505000000000000009602960000000000000000050500000000000505000000000000000000000000
310
00000000000000000000000000000000000000000000000000000000000000000000000000000000000000000000000000000000000000000000000000000000000000000000000000000000000000000000000000000000000000000000000000000000000000000000000000000000000000000000000000000000000000
310
00000000000505000000000005050000000000000000029600000000000000000505000000000005050000000000000000000000000000000000000000000000000000000000000000000000000000000000000000000000000000000000000000000000000000000000000000000000000000000000000000000000000000
310
00000000000000000000000000000000000000000000000000000000000000000000000000000000000000000000000000000000000000000000050500000000000700000000000000000002000000000000000000000700000000000505000000000000000000000000000000000000000000000000000000000000000000
310
00000000000000000000000000000000000000000000000000000000000000000000000000000000000000000000000000000000000000000000000000000000000000000000000000000000000000000000000000000000000000000000000000000000000000000000000000000005050000000007070700000000000000
310
00029600000000000000000707000000000005050000000000000000000000000000000000000000000000000000000000000000000000000000000000000000000000000000000000000000000000000000000000000000000000000000000000000000000000000000000000000000000000000000000000000000000000
310
00000000000000000000000000000000000000000000000000000000000000000000000000050500000000070707000000000000009602960000000000000007070707000000000505000000000000000000000000000000000000000000000000000000000000000000000000000000000000000000000000000000000000
310
00000000000000000000000000000000000000000000000000000000000000000000000000000000000000000000000000000000000000000000000000000000000000000000000000000000000000000000000000000000000007020000000000070000000000000000000200000000000000000000070000000000020700
310
00000000000000000000000000000000000000000000000000000000000000000000000000000000000000000000000000000000000000000000000000000000000000000000000000000000000000000000000000000000000000000000000000000000000000000000000000000000000000000000000000000000000000
310
00000000000000000000000000000000050200000000000000000000000000000002000000000000000000000000000000000205000000000000000000000000000000000000000000000000000000000000000000000000000000000000000000000000000000000000000000000000000000000000000000000000000000
310
00000000000000000000000000000000000000000000000000000000000000000000000000000000000000000000000000000000000000000000000000000000000000000002050000000000000000000000000000000200000000000000000000000000000000050200000000000000000000000000000000000000000000
310
00000000000000000000000000000000000000000000000000000000000000000000000000000000000000000000000000000000000000000000000000000000000000000000000000000000000000000000000000000000000000000000000000000000000000000000000000000000000000000000000000000505000000
310
00000000000000000000000002000000000000000000000000000000000505000000000000000000000000000000000000000000000000000000000000000000000000000000000000000000000000000000000000000000000000000000000000000000000000000000000000000000000000000000000000000000000000
310
00000000000000000000000000000000000000000000000000000000000000000000000000000000000000000000000005050000000000000096000000000000000200000000000000009600000000000000050500000000000000000000000000000000000000000000000000000000000000000000000000000000000000
310
00000000000000000000000000000000000000000000000000000000000000000000000000000000000000000000000000000000000000000000000000000000000000000000000000000000000000000000000000000000000000000000000000000000020202020202020202020202020202020202020202020202020202
310
02020202020202020202020000000000000000000000000000000000000000000000000000000000000000000000000000000000000000000000000000000000000000000000000000000000000000000000000000000000000000000000000000000000000000000000000000000000000000000000000000000000000000
310
00000000000000000000000000000000000000000000000000000005070505050505050505050505050505050205050505050505050505050505050505070500000000000000000000000000000000000000000000000000000000000000000000000000000000000000000000000000000000000000000000000000000000
310
00000000000000000000000000000000000000000000000000000000000000000000000000000000000000000000000000000000000000000000000000000000000000000000000000000000000000000505000000000000000000000000000000020000000000000000000000000000000005050000000000000000000000
310
00000000000000000000000000000000000000000000000000000000000000000000000000000000000000000000000000000000000000000000000000000000000000000000000000000000000000000000000000000000000000000000000000000000000000000000000000000000000000000000000000000000000000
310
00000000000005050000000000000000000000000000000200000000000000000000000000000000050500000000000000000000000000000000000000000000000000000000000000000000000000000000000000000000000000000000000000000000000000000000000000000000000000000000000000000000000000
310
00000000000000000000000000000000000000000000000000000000000000000000000000000000000000000000000000000000000000000000000202000000000000000000000000000000020000000000000000000000000000000002020000000000000000000000000000000000000000000000000000000000000000
310
00000000000000000000000000000000000000000000000000000000000000000000000000000000000000000000000000000000000000000000000000000000000000000000000000000000000000000000000000000000000000000000000000000000000000000000000000000000050200000000000000000000000000
310
00000200000000000000000000000000000000020500000000000000000000000000000000000000000000000000000000000000000000000000000000000000000000000000000000000000000000000000000000000000000000000000000000000000000000000000000000000000000000000000000000000000000000
310
00000000000000000000000000000000000000000000000000000000000000000000000000000705000000000707070000000000000000020000000000000000000707000000000005070000000000000000000000000000000000000000000000000000000000000000000000000000000000000000000000000000000000
310
00000000000000000000000000000000000000000000000000000000000000000000000000000000000000000000000000000000000000000000000000000000000000000000000000000000000000000000000000000000000000050500000000070707000000000000009602960000000000000007070707000000000505
310
00000000000000000000000000000000000000000000000000000000000000000000000000000000000000000000000000000000000000000000000000000000000000000000000000000000000000000000000000000000000000000000000000000000000000000000000000000000000000000000000000000000000000
310
00000000000000000000000000000000000505000000000707070000000000000000029600000000000000000707000000000005050000000000000000000000000000000000000000000000000000000000000000000000000000000000000000000000000000000000000000000000000000000000000000000000000000
310
00000000000000000000000000000000000000000000000000000000000000000000000000000000000000000000000000000000000000000000000000000000000000000000050500000000000700000000000000000002000000000000000000000700000000000505000000000000000000000000000000000000000000
310
00000000000000000000000000000000000000000000000000000000000000000000000000000000000000000000000000000000000000000000000000000000000000000000000000000000000000000000000000000000000000000000000000000000000000000000000000000000000000000000000000000005050000
310
00000005050000000000000000029600000000000000000505000000000005050000000000000000000000000000000000000000000000000000000000000000000000000000000000000000000000000000000000000000000000000000000000000000000000000000000000000000000000000000000000000000000000
310
00000000000000000000000000000000000000000000000000000000000000000000000000000000000000000000000000050500000000050505000000000000009602960000000000000000050500000000000505000000000000000000000000000000000000000000000000000000000000000000000000000000000000
310
00000000000000000000000000000000000000000000000000000000000000000000000000000000000000000000000000000000000000000000000000000000000000000000000000000000000000000000000000000000000000000000000000000000000005050000000000000000000000000000000200000000000000
310
00000000000000000005050000000000000000000000000000000000000000000000000000000000000000000000000000000000000000000000000000000000000000000000000000000000000000000000000000000000000000000000000000000000000000000000000000000000000000000000000000000000000000
310
00000000000000000000000000000000000000000000000000000000070707070700000000000000000000000002000000000000000000000000000707070507000000000000000000000000000000000000000000000000000000000000000000000000000000000000000000000000000000000000000000000000000000
310
00000000000000000000000000000000000000000000000000000000000000000000000000000000000000000000000000000000000000000000000000000000000000000000000000000000000000000005050707070000000000000000000000000200000000000000000000000007070700050500000000000000000000
310
00000000000000000000000000000000000000000000000000000000000000000000000000000000000000000000000000000000000000000000000000000000000000000000000000000000000000000000000000000000000000000000000000000000000000000000000000000000000000000000000000000000000000
310
00000000000000050507070707000000000000000000000002000000000000000000000000070707000505000000000000000000000000000000000000000000000000000000000000000000000000000000000000000000000000000000000000000000000000000000000000000000000000000000000000000000000000
310
00000000000000000000000000000000000000000000000000000000000000000000000000000000000000000000000000000000000000000000000005050000000700000000000000000000000200000000000000000000000007000000050500000000000000000000000000000000000000000000000000000000000000
310
00000000000000000000000000000000000000000000000000000000000000000000000000000000000000000000000000000000000000000000000000000000000000000000000000000000000000000000000000000000000000000000000000000000000000000000000000000000000505050505050505050505050505
310
05050502050505050505050505050505050505050505000000000000000000000000000000000000000000000000000000000000000000000000000000000000000000000000000000000000000000000000000000000000000000000000000000000000000000000000000000000000000000000000000000000000000000
310
00000000000000000000000000000000000000000000000000000000000000000000000000000000050505050505050505050505050505050205050505050505050505050505050505050000000000000000000000000000000000000000000000000000000000000000000000000000000000000000000000000000000000
310
00000000000000000000000000000000000000000000000000000000000000000000000000000000000000000000000000000000000000000000000000000000000000000000000000000000000000000000000000000000000000000000000000000000000000000000000000020000000000000000000000000000000000
310
00000000000000000000000000000000000000000000000000000000000000000000000000000000000000000000000000000000000000000000000000000000000000000000000000000000000000000000000000000000000000000000000000000000000000000000000000000000000000000000000000000000000000
310
00000000000000000000000000000000000000000000000000000000000000000000000000000000000000000000000000000000000000000000000000000000000000000000000000000000000000000000000000000000000000000000000000000000000000000000000000000000000000000000000000000000000000
310
00000000000000000000000000000000000000000000000000000000000000000000000000000000000000000000000000000000000000000000000000000000000000000000000000000000000000000000000000000000000000000000000000000000000000000000000000000000000000000000000000000000000000
310
00000000000000000000000000000000000000000000000000000000000000000000000000000000000000000000000000000000000000000000000000000000000000000000000000000000000000000000000000000000000000000000000000000000000000000000000000000000000000000000000000000000000000
310
000000000000000000000000000000000000000000000000000000000000000000000000000000000000000000000000000000000000000000000000000000000000000000000000000000000000000000000000000000000000000000000000000000000000000000000000
  0
ENDSEC
  0
EOF
