  0
SECTION
  2
HEADER
  9
$ACADVER
  1
AC1015
  9
$ACADMAINTVER
 70
     6
  9
$DWGCODEPAGE
  3
ANSI_932
  9
$INSBASE
 10
0.0
 20
0.0
 30
0.0
  9
$EXTMIN
 10
44.7482894046712
 20
40.0
 30
0.0
  9
$EXTMAX
 10
372.0
 20
261.3317617218607
 30
0.0
  9
$LIMMIN
 10
44.7482894046712
 20
40.0
  9
$LIMMAX
 10
372.0
 20
261.3317617218607
  9
$ORTHOMODE
 70
     0
  9
$REGENMODE
 70
     1
  9
$FILLMODE
 70
     1
  9
$QTEXTMODE
 70
     0
  9
$MIRRTEXT
 70
     1
  9
$LTSCALE
 40
0.1417231817538826
  9
$ATTMODE
 70
     1
  9
$TEXTSIZE
 40
2.5
  9
$TRACEWID
 40
1.0
  9
$TEXTSTYLE
  7
Standard
  9
$CLAYER
  8
0
  9
$CELTYPE
  6
ByLayer
  9
$CECOLOR
 62
   256
  9
$CELTSCALE
 40
1.0
  9
$DISPSILH
 70
     0
  9
$DIMSCALE
 40
1.0
  9
$DIMASZ
 40
2.5
  9
$DIMEXO
 40
0.625
  9
$DIMDLI
 40
3.75
  9
$DIMRND
 40
0.0
  9
$DIMDLE
 40
0.0
  9
$DIMEXE
 40
1.25
  9
$DIMTP
 40
0.0
  9
$DIMTM
 40
0.0
  9
$DIMTXT
 40
2.5
  9
$DIMCEN
 40
2.5
  9
$DIMTSZ
 40
0.0
  9
$DIMTOL
 70
     0
  9
$DIMLIM
 70
     0
  9
$DIMTIH
 70
     0
  9
$DIMTOH
 70
     0
  9
$DIMSE1
 70
     0
  9
$DIMSE2
 70
     0
  9
$DIMTAD
 70
     1
  9
$DIMZIN
 70
     0
  9
$DIMBLK
  1

  9
$DIMASO
 70
     1
  9
$DIMSHO
 70
     1
  9
$DIMPOST
  1

  9
$DIMAPOST
  1

  9
$DIMALT
 70
     0
  9
$DIMALTD
 70
     3
  9
$DIMALTF
 40
0.03937007874016
  9
$DIMLFAC
 40
1.0
  9
$DIMTOFL
 70
     1
  9
$DIMTVP
 40
0.0
  9
$DIMTIX
 70
     0
  9
$DIMSOXD
 70
     0
  9
$DIMSAH
 70
     0
  9
$DIMBLK1
  1

  9
$DIMBLK2
  1

  9
$DIMSTYLE
  2
Standard
  9
$DIMCLRD
 70
     0
  9
$DIMCLRE
 70
     0
  9
$DIMCLRT
 70
     0
  9
$DIMTFAC
 40
0.75
  9
$DIMGAP
 40
0.625
  9
$DIMJUST
 70
     0
  9
$DIMSD1
 70
     0
  9
$DIMSD2
 70
     0
  9
$DIMTOLJ
 70
     0
  9
$DIMTZIN
 70
     8
  9
$DIMALTZ
 70
     0
  9
$DIMALTTZ
 70
     0
  9
$DIMUPT
 70
     0
  9
$DIMDEC
 70
     2
  9
$DIMTDEC
 70
     2
  9
$DIMALTU
 70
     2
  9
$DIMALTTD
 70
     3
  9
$DIMTXSTY
  7
Standard
  9
$DIMAUNIT
 70
     0
  9
$DIMADEC
 70
     0
  9
$DIMALTRND
 40
0.0
  9
$DIMAZIN
 70
     0
  9
$DIMDSEP
 70
    46
  9
$DIMATFIT
 70
     3
  9
$DIMFRAC
 70
     0
  9
$DIMLDRBLK
  1

  9
$DIMLUNIT
 70
     2
  9
$DIMLWD
 70
    -2
  9
$DIMLWE
 70
    -2
  9
$DIMTMOVE
 70
     0
  9
$LUNITS
 70
     2
  9
$LUPREC
 70
     4
  9
$SKETCHINC
 40
1.0
  9
$FILLETRAD
 40
10.0
  9
$AUNITS
 70
     0
  9
$AUPREC
 70
     0
  9
$MENU
  1
.
  9
$ELEVATION
 40
0.0
  9
$PELEVATION
 40
0.0
  9
$THICKNESS
 40
0.0
  9
$LIMCHECK
 70
     0
  9
$CHAMFERA
 40
10.0
  9
$CHAMFERB
 40
10.0
  9
$CHAMFERC
 40
20.0
  9
$CHAMFERD
 40
0.0
  9
$SKPOLY
 70
     0
  9
$TDCREATE
 40
2457941.767207674
  9
$TDUCREATE
 40
2457941.392207674
  9
$TDUPDATE
 40
2457941.767207859
  9
$TDUUPDATE
 40
2457941.392207859
  9
$TDINDWG
 40
0.0000000116
  9
$TDUSRTIMER
 40
0.0000000116
  9
$USRTIMER
 70
     1
  9
$ANGBASE
 50
0.0
  9
$ANGDIR
 70
     0
  9
$PDMODE
 70
     0
  9
$PDSIZE
 40
0.0
  9
$PLINEWID
 40
0.0
  9
$SPLFRAME
 70
     0
  9
$SPLINETYPE
 70
     6
  9
$SPLINESEGS
 70
     8
  9
$HANDSEED
  5
1D4
  9
$SURFTAB1
 70
     6
  9
$SURFTAB2
 70
     6
  9
$SURFTYPE
 70
     6
  9
$SURFU
 70
     6
  9
$SURFV
 70
     6
  9
$UCSBASE
  2

  9
$UCSNAME
  2

  9
$UCSORG
 10
0.0
 20
0.0
 30
0.0
  9
$UCSXDIR
 10
1.0
 20
0.0
 30
0.0
  9
$UCSYDIR
 10
0.0
 20
1.0
 30
0.0
  9
$UCSORTHOREF
  2

  9
$UCSORTHOVIEW
 70
     0
  9
$UCSORGTOP
 10
0.0
 20
0.0
 30
0.0
  9
$UCSORGBOTTOM
 10
0.0
 20
0.0
 30
0.0
  9
$UCSORGLEFT
 10
0.0
 20
0.0
 30
0.0
  9
$UCSORGRIGHT
 10
0.0
 20
0.0
 30
0.0
  9
$UCSORGFRONT
 10
0.0
 20
0.0
 30
0.0
  9
$UCSORGBACK
 10
0.0
 20
0.0
 30
0.0
  9
$PUCSBASE
  2

  9
$PUCSNAME
  2

  9
$PUCSORG
 10
0.0
 20
0.0
 30
0.0
  9
$PUCSXDIR
 10
1.0
 20
0.0
 30
0.0
  9
$PUCSYDIR
 10
0.0
 20
1.0
 30
0.0
  9
$PUCSORTHOREF
  2

  9
$PUCSORTHOVIEW
 70
     0
  9
$PUCSORGTOP
 10
0.0
 20
0.0
 30
0.0
  9
$PUCSORGBOTTOM
 10
0.0
 20
0.0
 30
0.0
  9
$PUCSORGLEFT
 10
0.0
 20
0.0
 30
0.0
  9
$PUCSORGRIGHT
 10
0.0
 20
0.0
 30
0.0
  9
$PUCSORGFRONT
 10
0.0
 20
0.0
 30
0.0
  9
$PUCSORGBACK
 10
0.0
 20
0.0
 30
0.0
  9
$USERI1
 70
     0
  9
$USERI2
 70
     0
  9
$USERI3
 70
     0
  9
$USERI4
 70
     0
  9
$USERI5
 70
     0
  9
$USERR1
 40
0.0
  9
$USERR2
 40
0.0
  9
$USERR3
 40
0.0
  9
$USERR4
 40
0.0
  9
$USERR5
 40
0.0
  9
$WORLDVIEW
 70
     1
  9
$SHADEDGE
 70
     3
  9
$SHADEDIF
 70
    70
  9
$TILEMODE
 70
     1
  9
$MAXACTVP
 70
    64
  9
$PINSBASE
 10
0.0
 20
0.0
 30
0.0
  9
$PLIMCHECK
 70
     0
  9
$PEXTMIN
 10
1.000000000000000E+20
 20
1.000000000000000E+20
 30
1.000000000000000E+20
  9
$PEXTMAX
 10
-1.000000000000000E+20
 20
-1.000000000000000E+20
 30
-1.000000000000000E+20
  9
$PLIMMIN
 10
0.0
 20
0.0
  9
$PLIMMAX
 10
420.0
 20
297.0
  9
$UNITMODE
 70
     0
  9
$VISRETAIN
 70
     1
  9
$PLINEGEN
 70
     0
  9
$PSLTSCALE
 70
     0
  9
$TREEDEPTH
 70
  3020
  9
$CMLSTYLE
  2
Standard
  9
$CMLJUST
 70
     0
  9
$CMLSCALE
 40
20.0
  9
$PROXYGRAPHICS
 70
     1
  9
$MEASUREMENT
 70
     1
  9
$CELWEIGHT
370
    -1
  9
$ENDCAPS
280
     0
  9
$JOINSTYLE
280
     0
  9
$LWDISPLAY
290
     0
  9
$INSUNITS
 70
     4
  9
$HYPERLINKBASE
  1

  9
$STYLESHEET
  1

  9
$XEDIT
290
     1
  9
$CEPSNTYPE
380
     0
  9
$PSTYLEMODE
290
     1
  9
$FINGERPRINTGUID
  2
{034289C4-89CC-4EBB-98C1-5052D988E24F}
  9
$VERSIONGUID
  2
{FAEB1C32-E019-11D5-929B-00C0DF256EC4}
  9
$EXTNAMES
290
     1
  9
$PSVPSCALE
 40
0.0
  9
$OLESTARTUP
290
     0
  0
ENDSEC
  0
SECTION
  2
CLASSES
  0
CLASS
  1
ACDBDICTIONARYWDFLT
  2
AcDbDictionaryWithDefault
  3
ObjectDBX Classes
 90
        0
280
     0
281
     0
  0
CLASS
  1
VISUALSTYLE
  2
AcDbVisualStyle
  3
ObjectDBX Classes
 90
     4095
280
     0
281
     0
  0
CLASS
  1
MATERIAL
  2
AcDbMaterial
  3
ObjectDBX Classes
 90
     1153
280
     0
281
     0
  0
CLASS
  1
SCALE
  2
AcDbScale
  3
ObjectDBX Classes
 90
     1153
280
     0
281
     0
  0
CLASS
  1
DICTIONARYVAR
  2
AcDbDictionaryVar
  3
ObjectDBX Classes
 90
        0
280
     0
281
     0
  0
CLASS
  1
ACDBPLACEHOLDER
  2
AcDbPlaceHolder
  3
ObjectDBX Classes
 90
        0
280
     0
281
     0
  0
CLASS
  1
LAYOUT
  2
AcDbLayout
  3
ObjectDBX Classes
 90
        0
280
     0
281
     0
  0
ENDSEC
  0
SECTION
  2
TABLES
  0
TABLE
  2
VPORT
  5
8
330
0
100
AcDbSymbolTable
 70
     1
  0
VPORT
  5
29
330
8
100
AcDbSymbolTableRecord
100
AcDbViewportTableRecord
  2
*Active
 70
     0
 10
0.0
 20
0.0
 11
1.0
 21
1.0
 12
208.3741447023356
 22
150.6658808609304
 13
0.0
 23
0.0
 14
10.0
 24
10.0
 15
10.0
 25
10.0
 16
0.0
 26
0.0
 36
1.0
 17
0.0
 27
0.0
 37
0.0
 40
269.9826612411463
 41
1.333333333333333
 42
50.0
 43
0.0
 44
0.0
 50
0.0
 51
0.0
 71
     0
 72
 20000
 73
     1
 74
     3
 75
     0
 76
     0
 77
     0
 78
     0
281
     0
 65
     1
110
0.0
120
0.0
130
0.0
111
1.0
121
0.0
131
0.0
112
0.0
122
1.0
132
0.0
 79
     0
146
0.0
  0
ENDTAB
  0
TABLE
  2
LTYPE
  5
5
330
0
100
AcDbSymbolTable
 70
     7
  0
LTYPE
  5
14
330
5
100
AcDbSymbolTableRecord
100
AcDbLinetypeTableRecord
  2
ByBlock
 70
     0
  3

 72
    65
 73
     0
 40
0.0
  0
LTYPE
  5
15
330
5
100
AcDbSymbolTableRecord
100
AcDbLinetypeTableRecord
  2
ByLayer
 70
     0
  3

 72
    65
 73
     0
 40
0.0
  0
LTYPE
  5
16
330
5
100
AcDbSymbolTableRecord
100
AcDbLinetypeTableRecord
  2
Continuous
 70
     0
  3
Solid line
 72
    65
 73
     0
 40
0.0
  0
LTYPE
  5
40
330
5
100
AcDbSymbolTableRecord
100
AcDbLinetypeTableRecord
  2
DASHED
 70
     0
  3
ICAD/SX(2) Dashed __ __ __ __ __ __ __ __ __ __ __ __ __ _
 72
    65
 73
     2
 40
19.05
 49
12.7
 74
     0
 49
-6.35
 74
     0
  0
LTYPE
  5
41
330
5
100
AcDbSymbolTableRecord
100
AcDbLinetypeTableRecord
  2
CENTER
 70
     0
  3
ICAD/SX(3) Center ____ _ ____ _ ____ _ ____ _ ____ _ ____
 72
    65
 73
     4
 40
50.8
 49
31.75
 74
     0
 49
-6.35
 74
     0
 49
6.35
 74
     0
 49
-6.35
 74
     0
  0
LTYPE
  5
42
330
5
100
AcDbSymbolTableRecord
100
AcDbLinetypeTableRecord
  2
PHANTOM
 70
     0
  3
ICAD/SX(4) Phantom ______  __  __  ______  __  __  ______
 72
    65
 73
     6
 40
63.5
 49
31.75
 74
     0
 49
-6.35
 74
     0
 49
6.35
 74
     0
 49
-6.35
 74
     0
 49
6.35
 74
     0
 49
-6.35
 74
     0
  0
LTYPE
  5
43
330
5
100
AcDbSymbolTableRecord
100
AcDbLinetypeTableRecord
  2
DOT
 70
     0
  3
ICAD/SX(5) Dot . . . . . . . . . . . . . . . . . . . . . . . .
 72
    65
 73
     2
 40
6.35
 49
0.0
 74
     0
 49
-6.35
 74
     0
  0
LTYPE
  5
44
330
5
100
AcDbSymbolTableRecord
100
AcDbLinetypeTableRecord
  2
HIDDEN
 70
     0
  3
ICAD/SX(6) Hidden __ __ __ __ __ __ __ __ __ __ __ __ __ __
 72
    65
 73
     2
 40
9.525
 49
6.35
 74
     0
 49
-3.175
 74
     0
  0
LTYPE
  5
45
330
5
100
AcDbSymbolTableRecord
100
AcDbLinetypeTableRecord
  2
DOTSX
 70
     0
  3
ICAD/SX(5) Dot . . . . . . . . . . . . . . . . . . . . . . . .
 72
    65
 73
     2
 40
6.35
 49
3.175
 74
     0
 49
-3.175
 74
     0
  0
ENDTAB
  0
TABLE
  2
LAYER
  5
2
330
0
100
AcDbSymbolTable
 70
     5
  0
LAYER
  5
10
330
2
100
AcDbSymbolTableRecord
100
AcDbLayerTableRecord
  2
0
 70
     0
 62
     7
  6
Continuous
370
    -3
390
F
  0
LAYER
  5
46
330
2
100
AcDbSymbolTableRecord
100
AcDbLayerTableRecord
  2
NoLayerName_001
 70
     0
 62
     7
  6
Continuous
370
    -3
390
F
  0
LAYER
  5
47
330
2
100
AcDbSymbolTableRecord
100
AcDbLayerTableRecord
  2
NoLayerName_002
 70
     0
 62
     7
  6
Continuous
370
    -3
390
F
  0
LAYER
  5
48
330
2
100
AcDbSymbolTableRecord
100
AcDbLayerTableRecord
  2
Defpoints
 70
     0
 62
     7
  6
Continuous
290
     0
370
    -3
390
F
  0
LAYER
  5
49
330
2
100
AcDbSymbolTableRecord
100
AcDbLayerTableRecord
  2
SX_DraftLine
 70
     0
 62
     7
  6
Continuous
370
    -3
390
F
  0
ENDTAB
  0
TABLE
  2
STYLE
  5
3
330
0
100
AcDbSymbolTable
 70
     2
  0
STYLE
  5
11
330
3
100
AcDbSymbolTableRecord
100
AcDbTextStyleTableRecord
  2
Standard
 70
     0
 40
0.0
 41
1.0
 50
0.0
 71
     0
 42
2.5
  3
txt
  4
extfont2
  0
STYLE
  5
3F
330
3
100
AcDbSymbolTableRecord
100
AcDbTextStyleTableRecord
  2

 70
     1
 40
0.0
 41
1.0
 50
0.0
 71
     0
 42
2.5
  3
ltypeshp.shx
  4

  0
ENDTAB
  0
TABLE
  2
VIEW
  5
6
330
0
100
AcDbSymbolTable
 70
     0
  0
ENDTAB
  0
TABLE
  2
UCS
  5
7
330
0
100
AcDbSymbolTable
 70
     0
  0
ENDTAB
  0
TABLE
  2
APPID
  5
9
330
0
100
AcDbSymbolTable
 70
     1
  0
APPID
  5
12
330
9
100
AcDbSymbolTableRecord
100
AcDbRegAppTableRecord
  2
ACAD
 70
     0
  0
ENDTAB
  0
TABLE
  2
DIMSTYLE
  5
A
330
0
100
AcDbSymbolTable
 70
     1
100
AcDbDimStyleTable
  0
DIMSTYLE
105
27
330
A
100
AcDbSymbolTableRecord
100
AcDbDimStyleTableRecord
  2
Standard
 70
     0
 41
2.5
 42
0.625
 43
3.75
 44
1.25
 73
     0
 74
     0
 77
     1
140
2.5
141
2.5
143
0.03937007874016
146
0.75
147
0.625
171
     3
172
     1
178
     0
271
     2
272
     2
274
     3
283
     0
284
     8
340
11
  0
ENDTAB
  0
TABLE
  2
BLOCK_RECORD
  5
1
330
0
100
AcDbSymbolTable
 70
     1
  0
BLOCK_RECORD
  5
1F
330
1
100
AcDbSymbolTableRecord
100
AcDbBlockTableRecord
  2
*Model_Space
340
22
  0
BLOCK_RECORD
  5
1B
330
1
100
AcDbSymbolTableRecord
100
AcDbBlockTableRecord
  2
*Paper_Space
340
1E
  0
BLOCK_RECORD
  5
23
330
1
100
AcDbSymbolTableRecord
100
AcDbBlockTableRecord
  2
*Paper_Space0
340
0
  0
ENDTAB
  0
ENDSEC
  0
SECTION
  2
BLOCKS
  0
BLOCK
  5
20
330
1F
100
AcDbEntity
  8
0
100
AcDbBlockBegin
  2
*Model_Space
 70
     0
 10
0.0
 20
0.0
 30
0.0
  3
*Model_Space
  1

  0
ENDBLK
  5
21
330
1F
100
AcDbEntity
  8
0
100
AcDbBlockEnd
  0
BLOCK
  5
1C
330
1B
100
AcDbEntity
 67
     1
  8
0
100
AcDbBlockBegin
  2
*Paper_Space
 70
     0
 10
0.0
 20
0.0
 30
0.0
  3
*Paper_Space
  1

  0
ENDBLK
  5
1D
330
1B
100
AcDbEntity
 67
     1
  8
0
100
AcDbBlockEnd
  0
BLOCK
  5
24
330
23
100
AcDbEntity
  8
0
100
AcDbBlockBegin
  2
*Paper_Space0
 70
     0
 10
0.0
 20
0.0
 30
0.0
  3
*Paper_Space0
  1

  0
ENDBLK
  5
25
330
23
100
AcDbEntity
  8
0
100
AcDbBlockEnd
  0
ENDSEC
  0
SECTION
  2
ENTITIES
  0
LINE
  5
4A
330
1F
100
AcDbEntity
  8
NoLayerName_002
  6
Continuous
 62
     7
370
   100
100
AcDbLine
 10
372.0
 20
80.0
 30
0.0
 11
372.0
 21
40.0
 31
0.0
  0
LINE
  5
4B
330
1F
100
AcDbEntity
  8
NoLayerName_002
  6
Continuous
 62
     7
370
    25
100
AcDbLine
 10
253.0
 20
54.0
 30
0.0
 11
372.0
 21
54.0
 31
0.0
  0
LINE
  5
4C
330
1F
100
AcDbEntity
  8
NoLayerName_002
  6
Continuous
 62
     7
370
    25
100
AcDbLine
 10
275.0
 20
80.0
 30
0.0
 11
275.0
 21
40.0
 31
0.0
  0
LINE
  5
4D
330
1F
100
AcDbEntity
  8
NoLayerName_002
  6
Continuous
 62
     7
370
   100
100
AcDbLine
 10
253.0
 20
80.0
 30
0.0
 11
253.0
 21
40.0
 31
0.0
  0
LINE
  5
4E
330
1F
100
AcDbEntity
  8
NoLayerName_002
  6
Continuous
 62
     7
370
   100
100
AcDbLine
 10
372.0
 20
80.0
 30
0.0
 11
253.0
 21
80.0
 31
0.0
  0
LINE
  5
4F
330
1F
100
AcDbEntity
  8
NoLayerName_002
  6
Continuous
 62
     7
370
   100
100
AcDbLine
 10
253.0
 20
40.0
 30
0.0
 11
372.0
 21
40.0
 31
0.0
  0
MTEXT
  5
50
330
1F
100
AcDbEntity
  8
NoLayerName_002
 62
     7
370
    50
100
AcDbMText
 10
255.2960004806519
 20
63.79999995231628
 30
0.0
 40
4.413793169218918
 41
0.0
 71
     7
 72
     5
  1
\fＭＳ Ｐゴシック|b0|c128|p50;\A1;品　名
 73
     1
 44
1.299389002163688
1001
ACAD
1000
ACAD_MTEXT_DEFINED_HEIGHT_BEGIN
1070
    46
1040
6.400000095367432
1000
ACAD_MTEXT_DEFINED_HEIGHT_END
  0
MTEXT
  5
51
330
1F
100
AcDbEntity
  8
NoLayerName_002
 62
     7
370
    50
100
AcDbMText
 10
255.2960004806519
 20
43.79999995231628
 30
0.0
 40
4.413793169218918
 41
0.0
 71
     7
 72
     5
  1
\fＭＳ Ｐゴシック|b0|c128|p50;\A1;品　番
 73
     1
 44
1.299389002163688
1001
ACAD
1000
ACAD_MTEXT_DEFINED_HEIGHT_BEGIN
1070
    46
1040
6.400000095367432
1000
ACAD_MTEXT_DEFINED_HEIGHT_END
  0
LINE
  5
52
330
1F
100
AcDbEntity
  8
0
  6
Continuous
 62
    30
370
    50
100
AcDbLine
 10
112.01811877099
 20
88.77965477493267
 30
0.0
 11
105.0181187709898
 21
88.77965477493267
 31
0.0
  0
LINE
  5
53
330
1F
100
AcDbEntity
  8
0
  6
Continuous
 62
    30
370
    50
100
AcDbLine
 10
112.01811877099
 20
96.77965477493267
 30
0.0
 11
112.01811877099
 21
88.77965477493267
 31
0.0
  0
LINE
  5
54
330
1F
100
AcDbEntity
  8
0
  6
Continuous
 62
    30
370
    50
100
AcDbLine
 10
112.0181235263483
 20
94.77965477493267
 30
0.0
 11
155.0181211486691
 21
94.77965477493267
 31
0.0
  0
LINE
  5
55
330
1F
100
AcDbEntity
  8
0
  6
Continuous
 62
    30
370
    50
100
AcDbLine
 10
112.0181235263483
 20
96.77965477493267
 30
0.0
 11
168.0181211486691
 21
96.77965477493267
 31
0.0
  0
LINE
  5
56
330
1F
100
AcDbEntity
  8
0
  6
Continuous
 62
    30
370
    50
100
AcDbLine
 10
120.5181210537102
 20
101.2796547749327
 30
0.0
 11
120.5181210537102
 21
96.77965477493267
 31
0.0
  0
LINE
  5
57
330
1F
100
AcDbEntity
  8
0
  6
Continuous
 62
    30
370
    50
100
AcDbLine
 10
147.9345145873138
 20
101.2796547749327
 30
0.0
 11
147.9345145873138
 21
96.77965477493267
 31
0.0
  0
LINE
  5
58
330
1F
100
AcDbEntity
  8
0
  6
Continuous
 62
    30
370
    50
100
AcDbLine
 10
168.0181211486692
 20
101.2796547749327
 30
0.0
 11
49.01812114866902
 21
101.2796547749327
 31
0.0
  0
LINE
  5
59
330
1F
100
AcDbEntity
  8
0
  6
Continuous
 62
    30
370
    50
100
AcDbLine
 10
151.1007150772054
 20
101.2796547749327
 30
0.0
 11
151.1007150772054
 21
104.2796547749327
 31
0.0
  0
LINE
  5
5A
330
1F
100
AcDbEntity
  8
0
  6
Continuous
 62
    30
370
    50
100
AcDbLine
 10
154.7007150772054
 20
101.2796547749327
 30
0.0
 11
154.7007150772054
 21
104.2796547749327
 31
0.0
  0
LINE
  5
5B
330
1F
100
AcDbEntity
  8
0
  6
Continuous
 62
    30
370
    50
100
AcDbLine
 10
154.7007150772054
 20
104.2796547749327
 30
0.0
 11
152.9007150772054
 21
104.2796547749327
 31
0.0
  0
LINE
  5
5C
330
1F
100
AcDbEntity
  8
0
  6
Continuous
 62
    30
370
    50
100
AcDbLine
 10
151.1007150772054
 20
104.2796547749327
 30
0.0
 11
152.9007150772054
 21
104.2796547749327
 31
0.0
  0
LINE
  5
5D
330
1F
100
AcDbEntity
  8
0
  6
Continuous
 62
    30
370
    50
100
AcDbLine
 10
155.0181211486691
 20
96.77965477493267
 30
0.0
 11
155.0181211486691
 21
94.77965477493267
 31
0.0
  0
LINE
  5
5E
330
1F
100
AcDbEntity
  8
0
  6
Continuous
 62
    30
370
    50
100
AcDbLine
 10
159.2907566202909
 20
101.2796547749327
 30
0.0
 11
159.2907566202909
 21
96.77965477493267
 31
0.0
  0
LINE
  5
5F
330
1F
100
AcDbEntity
  8
0
  6
Continuous
 62
    30
370
    50
100
AcDbLine
 10
164.0181211486692
 20
96.7796547749329
 30
0.0
 11
164.0181211486692
 21
92.77965477493278
 31
0.0
  0
LINE
  5
60
330
1F
100
AcDbEntity
  8
0
  6
Continuous
 62
    30
370
    50
100
AcDbLine
 10
168.0181211486692
 20
101.2796547749327
 30
0.0
 11
168.0181211486692
 21
88.77965477493323
 31
0.0
  0
LINE
  5
61
330
1F
100
AcDbEntity
  8
0
  6
Continuous
 62
    30
370
    50
100
AcDbLine
 10
161.0181211486689
 20
88.77965477493335
 30
0.0
 11
168.0181211486692
 21
88.77965477493335
 31
0.0
  0
LINE
  5
62
330
1F
100
AcDbEntity
  8
0
  6
Continuous
 62
    30
370
    50
100
AcDbLine
 10
161.0181211486687
 20
92.7796547749329
 30
0.0
 11
161.0181211486687
 21
88.77965477493323
 31
0.0
  0
LINE
  5
63
330
1F
100
AcDbEntity
  8
0
  6
Continuous
 62
    30
370
    50
100
AcDbLine
 10
164.0181211486692
 20
92.7796547749329
 30
0.0
 11
161.0181211486686
 21
92.7796547749329
 31
0.0
  0
LINE
  5
64
330
1F
100
AcDbEntity
  8
0
  6
Continuous
 62
    30
370
    50
100
AcDbLine
 10
105.0181187709898
 20
94.77965477493267
 30
0.0
 11
62.01812114866908
 21
94.77965477493267
 31
0.0
  0
LINE
  5
65
330
1F
100
AcDbEntity
  8
0
  6
Continuous
 62
    30
370
    50
100
AcDbLine
 10
105.0181187709898
 20
96.7796547749329
 30
0.0
 11
105.0181187709898
 21
88.77965477493257
 31
0.0
  0
LINE
  5
66
330
1F
100
AcDbEntity
  8
0
  6
Continuous
 62
    30
370
    50
100
AcDbLine
 10
105.0181187709898
 20
96.77965477493267
 30
0.0
 11
49.01812114866907
 21
96.77965477493267
 31
0.0
  0
LINE
  5
67
330
1F
100
AcDbEntity
  8
0
  6
Continuous
 62
    30
370
    50
100
AcDbLine
 10
96.51812105371022
 20
101.2796547749327
 30
0.0
 11
96.51812105371022
 21
96.77965477493267
 31
0.0
  0
LINE
  5
68
330
1F
100
AcDbEntity
  8
0
  6
Continuous
 62
    30
370
    50
100
AcDbLine
 10
62.01812114866908
 20
96.77965477493267
 30
0.0
 11
62.01812114866908
 21
94.77965477493267
 31
0.0
  0
LINE
  5
69
330
1F
100
AcDbEntity
  8
0
  6
Continuous
 62
    30
370
    50
100
AcDbLine
 10
57.74548548712954
 20
96.77965477493267
 30
0.0
 11
57.74548548712954
 21
101.2796547749327
 31
0.0
  0
LINE
  5
6A
330
1F
100
AcDbEntity
  8
0
  6
Continuous
 62
    30
370
    50
100
AcDbLine
 10
69.10172771002436
 20
101.2796547749327
 30
0.0
 11
69.10172771002436
 21
96.77965477493267
 31
0.0
  0
LINE
  5
6B
330
1F
100
AcDbEntity
  8
0
  6
Continuous
 62
    30
370
    50
100
AcDbLine
 10
53.01812114866897
 20
96.7796547749329
 30
0.0
 11
53.01812114866897
 21
92.77965477493278
 31
0.0
  0
LINE
  5
6C
330
1F
100
AcDbEntity
  8
0
  6
Continuous
 62
    30
370
    50
100
AcDbLine
 10
53.01812114866885
 20
92.7796547749329
 30
0.0
 11
56.01812114866942
 21
92.7796547749329
 31
0.0
  0
LINE
  5
6D
330
1F
100
AcDbEntity
  8
0
  6
Continuous
 62
    30
370
    50
100
AcDbLine
 10
56.01812114866931
 20
92.7796547749329
 30
0.0
 11
56.01812114866931
 21
88.77965477493323
 31
0.0
  0
LINE
  5
6E
330
1F
100
AcDbEntity
  8
0
  6
Continuous
 62
    30
370
    50
100
AcDbLine
 10
56.01812114866931
 20
88.77965477493335
 30
0.0
 11
49.01812114866897
 21
88.77965477493335
 31
0.0
  0
LINE
  5
6F
330
1F
100
AcDbEntity
  8
0
  6
Continuous
 62
    30
370
    50
100
AcDbLine
 10
49.01812114866897
 20
101.2796547749327
 30
0.0
 11
49.01812114866895
 21
88.77965477493323
 31
0.0
  0
LINE
  5
70
330
1F
100
AcDbEntity
  8
0
  6
Continuous
 62
    30
370
    50
100
AcDbLine
 10
62.33552722013275
 20
101.2796547749327
 30
0.0
 11
62.33552722013275
 21
104.2796547749327
 31
0.0
  0
LINE
  5
71
330
1F
100
AcDbEntity
  8
0
  6
Continuous
 62
    30
370
    50
100
AcDbLine
 10
62.33552722013275
 20
104.2796547749327
 30
0.0
 11
64.13552722013276
 21
104.2796547749327
 31
0.0
  0
LINE
  5
72
330
1F
100
AcDbEntity
  8
0
  6
Continuous
 62
    30
370
    50
100
AcDbLine
 10
65.93552722013277
 20
101.2796547749327
 30
0.0
 11
65.93552722013277
 21
104.2796547749327
 31
0.0
  0
LINE
  5
73
330
1F
100
AcDbEntity
  8
0
  6
Continuous
 62
    30
370
    50
100
AcDbLine
 10
65.93552722013277
 20
104.2796547749327
 30
0.0
 11
64.13552722013276
 21
104.2796547749327
 31
0.0
  0
CIRCLE
  5
74
330
1F
100
AcDbEntity
  8
0
  6
Continuous
 62
    30
370
    50
100
AcDbCircle
 10
121.9531498962545
 20
207.9304125121321
 30
0.0
 40
3.0
  0
CIRCLE
  5
75
330
1F
100
AcDbEntity
  8
0
  6
Continuous
 62
    30
370
    50
100
AcDbCircle
 10
121.9531498962545
 20
207.9304125121321
 30
0.0
 40
2.0
  0
CIRCLE
  5
76
330
1F
100
AcDbEntity
  8
0
  6
Continuous
 62
    30
370
    50
100
AcDbCircle
 10
95.08309221116582
 20
181.0603548270431
 30
0.0
 40
2.0
  0
CIRCLE
  5
77
330
1F
100
AcDbEntity
  8
0
  6
Continuous
 62
    30
370
    50
100
AcDbCircle
 10
95.08309221116582
 20
181.0603548270431
 30
0.0
 40
3.0
  0
LINE
  5
78
330
1F
100
AcDbEntity
  8
0
  6
Continuous
 62
    30
370
    50
100
AcDbLine
 10
70.24977781720139
 20
154.6034521326403
 30
0.0
 11
96.51812105371013
 21
143.7227481030068
 31
0.0
  0
LINE
  5
79
330
1F
100
AcDbEntity
  8
0
  6
Continuous
 62
    30
370
    50
100
AcDbLine
 10
99.7160248590672
 20
136.7454274680381
 30
0.0
 11
96.51812105371026
 21
143.7227481030072
 31
0.0
  0
ARC
  5
7A
330
1F
100
AcDbEntity
  8
0
  6
Continuous
 62
    30
370
    50
100
AcDbCircle
 10
114.5930176248469
 20
137.9953803525694
 30
0.0
 40
3.0
100
AcDbArc
 50
270.0
 51
335.3766715013744
  0
LINE
  5
7B
330
1F
100
AcDbEntity
  8
0
  6
Continuous
 62
    30
370
    50
100
AcDbLine
 10
117.320217248353
 20
136.7454274680381
 30
0.0
 11
120.5181210537102
 21
143.7227481030072
 31
0.0
  0
LINE
  5
7C
330
1F
100
AcDbEntity
  8
0
  6
Continuous
 62
    30
370
    50
100
AcDbLine
 10
102.4432244825733
 20
134.9953803525694
 30
0.0
 11
114.5930176248467
 21
134.9953803525694
 31
0.0
  0
ARC
  5
7D
330
1F
100
AcDbEntity
  8
0
  6
Continuous
 62
    30
370
    50
100
AcDbCircle
 10
102.4432244825735
 20
137.9953803525694
 30
0.0
 40
3.0
100
AcDbArc
 50
204.623328498624
 51
270.0000000000001
  0
LINE
  5
7E
330
1F
100
AcDbEntity
  8
0
  6
Continuous
 62
    30
370
    50
100
AcDbLine
 10
105.0181210537101
 20
138.9953803525691
 30
0.0
 11
105.0181210537101
 21
141.9953803525695
 31
0.0
  0
LINE
  5
7F
330
1F
100
AcDbEntity
  8
0
  6
Continuous
 62
    30
370
    50
100
AcDbLine
 10
103.5181210537101
 20
142.4953803525694
 30
0.0
 11
103.5181210537101
 21
138.995380352569
 31
0.0
  0
LINE
  5
80
330
1F
100
AcDbEntity
  8
0
  6
Continuous
 62
    30
370
    50
100
AcDbLine
 10
103.5181210537101
 20
142.4953803525694
 30
0.0
 11
113.5181210537102
 21
142.4953803525694
 31
0.0
  0
LINE
  5
81
330
1F
100
AcDbEntity
  8
0
  6
Continuous
 62
    30
370
    50
100
AcDbLine
 10
111.5181210537103
 20
141.9953803525694
 30
0.0
 11
105.0181210537105
 21
141.9953803525694
 31
0.0
  0
LINE
  5
82
330
1F
100
AcDbEntity
  8
0
  6
Continuous
 62
    30
370
    50
100
AcDbLine
 10
103.5181210537101
 20
138.9953803525691
 30
0.0
 11
113.5181210537103
 21
138.9953803525691
 31
0.0
  0
ARC
  5
83
330
1F
100
AcDbEntity
  8
0
  6
Continuous
 62
    30
370
    50
100
AcDbCircle
 10
111.5181210537103
 20
141.4953803525694
 30
0.0
 40
0.5
100
AcDbArc
 50
0.0
 51
89.99999999999999
  0
LINE
  5
84
330
1F
100
AcDbEntity
  8
0
  6
Continuous
 62
    30
370
    50
100
AcDbLine
 10
112.0181210537103
 20
141.4953803525694
 30
0.0
 11
112.0181210537103
 21
138.9953803525691
 31
0.0
  0
LINE
  5
85
330
1F
100
AcDbEntity
  8
0
  6
Continuous
 62
    30
370
    50
100
AcDbLine
 10
113.5181210537101
 20
138.9953803525689
 30
0.0
 11
113.5181210537101
 21
142.4953803525692
 31
0.0
  0
LINE
  5
86
330
1F
100
AcDbEntity
  8
0
  6
Continuous
 62
    30
370
    50
100
AcDbLine
 10
146.7864642902187
 20
154.6034521326403
 30
0.0
 11
120.5181210537102
 21
143.7227481030071
 31
0.0
  0
LINE
  5
87
330
1F
100
AcDbEntity
  8
0
  6
Continuous
 62
    30
370
    50
100
AcDbLine
 10
148.4100525906572
 20
156.2270404330787
 30
0.0
 11
159.2907566202908
 21
182.4953836695874
 31
0.0
  0
ARC
  5
88
330
1F
100
AcDbEntity
  8
0
  6
Continuous
 62
    30
370
    50
100
AcDbCircle
 10
145.6384139931237
 20
157.3750907301744
 30
0.0
 40
3.0
100
AcDbArc
 50
292.4999999999998
 51
337.4999999999998
  0
LINE
  5
89
330
1F
100
AcDbEntity
  8
0
  6
Continuous
 62
    30
370
    50
100
AcDbLine
 10
168.0181243707282
 20
188.4204870984506
 30
0.0
 11
168.0181243707282
 21
200.5702802407241
 31
0.0
  0
ARC
  5
8A
330
1F
100
AcDbEntity
  8
0
  6
Continuous
 62
    30
370
    50
100
AcDbCircle
 10
165.0181243707282
 20
188.4204870984509
 30
0.0
 40
3.0
100
AcDbArc
 50
294.623328498624
 51
0.0000000000001018
  0
LINE
  5
8B
330
1F
100
AcDbEntity
  8
0
  6
Continuous
 62
    30
370
    50
100
AcDbLine
 10
166.2680772552595
 20
185.6932874749446
 30
0.0
 11
159.2907566202904
 21
182.4953836695877
 31
0.0
  0
LINE
  5
8C
330
1F
100
AcDbEntity
  8
0
  6
Continuous
 62
    30
370
    50
100
AcDbLine
 10
164.0181243707285
 20
189.4953836695875
 30
0.0
 11
164.0181243707285
 21
199.4953836695877
 31
0.0
  0
LINE
  5
8D
330
1F
100
AcDbEntity
  8
0
  6
Continuous
 62
    30
370
    50
100
AcDbLine
 10
161.5181243707282
 20
197.9953836695877
 30
0.0
 11
164.0181243707285
 21
197.9953836695877
 31
0.0
  0
LINE
  5
8E
330
1F
100
AcDbEntity
  8
0
  6
Continuous
 62
    30
370
    50
100
AcDbLine
 10
164.0181243707287
 20
199.4953836695875
 30
0.0
 11
160.5181243707283
 21
199.4953836695875
 31
0.0
  0
LINE
  5
8F
330
1F
100
AcDbEntity
  8
0
  6
Continuous
 62
    30
370
    50
100
AcDbLine
 10
160.5181243707282
 20
189.4953836695875
 30
0.0
 11
160.5181243707282
 21
199.4953836695876
 31
0.0
  0
ARC
  5
90
330
1F
100
AcDbEntity
  8
0
  6
Continuous
 62
    30
370
    50
100
AcDbCircle
 10
161.5181243707282
 20
197.4953836695877
 30
0.0
 40
0.5
100
AcDbArc
 50
89.99999999999997
 51
179.9999999999999
  0
LINE
  5
91
330
1F
100
AcDbEntity
  8
0
  6
Continuous
 62
    30
370
    50
100
AcDbLine
 10
161.0181243707282
 20
197.4953836695877
 30
0.0
 11
161.0181243707282
 21
190.9953836695879
 31
0.0
  0
LINE
  5
92
330
1F
100
AcDbEntity
  8
0
  6
Continuous
 62
    30
370
    50
100
AcDbLine
 10
164.0181243707285
 20
190.9953836695875
 30
0.0
 11
161.0181243707281
 21
190.9953836695875
 31
0.0
  0
LINE
  5
93
330
1F
100
AcDbEntity
  8
0
  6
Continuous
 62
    30
370
    50
100
AcDbLine
 10
160.5181243707282
 20
189.4953836695875
 30
0.0
 11
164.0181243707285
 21
189.4953836695875
 31
0.0
  0
ARC
  5
94
330
1F
100
AcDbEntity
  8
0
  6
Continuous
 62
    30
370
    50
100
AcDbCircle
 10
165.0181243707282
 20
200.5702802407243
 30
0.0
 40
3.0
100
AcDbArc
 50
0.0
 51
65.37667150137439
  0
LINE
  5
95
330
1F
100
AcDbEntity
  8
0
  6
Continuous
 62
    30
370
    50
100
AcDbLine
 10
166.2680772552595
 20
203.2974798642304
 30
0.0
 11
159.2907566202904
 21
206.4953836695875
 31
0.0
  0
LINE
  5
96
330
1F
100
AcDbEntity
  8
0
  6
Continuous
 62
    30
370
    50
100
AcDbLine
 10
148.4100525906572
 20
232.7637269060961
 30
0.0
 11
159.2907566202905
 21
206.4953836695875
 31
0.0
  0
CIRCLE
  5
97
330
1F
100
AcDbEntity
  8
0
  6
Continuous
 62
    30
370
    50
100
AcDbCircle
 10
152.9007148872876
 20
191.2650021745169
 30
0.0
 40
2.600000000000136
  0
CIRCLE
  5
98
330
1F
100
AcDbEntity
  8
0
  6
Continuous
 62
    30
370
    50
100
AcDbCircle
 10
152.9007148872876
 20
191.2650021745169
 30
0.0
 40
1.800000000000125
  0
CIRCLE
  5
99
330
1F
100
AcDbEntity
  8
0
  6
Continuous
 62
    30
370
    50
100
AcDbCircle
 10
152.9007148872876
 20
191.2650021745169
 30
0.0
 40
1.000000000000114
  0
LINE
  5
9A
330
1F
100
AcDbEntity
  8
0
  6
Continuous
 62
    30
370
    50
100
AcDbLine
 10
146.7864642902189
 20
234.3873152065346
 30
0.0
 11
120.5181210537102
 21
245.2680192361682
 31
0.0
  0
ARC
  5
9B
330
1F
100
AcDbEntity
  8
0
  6
Continuous
 62
    30
370
    50
100
AcDbCircle
 10
145.6384139931233
 20
231.615676609001
 30
0.0
 40
3.0
100
AcDbArc
 50
22.49999999999982
 51
67.49999999999982
  0
LINE
  5
9C
330
1F
100
AcDbEntity
  8
0
  6
Continuous
 62
    30
370
    50
100
AcDbLine
 10
113.5181210537101
 20
249.9953869866058
 30
0.0
 11
103.5181210537099
 21
249.9953869866058
 31
0.0
  0
LINE
  5
9D
330
1F
100
AcDbEntity
  8
0
  6
Continuous
 62
    30
370
    50
100
AcDbLine
 10
113.5181210537101
 20
246.4953869866056
 30
0.0
 11
113.5181210537101
 21
249.9953869866059
 31
0.0
  0
LINE
  5
9E
330
1F
100
AcDbEntity
  8
0
  6
Continuous
 62
    30
370
    50
100
AcDbLine
 10
114.5930176248469
 20
253.9953869866056
 30
0.0
 11
102.4432244825735
 21
253.9953869866056
 31
0.0
  0
ARC
  5
9F
330
1F
100
AcDbEntity
  8
0
  6
Continuous
 62
    30
370
    50
100
AcDbCircle
 10
114.5930176248467
 20
250.9953869866056
 30
0.0
 40
3.0
100
AcDbArc
 50
24.62332849862403
 51
90.0000000000001
  0
LINE
  5
A0
330
1F
100
AcDbEntity
  8
0
  6
Continuous
 62
    30
370
    50
100
AcDbLine
 10
117.320217248353
 20
252.2453398711368
 30
0.0
 11
120.5181210537099
 21
245.2680192361678
 31
0.0
  0
LINE
  5
A1
330
1F
100
AcDbEntity
  8
0
  6
Continuous
 62
    30
370
    50
100
AcDbLine
 10
112.0181210537101
 20
249.9953869866058
 30
0.0
 11
112.0181210537101
 21
246.9953869866055
 31
0.0
  0
LINE
  5
A2
330
1F
100
AcDbEntity
  8
0
  6
Continuous
 62
    30
370
    50
100
AcDbLine
 10
113.5181210537101
 20
246.4953869866056
 30
0.0
 11
103.51812105371
 21
246.4953869866056
 31
0.0
  0
LINE
  5
A3
330
1F
100
AcDbEntity
  8
0
  6
Continuous
 62
    30
370
    50
100
AcDbLine
 10
105.5181210537099
 20
246.9953869866056
 30
0.0
 11
112.0181210537097
 21
246.9953869866056
 31
0.0
  0
ARC
  5
A4
330
1F
100
AcDbEntity
  8
0
  6
Continuous
 62
    30
370
    50
100
AcDbCircle
 10
105.5181210537099
 20
247.4953869866056
 30
0.0
 40
0.5
100
AcDbArc
 50
180.0
 51
269.9999999999999
  0
LINE
  5
A5
330
1F
100
AcDbEntity
  8
0
  6
Continuous
 62
    30
370
    50
100
AcDbLine
 10
103.5181210537101
 20
249.9953869866061
 30
0.0
 11
103.5181210537101
 21
246.4953869866057
 31
0.0
  0
LINE
  5
A6
330
1F
100
AcDbEntity
  8
0
  6
Continuous
 62
    30
370
    50
100
AcDbLine
 10
105.0181210537099
 20
247.4953869866056
 30
0.0
 11
105.0181210537099
 21
249.9953869866058
 31
0.0
  0
ARC
  5
A7
330
1F
100
AcDbEntity
  8
0
  6
Continuous
 62
    30
370
    50
100
AcDbCircle
 10
102.4432244825733
 20
250.9953869866056
 30
0.0
 40
3.0
100
AcDbArc
 50
90.0
 51
155.3766715013744
  0
LINE
  5
A8
330
1F
100
AcDbEntity
  8
0
  6
Continuous
 62
    30
370
    50
100
AcDbLine
 10
99.7160248590672
 20
252.2453398711368
 30
0.0
 11
96.51812105371005
 21
245.2680192361678
 31
0.0
  0
LINE
  5
A9
330
1F
100
AcDbEntity
  8
0
  6
Continuous
 62
    30
370
    50
100
AcDbLine
 10
70.2497778172015
 20
234.3873152065346
 30
0.0
 11
96.51812105371003
 21
245.2680192361679
 31
0.0
  0
LINE
  5
AA
330
1F
100
AcDbEntity
  8
0
  6
Continuous
 62
    30
370
    50
100
AcDbLine
 10
68.62618951676296
 20
232.7637269060963
 30
0.0
 11
57.74548548712939
 21
206.4953836695876
 31
0.0
  0
ARC
  5
AB
330
1F
100
AcDbEntity
  8
0
  6
Continuous
 62
    30
370
    50
100
AcDbCircle
 10
71.39782811429671
 20
231.615676609001
 30
0.0
 40
3.0
100
AcDbArc
 50
112.4999999999998
 51
157.4999999999998
  0
LINE
  5
AC
330
1F
100
AcDbEntity
  8
0
  6
Continuous
 62
    30
370
    50
100
AcDbLine
 10
50.76816485216062
 20
203.2974798642304
 30
0.0
 11
57.74548548712968
 21
206.4953836695873
 31
0.0
  0
ARC
  5
AD
330
1F
100
AcDbEntity
  8
0
  6
Continuous
 62
    30
370
    50
100
AcDbCircle
 10
52.01811773669186
 20
200.5702802407241
 30
0.0
 40
3.0
100
AcDbArc
 50
114.623328498624
 51
180.0000000000001
  0
LINE
  5
AE
330
1F
100
AcDbEntity
  8
0
  6
Continuous
 62
    30
370
    50
100
AcDbLine
 10
49.01811773669186
 20
200.5702802407243
 30
0.0
 11
49.01811773669189
 21
188.4204870984509
 31
0.0
  0
ARC
  5
AF
330
1F
100
AcDbEntity
  8
0
  6
Continuous
 62
    30
370
    50
100
AcDbCircle
 10
52.01811773669186
 20
188.4204870984506
 30
0.0
 40
3.0
100
AcDbArc
 50
180.0000000000001
 51
245.3766715013745
  0
LINE
  5
B0
330
1F
100
AcDbEntity
  8
0
  6
Continuous
 62
    30
370
    50
100
AcDbLine
 10
50.76816485216074
 20
185.6932874749446
 30
0.0
 11
57.74548548712981
 21
182.4953836695874
 31
0.0
  0
LINE
  5
B1
330
1F
100
AcDbEntity
  8
0
  6
Continuous
 62
    30
370
    50
100
AcDbLine
 10
68.62618951676285
 20
156.2270404330789
 30
0.0
 11
57.74548548712956
 21
182.4953836695874
 31
0.0
  0
ARC
  5
B2
330
1F
100
AcDbEntity
  8
0
  6
Continuous
 62
    30
370
    50
100
AcDbCircle
 10
71.39782811429671
 20
157.3750907301742
 30
0.0
 40
3.0
100
AcDbArc
 50
202.4999999999998
 51
247.4999999999998
  0
LINE
  5
B3
330
1F
100
AcDbEntity
  8
0
  6
Continuous
 62
    30
370
    50
100
AcDbLine
 10
56.51811773669198
 20
199.4953836695875
 30
0.0
 11
53.01811773669167
 21
199.4953836695875
 31
0.0
  0
LINE
  5
B4
330
1F
100
AcDbEntity
  8
0
  6
Continuous
 62
    30
370
    50
100
AcDbLine
 10
53.01811773669164
 20
199.4953836695875
 30
0.0
 11
53.01811773669163
 21
189.4953836695873
 31
0.0
  0
LINE
  5
B5
330
1F
100
AcDbEntity
  8
0
  6
Continuous
 62
    30
370
    50
100
AcDbLine
 10
53.01811773669175
 20
197.9953836695875
 30
0.0
 11
56.01811773669209
 21
197.9953836695875
 31
0.0
  0
LINE
  5
B6
330
1F
100
AcDbEntity
  8
0
  6
Continuous
 62
    30
370
    50
100
AcDbLine
 10
56.01811773669209
 20
191.4953836695873
 30
0.0
 11
56.0181177366921
 21
197.9953836695871
 31
0.0
  0
LINE
  5
B7
330
1F
100
AcDbEntity
  8
0
  6
Continuous
 62
    30
370
    50
100
AcDbLine
 10
56.51811773669198
 20
199.4953836695875
 30
0.0
 11
56.51811773669197
 21
189.4953836695874
 31
0.0
  0
ARC
  5
B8
330
1F
100
AcDbEntity
  8
0
  6
Continuous
 62
    30
370
    50
100
AcDbCircle
 10
55.51811773669209
 20
191.4953836695873
 30
0.0
 40
0.5
100
AcDbArc
 50
270.0
 51
0.0
  0
LINE
  5
B9
330
1F
100
AcDbEntity
  8
0
  6
Continuous
 62
    30
370
    50
100
AcDbLine
 10
55.51811773669209
 20
190.9953836695873
 30
0.0
 11
53.01811773669169
 21
190.9953836695873
 31
0.0
  0
LINE
  5
BA
330
1F
100
AcDbEntity
  8
0
  6
Continuous
 62
    30
370
    50
100
AcDbLine
 10
53.01811773669164
 20
189.4953836695875
 30
0.0
 11
56.51811773669198
 21
189.4953836695875
 31
0.0
  0
CIRCLE
  5
BB
330
1F
100
AcDbEntity
  8
0
  6
Continuous
 62
    30
370
    50
100
AcDbCircle
 10
64.13552722013259
 20
197.725765164658
 30
0.0
 40
2.600000000000136
  0
CIRCLE
  5
BC
330
1F
100
AcDbEntity
  8
0
  6
Continuous
 62
    30
370
    50
100
AcDbCircle
 10
64.13552722013259
 20
197.725765164658
 30
0.0
 40
1.800000000000125
  0
CIRCLE
  5
BD
330
1F
100
AcDbEntity
  8
0
  6
Continuous
 62
    30
370
    50
100
AcDbCircle
 10
64.13552722013259
 20
197.725765164658
 30
0.0
 40
1.000000000000114
  0
LINE
  5
BE
330
1F
100
AcDbEntity
  8
0
  6
CENTER
 62
     2
370
    25
100
AcDbLine
 10
149.2871644848713
 20
191.2650021745169
 30
0.0
 11
156.5875742032352
 21
191.2650021745169
 31
0.0
  0
LINE
  5
BF
330
1F
100
AcDbEntity
  8
0
  6
CENTER
 62
     3
370
    25
100
AcDbLine
 10
98.47077554510673
 20
228.2886585945501
 30
0.0
 11
75.59755935962546
 21
205.4154424090689
 31
0.0
  0
LINE
  5
C0
330
1F
100
AcDbEntity
  8
0
  6
CENTER
 62
     2
370
    25
100
AcDbLine
 10
119.5736380322692
 20
210.3099243761169
 30
0.0
 11
124.4905668614091
 21
205.392995546977
 31
0.0
  0
LINE
  5
C1
330
1F
100
AcDbEntity
  8
0
  6
CENTER
 62
     2
370
    25
100
AcDbLine
 10
97.62856902427376
 20
178.5148780139353
 30
0.0
 11
92.66531803689688
 21
183.4781290013121
 31
0.0
  0
LINE
  5
C2
330
1F
100
AcDbEntity
  8
0
  6
CENTER
 62
     2
370
    25
100
AcDbLine
 10
148.158524996607
 20
193.2292815425856
 30
0.0
 11
159.9312024534889
 21
188.3528788745011
 31
0.0
  0
LINE
  5
C3
330
1F
100
AcDbEntity
  8
0
  6
CENTER
 62
     2
370
    25
100
AcDbLine
 10
60.31941262085837
 20
199.3064515872477
 30
0.0
 11
68.84407470246069
 21
195.7754209384004
 31
0.0
  0
LINE
  5
C4
330
1F
100
AcDbEntity
  8
0
  6
CENTER
 62
     3
370
    25
100
AcDbLine
 10
97.9178564219024
 20
205.0956483013954
 30
0.0
 11
74.01219247081943
 21
229.0013122524784
 31
0.0
  0
LINE
  5
C5
330
1F
100
AcDbEntity
  8
0
  6
CENTER
 62
     2
370
    25
100
AcDbLine
 10
118.6238950520184
 20
204.6011576678959
 30
0.0
 11
124.8041948289658
 21
210.7814574448433
 31
0.0
  0
LINE
  5
C6
330
1F
100
AcDbEntity
  8
0
  6
CENTER
 62
     2
370
    25
100
AcDbLine
 10
97.60126407437252
 20
183.5785266902497
 30
0.0
 11
89.48010349202451
 21
175.4573661079017
 31
0.0
  0
LINE
  5
C7
330
1F
100
AcDbEntity
  8
0
  6
CENTER
 62
     2
370
    25
100
AcDbLine
 10
64.1355272201327
 20
108.6456304427227
 30
0.0
 11
64.1355272201327
 21
91.56374752288075
 31
0.0
  0
LINE
  5
C8
330
1F
100
AcDbEntity
  8
0
  6
CENTER
 62
     2
370
    25
100
AcDbLine
 10
152.9007150772053
 20
108.6456304427227
 30
0.0
 11
152.9007150772053
 21
91.56374752288075
 31
0.0
  0
ARC
  5
C9
330
1F
100
AcDbEntity
  8
0
  6
CENTER
 62
     2
370
    25
100
AcDbCircle
 10
108.5181210537101
 20
194.4953836695875
 30
0.0
 40
44.50000000000009
100
AcDbArc
 50
167.0382080606015
 51
187.3503944052975
  0
LINE
  5
CA
330
1F
100
AcDbEntity
  8
0
  6
CENTER
 62
     3
370
    25
100
AcDbLine
 10
44.7482894046712
 20
194.4953836695875
 30
0.0
 11
171.6045583346707
 21
194.4953836695875
 31
0.0
  0
ARC
  5
CB
330
1F
100
AcDbEntity
  8
0
  6
CENTER
 62
     2
370
    25
100
AcDbCircle
 10
108.5181210537101
 20
194.4953836695875
 30
0.0
 40
44.50000000000009
100
AcDbArc
 50
347.3884507213319
 51
8.012119161713514
  0
LINE
  5
CC
330
1F
100
AcDbEntity
  8
0
  6
Continuous
 62
    30
370
    50
100
AcDbLine
 10
112.0181235263483
 20
96.77965477493267
 30
0.0
 11
168.0181211486691
 21
96.77965477493267
 31
0.0
  0
CIRCLE
  5
CD
330
1F
100
AcDbEntity
  8
0
  6
Continuous
 62
    30
370
    50
100
AcDbCircle
 10
108.5181210537093
 20
194.4953836695875
 30
0.0
 40
6.25
  0
CIRCLE
  5
CE
330
1F
100
AcDbEntity
  8
0
  6
Continuous
 62
    30
370
    50
100
AcDbCircle
 10
108.5181210537095
 20
194.4953836695875
 30
0.0
 40
5.0
  0
CIRCLE
  5
CF
330
1F
100
AcDbEntity
  8
0
  6
Continuous
 62
    30
370
    50
100
AcDbCircle
 10
108.5181210537093
 20
194.4953836695875
 30
0.0
 40
4.0
  0
CIRCLE
  5
D0
330
1F
100
AcDbEntity
  8
0
  6
Continuous
 62
    30
370
    25
100
AcDbCircle
 10
108.5181210537101
 20
194.4953836695875
 30
0.0
 40
1.0
  0
LINE
  5
D1
330
1F
100
AcDbEntity
  8
0
  6
Continuous
 62
    30
370
    50
100
AcDbLine
 10
109.0181210537095
 20
189.5204464840547
 30
0.0
 11
109.0181210537095
 21
190.5267567029908
 31
0.0
  0
LINE
  5
D2
330
1F
100
AcDbEntity
  8
0
  6
Continuous
 62
    30
370
    50
100
AcDbLine
 10
108.0181210537095
 20
190.5267567029908
 30
0.0
 11
108.0181210537095
 21
189.5204464840546
 31
0.0
  0
LINE
  5
D3
330
1F
100
AcDbEntity
  8
SX_DraftLine
  6
Continuous
 62
    30
370
    50
100
AcDbLine
 10
119.8681210537101
 20
96.27965477493267
 30
0.0
 11
119.8681210537101
 21
96.77965477493267
 31
0.0
  0
LINE
  5
D4
330
1F
100
AcDbEntity
  8
SX_DraftLine
  6
Continuous
 62
    30
370
    50
100
AcDbLine
 10
112.01811877099
 20
96.27965477493267
 30
0.0
 11
119.8681210537101
 21
96.27965477493267
 31
0.0
  0
LINE
  5
D5
330
1F
100
AcDbEntity
  8
SX_DraftLine
  6
Continuous
 62
    30
370
    50
100
AcDbLine
 10
105.0181187709898
 20
96.27965477493267
 30
0.0
 11
97.16812105371008
 21
96.27965477493267
 31
0.0
  0
LINE
  5
D6
330
1F
100
AcDbEntity
  8
SX_DraftLine
  6
Continuous
 62
    30
370
    50
100
AcDbLine
 10
97.16812105371008
 20
96.27965477493267
 30
0.0
 11
97.16812105371008
 21
96.77965477493267
 31
0.0
  0
LINE
  5
D7
330
1F
100
AcDbEntity
  8
0
  6
CENTER
 62
     3
370
    25
100
AcDbLine
 10
108.5181210537101
 20
124.5643577326802
 30
0.0
 11
108.5181210537101
 21
261.3317617218607
 31
0.0
  0
LINE
  5
D8
330
1F
100
AcDbEntity
  8
0
  6
CENTER
 62
     2
370
    25
100
AcDbLine
 10
108.5181211486691
 20
112.4721068921188
 30
0.0
 11
108.5181211486691
 21
80.10723318540694
 31
0.0
  0
LINE
  5
D9
330
1F
100
AcDbEntity
  8
0
  6
Continuous
 62
    30
370
    50
100
AcDbLine
 10
90.7945854350931
 20
203.3743334139278
 30
0.0
 11
90.77162705058996
 21
204.7747948686192
 31
0.0
  0
ARC
  5
DA
330
1F
100
AcDbEntity
  8
0
  6
Continuous
 62
    30
370
    50
100
AcDbCircle
 10
91.79781083692686
 20
202.8801850300325
 30
0.0
 40
0.2
100
AcDbArc
 50
291.0155119943436
 51
0.0
  0
ARC
  5
DB
330
1F
100
AcDbEntity
  8
0
  6
Continuous
 62
    30
370
    50
100
AcDbCircle
 10
92.99781083692673
 20
203.6278089948021
 30
0.0
 40
1.0
100
AcDbArc
 50
116.5867596317281
 51
180.0
  0
ARC
  5
DC
330
1F
100
AcDbEntity
  8
0
  6
Continuous
 62
    30
370
    50
100
AcDbCircle
 10
92.99781083692673
 20
203.6278089948021
 30
0.0
 40
1.2
100
AcDbArc
 50
172.1289669418648
 51
180.0
  0
ARC
  5
DD
330
1F
100
AcDbEntity
  8
0
  6
Continuous
 62
    30
370
    50
100
AcDbCircle
 10
91.59781083692671
 20
203.0183060812792
 30
0.0
 40
0.2
100
AcDbArc
 50
290.465930434211
 51
0.0000000000000509
  0
LINE
  5
DE
330
1F
100
AcDbEntity
  8
0
  6
Continuous
 62
    30
370
    50
100
AcDbLine
 10
82.38759135756177
 20
203.378667694191
 30
0.0
 11
82.45570569344761
 21
204.8090687477938
 31
0.0
  0
ARC
  5
DF
330
1F
100
AcDbEntity
  8
0
  6
Continuous
 62
    30
370
    50
100
AcDbCircle
 10
81.39781083692716
 20
202.8801850300326
 30
0.0
 40
0.2
100
AcDbArc
 50
180.0
 51
248.9844880056564
  0
LINE
  5
E0
330
1F
100
AcDbEntity
  8
0
  6
Continuous
 62
    30
370
    50
100
AcDbLine
 10
81.19781083692712
 20
203.627808994802
 30
0.0
 11
81.19781083692712
 21
202.8801850300325
 31
0.0
  0
ARC
  5
E1
330
1F
100
AcDbEntity
  8
0
  6
Continuous
 62
    30
370
    50
100
AcDbCircle
 10
80.19781083692712
 20
203.6278089948022
 30
0.0
 40
1.0
100
AcDbArc
 50
0.0000000000001527
 51
63.41324036827222
  0
ARC
  5
E2
330
1F
100
AcDbEntity
  8
0
  6
Continuous
 62
    30
370
    50
100
AcDbCircle
 10
80.19781083692712
 20
203.6278089948022
 30
0.0
 40
1.2
100
AcDbArc
 50
0.0000000000001527
 51
63.41324036827222
  0
LINE
  5
E3
330
1F
100
AcDbEntity
  8
0
  6
Continuous
 62
    30
370
    50
100
AcDbLine
 10
81.39781083692716
 20
203.0183060812793
 30
0.0
 11
81.39781083692716
 21
203.627808994802
 31
0.0
  0
ARC
  5
E4
330
1F
100
AcDbEntity
  8
0
  6
Continuous
 62
    30
370
    50
100
AcDbCircle
 10
81.5978108369274
 20
203.0183060812794
 30
0.0
 40
0.2
100
AcDbArc
 50
180.0
 51
249.5340695657892
  0
ARC
  5
E5
330
1F
100
AcDbEntity
  8
0
  6
Continuous
 62
    30
370
    50
100
AcDbCircle
 10
86.59781083692724
 20
216.4156938863705
 30
0.0
 40
14.7
100
AcDbArc
 50
248.9844880056555
 51
291.0155119943436
  0
ARC
  5
E6
330
1F
100
AcDbEntity
  8
0
  6
Continuous
 62
    30
370
    50
100
AcDbCircle
 10
86.59781083692724
 20
216.4156938863705
 30
0.0
 40
13.7
100
AcDbArc
 50
252.1024883135808
 51
287.8384332709929
  0
ARC
  5
E7
330
1F
100
AcDbEntity
  8
0
  6
Continuous
 62
    30
370
    50
100
AcDbCircle
 10
86.59781083692724
 20
216.4156938863705
 30
0.0
 40
14.5
100
AcDbArc
 50
249.5340695657892
 51
290.4659304342109
  0
ARC
  5
E8
330
1F
100
AcDbEntity
  8
0
  6
Continuous
 62
    30
370
    50
100
AcDbCircle
 10
73.06230198058955
 20
221.6156938863705
 30
0.0
 40
0.2
100
AcDbArc
 50
90.0
 51
158.9844880056555
  0
ARC
  5
E9
330
1F
100
AcDbEntity
  8
0
  6
Continuous
 62
    30
370
    50
100
AcDbCircle
 10
86.59781083692724
 20
216.4156938863705
 30
0.0
 40
13.7
100
AcDbArc
 50
162.1024883135808
 51
197.838433270993
  0
ARC
  5
EA
330
1F
100
AcDbEntity
  8
0
  6
Continuous
 62
    30
370
    50
100
AcDbCircle
 10
86.59781083692724
 20
216.4156938863705
 30
0.0
 40
14.5
100
AcDbArc
 50
159.5340695657891
 51
200.4659304342108
  0
ARC
  5
EB
330
1F
100
AcDbEntity
  8
0
  6
Continuous
 62
    30
370
    50
100
AcDbCircle
 10
73.2004230318359
 20
221.41569388637
 30
0.0
 40
0.2
100
AcDbArc
 50
90.0
 51
159.5340695657892
  0
LINE
  5
EC
330
1F
100
AcDbEntity
  8
0
  6
Continuous
 62
    30
370
    50
100
AcDbLine
 10
73.55645036448455
 20
212.2189192882042
 30
0.0
 11
74.95691181917587
 21
212.2418776727074
 31
0.0
  0
ARC
  5
ED
330
1F
100
AcDbEntity
  8
0
  6
Continuous
 62
    30
370
    50
100
AcDbCircle
 10
73.06230198058924
 20
211.2156938863707
 30
0.0
 40
0.2
100
AcDbArc
 50
201.0155119943435
 51
270.0
  0
LINE
  5
EE
330
1F
100
AcDbEntity
  8
0
  6
Continuous
 62
    30
370
    50
100
AcDbLine
 10
73.80992594535832
 20
211.0156938863705
 30
0.0
 11
73.06230198058888
 21
211.0156938863705
 31
0.0
  0
ARC
  5
EF
330
1F
100
AcDbEntity
  8
0
  6
Continuous
 62
    30
370
    50
100
AcDbCircle
 10
73.80992594535869
 20
210.0156938863706
 30
0.0
 40
1.0
100
AcDbArc
 50
26.58675963172811
 51
90.00000000000018
  0
LINE
  5
F0
330
1F
100
AcDbEntity
  8
0
  6
Continuous
 62
    30
370
    50
100
AcDbLine
 10
73.20042303183568
 20
211.2156938863707
 30
0.0
 11
73.80992594535834
 21
211.2156938863707
 31
0.0
  0
ARC
  5
F1
330
1F
100
AcDbEntity
  8
0
  6
Continuous
 62
    30
370
    50
100
AcDbCircle
 10
73.80992594535869
 20
210.0156938863706
 30
0.0
 40
1.2
100
AcDbArc
 50
26.58675963172811
 51
90.00000000000018
  0
ARC
  5
F2
330
1F
100
AcDbEntity
  8
0
  6
Continuous
 62
    30
370
    50
100
AcDbCircle
 10
73.20042303183604
 20
211.4156938863708
 30
0.0
 40
0.2
100
AcDbArc
 50
200.4659304342107
 51
269.9999999999999
  0
ARC
  5
F3
330
1F
100
AcDbEntity
  8
0
  6
Continuous
 62
    30
370
    50
100
AcDbCircle
 10
86.52710015880831
 20
216.4156938863706
 30
0.0
 40
12.30000000000001
100
AcDbArc
 50
199.8363426388553
 51
250.6700510216387
  0
ARC
  5
F4
330
1F
100
AcDbEntity
  8
0
  6
Continuous
 62
    30
370
    50
100
AcDbCircle
 10
86.59781083692724
 20
216.4156938863705
 30
0.0
 40
13.3
100
AcDbArc
 50
206.5867596317279
 51
243.4132403682721
  0
ARC
  5
F5
330
1F
100
AcDbEntity
  8
0
  6
Continuous
 62
    30
370
    50
100
AcDbCircle
 10
86.59781083692724
 20
216.4156938863705
 30
0.0
 40
13.1
100
AcDbArc
 50
206.5867596317279
 51
243.2111247011348
  0
ARC
  5
F6
330
1F
100
AcDbEntity
  8
0
  6
Continuous
 62
    30
370
    50
100
AcDbCircle
 10
86.59781083692724
 20
216.4156938863705
 30
0.0
 40
14.7
100
AcDbArc
 50
158.9844880056555
 51
201.0155119943436
  0
LINE
  5
F7
330
1F
100
AcDbEntity
  8
0
  6
Continuous
 62
    30
370
    50
100
AcDbLine
 10
73.8099259453584
 20
221.8156938863701
 30
0.0
 11
73.06230198058906
 21
221.8156938863701
 31
0.0
  0
LINE
  5
F8
330
1F
100
AcDbEntity
  8
0
  6
Continuous
 62
    30
370
    50
100
AcDbLine
 10
73.5607846447475
 20
220.6259133657356
 30
0.0
 11
74.99118569835026
 21
220.5577990298498
 31
0.0
  0
ARC
  5
F9
330
1F
100
AcDbEntity
  8
0
  6
Continuous
 62
    30
370
    50
100
AcDbCircle
 10
73.8099259453586
 20
222.8156938863701
 30
0.0
 40
1.0
100
AcDbArc
 50
270.0
 51
333.4132403682719
  0
ARC
  5
FA
330
1F
100
AcDbEntity
  8
0
  6
Continuous
 62
    30
370
    50
100
AcDbCircle
 10
73.8099259453586
 20
222.8156938863701
 30
0.0
 40
1.2
100
AcDbArc
 50
270.0
 51
333.4132403682719
  0
LINE
  5
FB
330
1F
100
AcDbEntity
  8
0
  6
Continuous
 62
    30
370
    50
100
AcDbLine
 10
73.20042303183595
 20
221.6156938863702
 30
0.0
 11
73.80992594535864
 21
221.6156938863702
 31
0.0
  0
LINE
  5
FC
330
1F
100
AcDbEntity
  8
0
  6
Continuous
 62
    30
370
    50
100
AcDbLine
 10
82.4010362387609
 20
229.457054358813
 30
0.0
 11
82.42399462326404
 21
228.0565929041217
 31
0.0
  0
LINE
  5
FD
330
1F
100
AcDbEntity
  8
0
  6
Continuous
 62
    30
370
    50
100
AcDbLine
 10
81.1978108369274
 20
229.2035787779388
 30
0.0
 11
81.1978108369274
 21
229.9512027427085
 31
0.0
  0
ARC
  5
FE
330
1F
100
AcDbEntity
  8
0
  6
Continuous
 62
    30
370
    50
100
AcDbCircle
 10
81.3978108369274
 20
229.9512027427086
 30
0.0
 40
0.2
100
AcDbArc
 50
111.0155119943437
 51
180.0000000000001
  0
ARC
  5
FF
330
1F
100
AcDbEntity
  8
0
  6
Continuous
 62
    30
370
    50
100
AcDbCircle
 10
80.19781083692723
 20
229.2035787779388
 30
0.0
 40
1.0
100
AcDbArc
 50
296.5867596317282
 51
0.0000000000000509
  0
LINE
  5
100
330
1F
100
AcDbEntity
  8
0
  6
Continuous
 62
    30
370
    50
100
AcDbLine
 10
81.39781083692728
 20
229.8130816914614
 30
0.0
 11
81.39781083692728
 21
229.2035787779388
 31
0.0
  0
ARC
  5
101
330
1F
100
AcDbEntity
  8
0
  6
Continuous
 62
    30
370
    50
100
AcDbCircle
 10
80.19781083692723
 20
229.2035787779388
 30
0.0
 40
1.2
100
AcDbArc
 50
296.5867596317282
 51
0.0000000000000509
  0
ARC
  5
102
330
1F
100
AcDbEntity
  8
0
  6
Continuous
 62
    30
370
    50
100
AcDbCircle
 10
81.59781083692738
 20
229.8130816914615
 30
0.0
 40
0.2
100
AcDbArc
 50
110.4659304342109
 51
180.0
  0
ARC
  5
103
330
1F
100
AcDbEntity
  8
0
  6
Continuous
 62
    30
370
    50
100
AcDbCircle
 10
86.59781083692724
 20
216.4156938863705
 30
0.0
 40
13.3
100
AcDbArc
 50
116.5867596317281
 51
153.4132403682719
  0
ARC
  5
104
330
1F
100
AcDbEntity
  8
0
  6
Continuous
 62
    30
370
    50
100
AcDbCircle
 10
86.59781083692724
 20
216.4156938863705
 30
0.0
 40
13.1
100
AcDbArc
 50
116.5867596317281
 51
153.4132403682719
  0
ARC
  5
105
330
1F
100
AcDbEntity
  8
0
  6
Continuous
 62
    30
370
    50
100
AcDbCircle
 10
86.59781083692724
 20
216.4864045644895
 30
0.0
 40
12.3
100
AcDbArc
 50
109.8363426388553
 51
160.6700510216386
  0
LINE
  5
106
330
1F
100
AcDbEntity
  8
0
  6
Continuous
 62
    30
370
    50
100
AcDbLine
 10
90.80803031629233
 20
229.4527200785502
 30
0.0
 11
90.7399159804065
 21
228.0223190249475
 31
0.0
  0
LINE
  5
107
330
1F
100
AcDbEntity
  8
0
  6
Continuous
 62
    30
370
    50
100
AcDbLine
 10
91.99781083692724
 20
229.2035787779387
 30
0.0
 11
91.99781083692724
 21
229.9512027427082
 31
0.0
  0
ARC
  5
108
330
1F
100
AcDbEntity
  8
0
  6
Continuous
 62
    30
370
    50
100
AcDbCircle
 10
92.99781083692726
 20
229.2035787779388
 30
0.0
 40
1.0
100
AcDbArc
 50
180.0
 51
243.4132403682705
  0
LINE
  5
109
330
1F
100
AcDbEntity
  8
0
  6
Continuous
 62
    30
370
    50
100
AcDbLine
 10
91.79781083692703
 20
229.8130816914612
 30
0.0
 11
91.79781083692703
 21
229.2035787779385
 31
0.0
  0
ARC
  5
10A
330
1F
100
AcDbEntity
  8
0
  6
Continuous
 62
    30
370
    50
100
AcDbCircle
 10
92.99781083692726
 20
229.2035787779388
 30
0.0
 40
1.2
100
AcDbArc
 50
180.0
 51
243.4132403682705
  0
ARC
  5
10B
330
1F
100
AcDbEntity
  8
0
  6
Continuous
 62
    30
370
    50
100
AcDbCircle
 10
86.59781083692724
 20
216.4156938863705
 30
0.0
 40
14.7
100
AcDbArc
 50
68.98448800565563
 51
111.0155119943437
  0
ARC
  5
10C
330
1F
100
AcDbEntity
  8
0
  6
Continuous
 62
    30
370
    50
100
AcDbCircle
 10
86.59781083692724
 20
216.4156938863705
 30
0.0
 40
13.7
100
AcDbArc
 50
72.10248831358089
 51
107.8384332709931
  0
ARC
  5
10D
330
1F
100
AcDbEntity
  8
0
  6
Continuous
 62
    30
370
    50
100
AcDbCircle
 10
86.59781083692724
 20
216.4156938863705
 30
0.0
 40
14.5
100
AcDbArc
 50
69.53406956578782
 51
110.4659304342109
  0
LINE
  5
10E
330
1F
100
AcDbEntity
  8
0
  6
Continuous
 62
    30
370
    50
100
AcDbLine
 10
99.3856957284952
 20
221.8156938863707
 30
0.0
 11
100.133319693265
 21
221.8156938863707
 31
0.0
  0
LINE
  5
10F
330
1F
100
AcDbEntity
  8
0
  6
Continuous
 62
    30
370
    50
100
AcDbLine
 10
99.63917130937008
 20
220.6124684845366
 30
0.0
 11
98.23870985467876
 21
220.5895101000335
 31
0.0
  0
ARC
  5
110
330
1F
100
AcDbEntity
  8
0
  6
Continuous
 62
    30
370
    50
100
AcDbCircle
 10
100.1333196932653
 20
221.6156938863705
 30
0.0
 40
0.2
100
AcDbArc
 50
21.01551199434378
 51
90.00000000000021
  0
ARC
  5
111
330
1F
100
AcDbEntity
  8
0
  6
Continuous
 62
    30
370
    50
100
AcDbCircle
 10
99.38569572849522
 20
222.8156938863707
 30
0.0
 40
1.0
100
AcDbArc
 50
206.5867596317299
 51
270.0
  0
LINE
  5
112
330
1F
100
AcDbEntity
  8
0
  6
Continuous
 62
    30
370
    50
100
AcDbLine
 10
99.99519864201784
 20
221.6156938863705
 30
0.0
 11
99.3856957284951
 21
221.6156938863705
 31
0.0
  0
ARC
  5
113
330
1F
100
AcDbEntity
  8
0
  6
Continuous
 62
    30
370
    50
100
AcDbCircle
 10
99.38569572849522
 20
222.8156938863707
 30
0.0
 40
1.2
100
AcDbArc
 50
206.5867596317299
 51
270.0
  0
ARC
  5
114
330
1F
100
AcDbEntity
  8
0
  6
Continuous
 62
    30
370
    50
100
AcDbCircle
 10
99.99519864201801
 20
221.4156938863707
 30
0.0
 40
0.2
100
AcDbArc
 50
20.46593043421282
 51
90.00000000000016
  0
ARC
  5
115
330
1F
100
AcDbEntity
  8
0
  6
Continuous
 62
    30
370
    50
100
AcDbCircle
 10
86.59781083692724
 20
216.4156938863705
 30
0.0
 40
13.3
100
AcDbArc
 50
26.58675963173005
 51
63.41324036827056
  0
ARC
  5
116
330
1F
100
AcDbEntity
  8
0
  6
Continuous
 62
    30
370
    50
100
AcDbCircle
 10
86.59781083692724
 20
216.4156938863705
 30
0.0
 40
13.1
100
AcDbArc
 50
26.58675963173005
 51
63.41324036827056
  0
ARC
  5
117
330
1F
100
AcDbEntity
  8
0
  6
Continuous
 62
    30
370
    50
100
AcDbCircle
 10
86.66852151504625
 20
216.4156938863705
 30
0.0
 40
12.30000000000001
100
AcDbArc
 50
19.8363426388553
 51
70.67005102163887
  0
ARC
  5
118
330
1F
100
AcDbEntity
  8
0
  6
Continuous
 62
    30
370
    50
100
AcDbCircle
 10
100.133319693265
 20
211.2156938863703
 30
0.0
 40
0.2
100
AcDbArc
 50
270.0
 51
338.9844880056555
  0
LINE
  5
119
330
1F
100
AcDbEntity
  8
0
  6
Continuous
 62
    30
370
    50
100
AcDbLine
 10
99.63483702910688
 20
212.2054744070056
 30
0.0
 11
98.20443597550411
 21
212.2735887428914
 31
0.0
  0
ARC
  5
11A
330
1F
100
AcDbEntity
  8
0
  6
Continuous
 62
    30
370
    50
100
AcDbCircle
 10
99.38569572849545
 20
210.0156938863706
 30
0.0
 40
1.0
100
AcDbArc
 50
89.99999999999997
 51
153.4132403682719
  0
ARC
  5
11B
330
1F
100
AcDbEntity
  8
0
  6
Continuous
 62
    30
370
    50
100
AcDbCircle
 10
99.38569572849545
 20
210.0156938863706
 30
0.0
 40
1.2
100
AcDbArc
 50
89.99999999999997
 51
153.4132403682719
  0
ARC
  5
11C
330
1F
100
AcDbEntity
  8
0
  6
Continuous
 62
    30
370
    50
100
AcDbCircle
 10
99.99519864201767
 20
211.4156938863705
 30
0.0
 40
0.2
100
AcDbArc
 50
270.0
 51
339.5340695657887
  0
ARC
  5
11D
330
1F
100
AcDbEntity
  8
0
  6
Continuous
 62
    30
370
    50
100
AcDbCircle
 10
86.59781083692724
 20
216.3449832082516
 30
0.0
 40
12.3
100
AcDbArc
 50
289.8363426388552
 51
340.6700510216385
  0
ARC
  5
11E
330
1F
100
AcDbEntity
  8
0
  6
Continuous
 62
    30
370
    50
100
AcDbCircle
 10
86.59781083692724
 20
216.4156938863705
 30
0.0
 40
13.3
100
AcDbArc
 50
296.5867596317282
 51
333.4132403682719
  0
ARC
  5
11F
330
1F
100
AcDbEntity
  8
0
  6
Continuous
 62
    30
370
    50
100
AcDbCircle
 10
86.59781083692724
 20
216.4156938863705
 30
0.0
 40
13.1
100
AcDbArc
 50
300.5024931921641
 51
333.4132403682719
  0
ARC
  5
120
330
1F
100
AcDbEntity
  8
0
  6
Continuous
 62
    30
370
    50
100
AcDbCircle
 10
86.59781083692724
 20
216.4156938863705
 30
0.0
 40
14.7
100
AcDbArc
 50
338.9844880056556
 51
21.01551199434368
  0
ARC
  5
121
330
1F
100
AcDbEntity
  8
0
  6
Continuous
 62
    30
370
    50
100
AcDbCircle
 10
86.59781083692724
 20
216.4156938863705
 30
0.0
 40
13.7
100
AcDbArc
 50
342.102488313581
 51
17.83843327099313
  0
ARC
  5
122
330
1F
100
AcDbEntity
  8
0
  6
Continuous
 62
    30
370
    50
100
AcDbCircle
 10
86.59781083692724
 20
216.4156938863705
 30
0.0
 40
14.5
100
AcDbArc
 50
339.5340695657887
 51
20.46593043421272
  0
CIRCLE
  5
123
330
1F
100
AcDbEntity
  8
0
  6
Continuous
 62
    30
370
    50
100
AcDbCircle
 10
86.59781083692724
 20
216.4156938863705
 30
0.0
 40
15.6
  0
ARC
  5
124
330
1F
100
AcDbEntity
  8
0
  6
Continuous
 62
    30
370
    50
100
AcDbCircle
 10
91.79781083692707
 20
229.9512027427086
 30
0.0
 40
0.2
100
AcDbArc
 50
359.9999999999999
 51
68.98448800565633
  0
ARC
  5
125
330
1F
100
AcDbEntity
  8
0
  6
Continuous
 62
    30
370
    50
100
AcDbCircle
 10
91.5978108369271
 20
229.8130816914615
 30
0.0
 40
0.2
100
AcDbArc
 50
359.9999999999999
 51
69.53406956578912
  0
LINE
  5
126
330
1F
100
AcDbEntity
  8
0
  6
Continuous
 62
    30
370
    50
100
AcDbLine
 10
134.6352058686588
 20
159.5337129803617
 30
0.0
 11
134.6122474841556
 21
160.9341744350531
 31
0.0
  0
ARC
  5
127
330
1F
100
AcDbEntity
  8
0
  6
Continuous
 62
    30
370
    50
100
AcDbCircle
 10
135.6384312704926
 20
159.0395645964664
 30
0.0
 40
0.2
100
AcDbArc
 50
291.0155119943436
 51
0.0
  0
ARC
  5
128
330
1F
100
AcDbEntity
  8
0
  6
Continuous
 62
    30
370
    50
100
AcDbCircle
 10
136.8384312704925
 20
159.7871885612358
 30
0.0
 40
1.0
100
AcDbArc
 50
116.5867596317281
 51
180.0
  0
ARC
  5
129
330
1F
100
AcDbEntity
  8
0
  6
Continuous
 62
    30
370
    50
100
AcDbCircle
 10
136.8384312704925
 20
159.7871885612358
 30
0.0
 40
1.2
100
AcDbArc
 50
172.1289669418648
 51
180.0
  0
ARC
  5
12A
330
1F
100
AcDbEntity
  8
0
  6
Continuous
 62
    30
370
    50
100
AcDbCircle
 10
135.4384312704924
 20
159.1776856477131
 30
0.0
 40
0.2
100
AcDbArc
 50
290.465930434211
 51
0.0000000000000509
  0
LINE
  5
12B
330
1F
100
AcDbEntity
  8
0
  6
Continuous
 62
    30
370
    50
100
AcDbLine
 10
126.2282117911276
 20
159.5380472606248
 30
0.0
 11
126.2963261270134
 21
160.9684483142275
 31
0.0
  0
ARC
  5
12C
330
1F
100
AcDbEntity
  8
0
  6
Continuous
 62
    30
370
    50
100
AcDbCircle
 10
125.2384312704929
 20
159.0395645964664
 30
0.0
 40
0.2
100
AcDbArc
 50
180.0
 51
248.9844880056564
  0
LINE
  5
12D
330
1F
100
AcDbEntity
  8
0
  6
Continuous
 62
    30
370
    50
100
AcDbLine
 10
125.0384312704929
 20
159.7871885612357
 30
0.0
 11
125.0384312704929
 21
159.0395645964663
 31
0.0
  0
ARC
  5
12E
330
1F
100
AcDbEntity
  8
0
  6
Continuous
 62
    30
370
    50
100
AcDbCircle
 10
124.0384312704929
 20
159.787188561236
 30
0.0
 40
1.0
100
AcDbArc
 50
0.0000000000001527
 51
63.41324036827222
  0
ARC
  5
12F
330
1F
100
AcDbEntity
  8
0
  6
Continuous
 62
    30
370
    50
100
AcDbCircle
 10
124.0384312704929
 20
159.787188561236
 30
0.0
 40
1.2
100
AcDbArc
 50
0.0000000000001527
 51
63.41324036827222
  0
LINE
  5
130
330
1F
100
AcDbEntity
  8
0
  6
Continuous
 62
    30
370
    50
100
AcDbLine
 10
125.238431270493
 20
159.1776856477131
 30
0.0
 11
125.238431270493
 21
159.7871885612358
 31
0.0
  0
ARC
  5
131
330
1F
100
AcDbEntity
  8
0
  6
Continuous
 62
    30
370
    50
100
AcDbCircle
 10
125.4384312704932
 20
159.1776856477132
 30
0.0
 40
0.2
100
AcDbArc
 50
180.0
 51
249.5340695657892
  0
ARC
  5
132
330
1F
100
AcDbEntity
  8
0
  6
Continuous
 62
    30
370
    50
100
AcDbCircle
 10
130.438431270493
 20
172.5750734528043
 30
0.0
 40
14.7
100
AcDbArc
 50
248.9844880056555
 51
291.0155119943436
  0
ARC
  5
133
330
1F
100
AcDbEntity
  8
0
  6
Continuous
 62
    30
370
    50
100
AcDbCircle
 10
130.438431270493
 20
172.5750734528043
 30
0.0
 40
13.7
100
AcDbArc
 50
252.1024883135808
 51
287.8384332709929
  0
ARC
  5
134
330
1F
100
AcDbEntity
  8
0
  6
Continuous
 62
    30
370
    50
100
AcDbCircle
 10
130.438431270493
 20
172.5750734528043
 30
0.0
 40
14.5
100
AcDbArc
 50
249.5340695657892
 51
290.4659304342109
  0
ARC
  5
135
330
1F
100
AcDbEntity
  8
0
  6
Continuous
 62
    30
370
    50
100
AcDbCircle
 10
116.9029224141553
 20
177.7750734528045
 30
0.0
 40
0.2
100
AcDbArc
 50
90.0
 51
158.9844880056555
  0
ARC
  5
136
330
1F
100
AcDbEntity
  8
0
  6
Continuous
 62
    30
370
    50
100
AcDbCircle
 10
130.438431270493
 20
172.5750734528043
 30
0.0
 40
13.7
100
AcDbArc
 50
162.1024883135808
 51
197.838433270993
  0
ARC
  5
137
330
1F
100
AcDbEntity
  8
0
  6
Continuous
 62
    30
370
    50
100
AcDbCircle
 10
130.438431270493
 20
172.5750734528043
 30
0.0
 40
14.5
100
AcDbArc
 50
159.5340695657891
 51
200.4659304342108
  0
ARC
  5
138
330
1F
100
AcDbEntity
  8
0
  6
Continuous
 62
    30
370
    50
100
AcDbCircle
 10
117.0410434654015
 20
177.5750734528038
 30
0.0
 40
0.2
100
AcDbArc
 50
90.0
 51
159.5340695657892
  0
LINE
  5
139
330
1F
100
AcDbEntity
  8
0
  6
Continuous
 62
    30
370
    50
100
AcDbLine
 10
117.3970707980503
 20
168.3782988546381
 30
0.0
 11
118.7975322527416
 21
168.4012572391412
 31
0.0
  0
ARC
  5
13A
330
1F
100
AcDbEntity
  8
0
  6
Continuous
 62
    30
370
    50
100
AcDbCircle
 10
116.9029224141549
 20
167.3750734528045
 30
0.0
 40
0.2
100
AcDbArc
 50
201.0155119943435
 51
270.0
  0
LINE
  5
13B
330
1F
100
AcDbEntity
  8
0
  6
Continuous
 62
    30
370
    50
100
AcDbLine
 10
117.650546378924
 20
167.1750734528043
 30
0.0
 11
116.9029224141546
 21
167.1750734528043
 31
0.0
  0
ARC
  5
13C
330
1F
100
AcDbEntity
  8
0
  6
Continuous
 62
    30
370
    50
100
AcDbCircle
 10
117.6505463789244
 20
166.1750734528045
 30
0.0
 40
1.0
100
AcDbArc
 50
26.58675963172811
 51
90.00000000000018
  0
LINE
  5
13D
330
1F
100
AcDbEntity
  8
0
  6
Continuous
 62
    30
370
    50
100
AcDbLine
 10
117.0410434654015
 20
167.3750734528045
 30
0.0
 11
117.6505463789241
 21
167.3750734528045
 31
0.0
  0
ARC
  5
13E
330
1F
100
AcDbEntity
  8
0
  6
Continuous
 62
    30
370
    50
100
AcDbCircle
 10
117.6505463789244
 20
166.1750734528045
 30
0.0
 40
1.2
100
AcDbArc
 50
26.58675963172811
 51
90.00000000000018
  0
ARC
  5
13F
330
1F
100
AcDbEntity
  8
0
  6
Continuous
 62
    30
370
    50
100
AcDbCircle
 10
117.0410434654018
 20
167.5750734528046
 30
0.0
 40
0.2
100
AcDbArc
 50
200.4659304342107
 51
269.9999999999999
  0
ARC
  5
140
330
1F
100
AcDbEntity
  8
0
  6
Continuous
 62
    30
370
    50
100
AcDbCircle
 10
130.367720592374
 20
172.5750734528044
 30
0.0
 40
12.30000000000001
100
AcDbArc
 50
199.8363426388553
 51
250.6700510216387
  0
ARC
  5
141
330
1F
100
AcDbEntity
  8
0
  6
Continuous
 62
    30
370
    50
100
AcDbCircle
 10
130.438431270493
 20
172.5750734528043
 30
0.0
 40
13.3
100
AcDbArc
 50
206.5867596317279
 51
243.4132403682721
  0
ARC
  5
142
330
1F
100
AcDbEntity
  8
0
  6
Continuous
 62
    30
370
    50
100
AcDbCircle
 10
130.438431270493
 20
172.5750734528043
 30
0.0
 40
13.1
100
AcDbArc
 50
206.5867596317279
 51
243.2111247011348
  0
ARC
  5
143
330
1F
100
AcDbEntity
  8
0
  6
Continuous
 62
    30
370
    50
100
AcDbCircle
 10
130.438431270493
 20
172.5750734528043
 30
0.0
 40
14.7
100
AcDbArc
 50
158.9844880056555
 51
201.0155119943436
  0
LINE
  5
144
330
1F
100
AcDbEntity
  8
0
  6
Continuous
 62
    30
370
    50
100
AcDbLine
 10
117.6505463789241
 20
177.975073452804
 30
0.0
 11
116.9029224141547
 21
177.975073452804
 31
0.0
  0
LINE
  5
145
330
1F
100
AcDbEntity
  8
0
  6
Continuous
 62
    30
370
    50
100
AcDbLine
 10
117.4014050783133
 20
176.7852929321695
 30
0.0
 11
118.8318061319161
 21
176.7171785962836
 31
0.0
  0
ARC
  5
146
330
1F
100
AcDbEntity
  8
0
  6
Continuous
 62
    30
370
    50
100
AcDbCircle
 10
117.6505463789244
 20
178.975073452804
 30
0.0
 40
1.0
100
AcDbArc
 50
270.0
 51
333.4132403682719
  0
ARC
  5
147
330
1F
100
AcDbEntity
  8
0
  6
Continuous
 62
    30
370
    50
100
AcDbCircle
 10
117.6505463789244
 20
178.975073452804
 30
0.0
 40
1.2
100
AcDbArc
 50
270.0
 51
333.4132403682719
  0
LINE
  5
148
330
1F
100
AcDbEntity
  8
0
  6
Continuous
 62
    30
370
    50
100
AcDbLine
 10
117.0410434654017
 20
177.775073452804
 30
0.0
 11
117.6505463789244
 21
177.775073452804
 31
0.0
  0
LINE
  5
149
330
1F
100
AcDbEntity
  8
0
  6
Continuous
 62
    30
370
    50
100
AcDbLine
 10
126.2416566723267
 20
185.6164339252468
 30
0.0
 11
126.2646150568298
 21
184.2159724705555
 31
0.0
  0
LINE
  5
14A
330
1F
100
AcDbEntity
  8
0
  6
Continuous
 62
    30
370
    50
100
AcDbLine
 10
125.0384312704932
 20
185.3629583443727
 30
0.0
 11
125.0384312704932
 21
186.1105823091424
 31
0.0
  0
ARC
  5
14B
330
1F
100
AcDbEntity
  8
0
  6
Continuous
 62
    30
370
    50
100
AcDbCircle
 10
125.2384312704931
 20
186.1105823091424
 30
0.0
 40
0.2
100
AcDbArc
 50
111.0155119943437
 51
180.0000000000001
  0
ARC
  5
14C
330
1F
100
AcDbEntity
  8
0
  6
Continuous
 62
    30
370
    50
100
AcDbCircle
 10
124.038431270493
 20
185.3629583443726
 30
0.0
 40
1.0
100
AcDbArc
 50
296.5867596317282
 51
0.0000000000000509
  0
LINE
  5
14D
330
1F
100
AcDbEntity
  8
0
  6
Continuous
 62
    30
370
    50
100
AcDbLine
 10
125.238431270493
 20
185.9724612578952
 30
0.0
 11
125.238431270493
 21
185.3629583443726
 31
0.0
  0
ARC
  5
14E
330
1F
100
AcDbEntity
  8
0
  6
Continuous
 62
    30
370
    50
100
AcDbCircle
 10
124.038431270493
 20
185.3629583443726
 30
0.0
 40
1.2
100
AcDbArc
 50
296.5867596317282
 51
0.0000000000000509
  0
ARC
  5
14F
330
1F
100
AcDbEntity
  8
0
  6
Continuous
 62
    30
370
    50
100
AcDbCircle
 10
125.4384312704932
 20
185.9724612578954
 30
0.0
 40
0.2
100
AcDbArc
 50
110.4659304342109
 51
180.0
  0
ARC
  5
150
330
1F
100
AcDbEntity
  8
0
  6
Continuous
 62
    30
370
    50
100
AcDbCircle
 10
130.438431270493
 20
172.5750734528043
 30
0.0
 40
13.3
100
AcDbArc
 50
116.5867596317281
 51
153.4132403682719
  0
ARC
  5
151
330
1F
100
AcDbEntity
  8
0
  6
Continuous
 62
    30
370
    50
100
AcDbCircle
 10
130.438431270493
 20
172.5750734528043
 30
0.0
 40
13.1
100
AcDbArc
 50
116.5867596317281
 51
153.4132403682719
  0
ARC
  5
152
330
1F
100
AcDbEntity
  8
0
  6
Continuous
 62
    30
370
    50
100
AcDbCircle
 10
130.438431270493
 20
172.6457841309233
 30
0.0
 40
12.3
100
AcDbArc
 50
109.8363426388553
 51
160.6700510216386
  0
LINE
  5
153
330
1F
100
AcDbEntity
  8
0
  6
Continuous
 62
    30
370
    50
100
AcDbLine
 10
134.6486507498581
 20
185.612099644984
 30
0.0
 11
134.5805364139722
 21
184.1816985913813
 31
0.0
  0
LINE
  5
154
330
1F
100
AcDbEntity
  8
0
  6
Continuous
 62
    30
370
    50
100
AcDbLine
 10
135.838431270493
 20
185.3629583443725
 30
0.0
 11
135.838431270493
 21
186.110582309142
 31
0.0
  0
ARC
  5
155
330
1F
100
AcDbEntity
  8
0
  6
Continuous
 62
    30
370
    50
100
AcDbCircle
 10
135.6384312704932
 20
186.110582309142
 30
0.0
 40
0.2
100
AcDbArc
 50
0.0
 51
68.98448800565545
  0
ARC
  5
156
330
1F
100
AcDbEntity
  8
0
  6
Continuous
 62
    30
370
    50
100
AcDbCircle
 10
136.8384312704929
 20
185.3629583443726
 30
0.0
 40
1.0
100
AcDbArc
 50
180.0
 51
243.4132403682705
  0
LINE
  5
157
330
1F
100
AcDbEntity
  8
0
  6
Continuous
 62
    30
370
    50
100
AcDbLine
 10
135.6384312704928
 20
185.972461257895
 30
0.0
 11
135.6384312704928
 21
185.3629583443723
 31
0.0
  0
ARC
  5
158
330
1F
100
AcDbEntity
  8
0
  6
Continuous
 62
    30
370
    50
100
AcDbCircle
 10
136.8384312704929
 20
185.3629583443726
 30
0.0
 40
1.2
100
AcDbArc
 50
180.0
 51
243.4132403682705
  0
ARC
  5
159
330
1F
100
AcDbEntity
  8
0
  6
Continuous
 62
    30
370
    50
100
AcDbCircle
 10
135.4384312704929
 20
185.9724612578952
 30
0.0
 40
0.2
100
AcDbArc
 50
0.0
 51
69.53406956578773
  0
ARC
  5
15A
330
1F
100
AcDbEntity
  8
0
  6
Continuous
 62
    30
370
    50
100
AcDbCircle
 10
130.438431270493
 20
172.5750734528043
 30
0.0
 40
14.7
100
AcDbArc
 50
68.98448800565563
 51
111.0155119943437
  0
ARC
  5
15B
330
1F
100
AcDbEntity
  8
0
  6
Continuous
 62
    30
370
    50
100
AcDbCircle
 10
130.438431270493
 20
172.5750734528043
 30
0.0
 40
13.7
100
AcDbArc
 50
72.10248831358089
 51
107.8384332709931
  0
ARC
  5
15C
330
1F
100
AcDbEntity
  8
0
  6
Continuous
 62
    30
370
    50
100
AcDbCircle
 10
130.438431270493
 20
172.5750734528043
 30
0.0
 40
14.5
100
AcDbArc
 50
69.53406956578782
 51
110.4659304342109
  0
LINE
  5
15D
330
1F
100
AcDbEntity
  8
0
  6
Continuous
 62
    30
370
    50
100
AcDbLine
 10
143.2263161620609
 20
177.9750734528045
 30
0.0
 11
143.9739401268307
 21
177.9750734528045
 31
0.0
  0
LINE
  5
15E
330
1F
100
AcDbEntity
  8
0
  6
Continuous
 62
    30
370
    50
100
AcDbLine
 10
143.4797917429356
 20
176.7718480509705
 30
0.0
 11
142.0793302882443
 21
176.7488896664674
 31
0.0
  0
ARC
  5
15F
330
1F
100
AcDbEntity
  8
0
  6
Continuous
 62
    30
370
    50
100
AcDbCircle
 10
143.9739401268309
 20
177.7750734528043
 30
0.0
 40
0.2
100
AcDbArc
 50
21.01551199434378
 51
90.00000000000021
  0
ARC
  5
160
330
1F
100
AcDbEntity
  8
0
  6
Continuous
 62
    30
370
    50
100
AcDbCircle
 10
143.226316162061
 20
178.9750734528046
 30
0.0
 40
1.0
100
AcDbArc
 50
206.5867596317299
 51
270.0
  0
LINE
  5
161
330
1F
100
AcDbEntity
  8
0
  6
Continuous
 62
    30
370
    50
100
AcDbLine
 10
143.8358190755836
 20
177.7750734528043
 30
0.0
 11
143.2263161620608
 21
177.7750734528043
 31
0.0
  0
ARC
  5
162
330
1F
100
AcDbEntity
  8
0
  6
Continuous
 62
    30
370
    50
100
AcDbCircle
 10
143.226316162061
 20
178.9750734528046
 30
0.0
 40
1.2
100
AcDbArc
 50
206.5867596317299
 51
270.0
  0
ARC
  5
163
330
1F
100
AcDbEntity
  8
0
  6
Continuous
 62
    30
370
    50
100
AcDbCircle
 10
143.8358190755837
 20
177.5750734528045
 30
0.0
 40
0.2
100
AcDbArc
 50
20.46593043421282
 51
90.00000000000016
  0
ARC
  5
164
330
1F
100
AcDbEntity
  8
0
  6
Continuous
 62
    30
370
    50
100
AcDbCircle
 10
130.438431270493
 20
172.5750734528043
 30
0.0
 40
13.3
100
AcDbArc
 50
26.58675963173005
 51
63.41324036827056
  0
ARC
  5
165
330
1F
100
AcDbEntity
  8
0
  6
Continuous
 62
    30
370
    50
100
AcDbCircle
 10
130.438431270493
 20
172.5750734528043
 30
0.0
 40
13.1
100
AcDbArc
 50
26.58675963173005
 51
63.41324036827056
  0
ARC
  5
166
330
1F
100
AcDbEntity
  8
0
  6
Continuous
 62
    30
370
    50
100
AcDbCircle
 10
130.5091419486119
 20
172.5750734528043
 30
0.0
 40
12.30000000000001
100
AcDbArc
 50
19.8363426388553
 51
70.67005102163887
  0
ARC
  5
167
330
1F
100
AcDbEntity
  8
0
  6
Continuous
 62
    30
370
    50
100
AcDbCircle
 10
143.9739401268308
 20
167.3750734528041
 30
0.0
 40
0.2
100
AcDbArc
 50
270.0
 51
338.9844880056555
  0
LINE
  5
168
330
1F
100
AcDbEntity
  8
0
  6
Continuous
 62
    30
370
    50
100
AcDbLine
 10
143.4754574626726
 20
168.3648539734394
 30
0.0
 11
142.0450564090698
 21
168.4329683093252
 31
0.0
  0
ARC
  5
169
330
1F
100
AcDbEntity
  8
0
  6
Continuous
 62
    30
370
    50
100
AcDbCircle
 10
143.2263161620612
 20
166.1750734528045
 30
0.0
 40
1.0
100
AcDbArc
 50
89.99999999999997
 51
153.4132403682719
  0
ARC
  5
16A
330
1F
100
AcDbEntity
  8
0
  6
Continuous
 62
    30
370
    50
100
AcDbCircle
 10
143.2263161620612
 20
166.1750734528045
 30
0.0
 40
1.2
100
AcDbArc
 50
89.99999999999997
 51
153.4132403682719
  0
ARC
  5
16B
330
1F
100
AcDbEntity
  8
0
  6
Continuous
 62
    30
370
    50
100
AcDbCircle
 10
143.8358190755835
 20
167.5750734528042
 30
0.0
 40
0.2
100
AcDbArc
 50
270.0
 51
339.5340695657887
  0
ARC
  5
16C
330
1F
100
AcDbEntity
  8
0
  6
Continuous
 62
    30
370
    50
100
AcDbCircle
 10
130.4384312704929
 20
172.5043627746854
 30
0.0
 40
12.3
100
AcDbArc
 50
289.8363426388552
 51
340.6700510216385
  0
ARC
  5
16D
330
1F
100
AcDbEntity
  8
0
  6
Continuous
 62
    30
370
    50
100
AcDbCircle
 10
130.438431270493
 20
172.5750734528043
 30
0.0
 40
13.3
100
AcDbArc
 50
296.5867596317282
 51
333.4132403682719
  0
ARC
  5
16E
330
1F
100
AcDbEntity
  8
0
  6
Continuous
 62
    30
370
    50
100
AcDbCircle
 10
130.438431270493
 20
172.5750734528043
 30
0.0
 40
13.1
100
AcDbArc
 50
300.5024931921641
 51
333.4132403682719
  0
ARC
  5
16F
330
1F
100
AcDbEntity
  8
0
  6
Continuous
 62
    30
370
    50
100
AcDbCircle
 10
130.438431270493
 20
172.5750734528043
 30
0.0
 40
14.7
100
AcDbArc
 50
338.9844880056556
 51
21.01551199434368
  0
ARC
  5
170
330
1F
100
AcDbEntity
  8
0
  6
Continuous
 62
    30
370
    50
100
AcDbCircle
 10
130.438431270493
 20
172.5750734528043
 30
0.0
 40
13.7
100
AcDbArc
 50
342.102488313581
 51
17.83843327099313
  0
ARC
  5
171
330
1F
100
AcDbEntity
  8
0
  6
Continuous
 62
    30
370
    50
100
AcDbCircle
 10
130.438431270493
 20
172.5750734528043
 30
0.0
 40
14.5
100
AcDbArc
 50
339.5340695657887
 51
20.46593043421272
  0
CIRCLE
  5
172
330
1F
100
AcDbEntity
  8
0
  6
Continuous
 62
    30
370
    50
100
AcDbCircle
 10
130.438431270493
 20
172.5750734528043
 30
0.0
 40
15.6
  0
LINE
  5
173
330
1F
100
AcDbEntity
  8
0
  6
Continuous
 62
    30
370
    50
100
AcDbLine
 10
136.8384312704931
 20
162.0005539416956
 30
0.0
 11
137.1549787718361
 21
161.0956139854686
 31
0.0
  0
LINE
  5
174
330
1F
100
AcDbEntity
  8
0
  6
Continuous
 62
    30
370
    50
100
AcDbLine
 10
143.8358190755839
 20
167.3750734528043
 30
0.0
 11
143.2263161620612
 21
167.3750734528043
 31
0.0
  0
LINE
  5
175
330
1F
100
AcDbEntity
  8
0
  6
Continuous
 62
    30
370
    50
100
AcDbLine
 10
143.9739401268308
 20
167.1750734528045
 30
0.0
 11
143.2263161620612
 21
167.1750734528045
 31
0.0
  0
LINE
  5
176
330
1F
100
AcDbEntity
  8
0
  6
Continuous
 62
    30
370
    50
100
AcDbLine
 10
99.99519864201815
 20
211.2156938863706
 30
0.0
 11
99.38569572849545
 21
211.2156938863706
 31
0.0
  0
LINE
  5
177
330
1F
100
AcDbEntity
  8
0
  6
Continuous
 62
    30
370
    50
100
AcDbLine
 10
100.133319693265
 20
211.0156938863706
 30
0.0
 11
99.38569572849545
 21
211.0156938863706
 31
0.0
  0
LINE
  5
178
330
1F
100
AcDbEntity
  8
0
  6
Continuous
 62
    30
370
    50
100
AcDbLine
 10
91.79781083692671
 20
203.0183060812793
 30
0.0
 11
91.79781083692671
 21
203.6278089948021
 31
0.0
  0
LINE
  5
179
330
1F
100
AcDbEntity
  8
0
  6
Continuous
 62
    30
370
    50
100
AcDbLine
 10
91.9978108369269
 20
202.8801850300329
 30
0.0
 11
91.9978108369269
 21
203.6278089948021
 31
0.0
  0
LINE
  5
17A
330
1F
100
AcDbEntity
  8
0
  6
Continuous
 62
    30
370
    50
100
AcDbLine
 10
90.79460562160529
 20
204.0739175190736
 30
0.0
 11
92.00390482113531
 21
203.7380398061645
 31
0.0
  0
LINE
  5
17B
330
1F
100
AcDbEntity
  8
0
  6
Continuous
 62
    30
370
    50
100
AcDbLine
 10
92.99781083692736
 20
205.8411743752617
 30
0.0
 11
93.31435833827028
 21
204.9362344190348
 31
0.0
  0
LINE
  5
17C
330
1F
100
AcDbEntity
  8
0
  6
Continuous
 62
    30
370
    50
100
AcDbLine
 10
135.8384312704927
 20
159.0395645964666
 30
0.0
 11
135.8384312704927
 21
159.7871885612358
 31
0.0
  0
LINE
  5
17D
330
1F
100
AcDbEntity
  8
0
  6
Continuous
 62
    30
370
    50
100
AcDbLine
 10
134.635226055171
 20
160.2332970855074
 30
0.0
 11
135.8445252547011
 21
159.8974193725983
 31
0.0
  0
LINE
  5
17E
330
1F
100
AcDbEntity
  8
0
  6
Continuous
 62
    30
370
    50
100
AcDbLine
 10
135.6384312704925
 20
159.1776856477132
 30
0.0
 11
135.6384312704925
 21
159.7871885612358
 31
0.0
  0
LINE
  5
17F
330
1F
100
AcDbEntity
  8
0
  6
CENTER
 62
     3
370
    25
100
AcDbLine
 10
119.0484416510029
 20
183.9650630722945
 30
0.0
 11
143.7966839963844
 21
159.2168207269129
 31
0.0
  0
LINE
  5
180
330
1F
100
AcDbEntity
  8
0
  6
CENTER
 62
     3
370
    25
100
AcDbLine
 10
140.8427396392805
 20
182.9793818215922
 30
0.0
 11
117.3201933219883
 21
159.4568355042999
 31
0.0
  0
MTEXT
  5
181
330
1F
100
AcDbEntity
  8
NoLayerName_001
 62
     7
370
    50
100
AcDbMText
 10
322.6169048318583
 20
67.00000004768371
 30
0.0
 40
4.413793169218918
 41
0.0
 71
     5
 72
     5
  1
\fＭＳ Ｐゴシック|b0|c128|p50;\A1;プレート　８ＣＢ用
 73
     1
 44
1.299389002163688
1001
ACAD
1000
ACAD_MTEXT_DEFINED_HEIGHT_BEGIN
1070
    46
1040
6.400000095367432
1000
ACAD_MTEXT_DEFINED_HEIGHT_END
  0
MTEXT
  5
182
330
1F
100
AcDbEntity
  8
NoLayerName_001
 62
     7
370
    50
100
AcDbMText
 10
323.2518153106591
 20
47.00000004768371
 30
0.0
 40
4.413793169218918
 41
0.0
 71
     5
 72
     5
  1
\fＭＳ Ｐゴシック|b0|c128|p50;\A1;Ｐ８ＣＢＺ
 73
     1
 44
1.299389002163688
1001
ACAD
1000
ACAD_MTEXT_DEFINED_HEIGHT_BEGIN
1070
    46
1040
6.400000095367432
1000
ACAD_MTEXT_DEFINED_HEIGHT_END
  0
ENDSEC
  0
SECTION
  2
OBJECTS
  0
DICTIONARY
  5
C
330
0
100
AcDbDictionary
281
     1
  3
ACAD_GROUP
350
D
  3
ACAD_LAYOUT
350
1A
  3
ACAD_MATERIAL
350
3B
  3
ACAD_MLEADERSTYLE
350
1A7
  3
ACAD_MLINESTYLE
350
17
  3
ACAD_PLOTSETTINGS
350
19
  3
ACAD_PLOTSTYLENAME
350
E
  3
ACAD_SCALELIST
350
183
  3
ACAD_VISUALSTYLE
350
2A
  3
AcDbVariableDictionary
350
1A5
  3
DWGPROPS
350
1AD
  0
DICTIONARY
  5
D
102
{ACAD_REACTORS
330
C
102
}
330
C
100
AcDbDictionary
281
     1
  0
DICTIONARY
  5
1A
102
{ACAD_REACTORS
330
C
102
}
330
C
100
AcDbDictionary
281
     1
  3
Layout1
350
1E
  3
Model
350
22
  0
DICTIONARY
  5
3B
102
{ACAD_REACTORS
330
C
102
}
330
C
100
AcDbDictionary
281
     1
  3
ByBlock
350
3D
  3
ByLayer
350
3C
  3
Global
350
3E
  0
DICTIONARY
  5
1A7
102
{ACAD_REACTORS
330
C
102
}
330
C
100
AcDbDictionary
281
     1
  0
DICTIONARY
  5
17
102
{ACAD_REACTORS
330
C
102
}
330
C
100
AcDbDictionary
281
     1
  3
Standard
350
18
  0
DICTIONARY
  5
19
102
{ACAD_REACTORS
330
C
102
}
330
C
100
AcDbDictionary
281
     1
  0
ACDBDICTIONARYWDFLT
  5
E
102
{ACAD_REACTORS
330
C
102
}
330
C
100
AcDbDictionary
281
     1
  3
Normal
350
F
100
AcDbDictionaryWithDefault
340
F
  0
DICTIONARY
  5
183
102
{ACAD_REACTORS
330
C
102
}
330
C
100
AcDbDictionary
281
     1
  3
A0
350
184
  3
A1
350
185
  3
A2
350
186
  3
A3
350
187
  3
A4
350
188
  3
A5
350
189
  3
A6
350
18A
  3
A7
350
18B
  3
A8
350
18C
  3
A9
350
18D
  3
B0
350
18E
  3
B1
350
18F
  3
B2
350
190
  3
B3
350
191
  3
B4
350
192
  3
B5
350
193
  3
B6
350
194
  3
B7
350
195
  3
B8
350
196
  3
B9
350
197
  3
C0
350
198
  3
C1
350
199
  3
C2
350
19A
  3
C3
350
19B
  3
C4
350
19C
  3
C5
350
19D
  3
C6
350
19E
  3
C7
350
19F
  3
C8
350
1A0
  3
C9
350
1A1
  3
D0
350
1A2
  3
D1
350
1A3
  3
D2
350
1A4
  0
DICTIONARY
  5
2A
102
{ACAD_REACTORS
330
C
102
}
330
C
100
AcDbDictionary
281
     1
  3
2dWireframe
350
2F
  3
3D Hidden
350
31
  3
3dWireframe
350
30
  3
Basic
350
32
  3
Brighten
350
36
  3
ColorChange
350
3A
  3
Conceptual
350
34
  3
Dim
350
35
  3
Facepattern
350
39
  3
Flat
350
2B
  3
FlatWithEdges
350
2C
  3
Gouraud
350
2D
  3
GouraudWithEdges
350
2E
  3
Linepattern
350
38
  3
Realistic
350
33
  3
Thicken
350
37
  0
DICTIONARY
  5
1A5
102
{ACAD_REACTORS
330
C
102
}
330
C
100
AcDbDictionary
281
     1
  3
CANNOSCALE
350
1AA
  3
DIMASSOC
350
1AB
  3
HIDETEXT
350
1AC
  3
PSOLHEIGHT
350
1A9
  3
PSOLWIDTH
350
1A8
  0
XRECORD
  5
1AD
102
{ACAD_REACTORS
330
C
102
}
330
C
100
AcDbXrecord
280
     1
  1
DWGPROPS COOKIE
  2

  3

  4

  6
File was created by TR2_DExp
  7

  8

  9

300
=
301
=
302
=
303
=
304
=
305
=
306
=
307
=
308
=
309
=
 40
0.0
 41
2457941.392207674
 42
2457941.392207859
  1

 90
        0
  0
LAYOUT
  5
1E
102
{ACAD_REACTORS
330
1A
102
}
330
1A
100
AcDbPlotSettings
  1

  2
none_device
  4

  6

 40
0.0
 41
0.0
 42
0.0
 43
0.0
 44
0.0
 45
0.0
 46
0.0
 47
0.0
 48
0.0
 49
0.0
140
0.0
141
0.0
142
1.0
143
1.0
 70
   688
 72
     0
 73
     0
 74
     5
  7

 75
    16
147
1.0
148
0.0
149
0.0
100
AcDbLayout
  1
Layout1
 70
     0
 71
     1
 10
0.0
 20
0.0
 11
420.0
 21
297.0
 12
0.0
 22
0.0
 32
0.0
 14
1.000000000000000E+20
 24
1.000000000000000E+20
 34
1.000000000000000E+20
 15
-1.000000000000000E+20
 25
-1.000000000000000E+20
 35
-1.000000000000000E+20
146
0.0
 13
0.0
 23
0.0
 33
0.0
 16
1.0
 26
0.0
 36
0.0
 17
0.0
 27
1.0
 37
0.0
 76
     0
330
1B
  0
LAYOUT
  5
22
102
{ACAD_REACTORS
330
1A
102
}
330
1A
100
AcDbPlotSettings
  1

  2
none_device
  4

  6

 40
0.0
 41
0.0
 42
0.0
 43
0.0
 44
0.0
 45
0.0
 46
0.0
 47
0.0
 48
0.0
 49
0.0
140
0.0
141
0.0
142
1.0
143
1.0
 70
  1712
 72
     0
 73
     0
 74
     0
  7

 75
     0
147
1.0
148
0.0
149
0.0
100
AcDbLayout
  1
Model
 70
     1
 71
     0
 10
44.7482894046712
 20
40.0
 11
372.0
 21
261.3317617218607
 12
0.0
 22
0.0
 32
0.0
 14
44.7482894046712
 24
40.0
 34
0.0
 15
372.0
 25
261.3317617218607
 35
0.0
146
0.0
 13
0.0
 23
0.0
 33
0.0
 16
1.0
 26
0.0
 36
0.0
 17
0.0
 27
1.0
 37
0.0
 76
     0
330
1F
331
29
  0
MATERIAL
  5
3D
102
{ACAD_REACTORS
330
3B
102
}
102
{ACAD_XDICTIONARY
360
1D0
102
}
330
3B
100
AcDbMaterial
  1
ByBlock
  0
MATERIAL
  5
3C
102
{ACAD_REACTORS
330
3B
102
}
102
{ACAD_XDICTIONARY
360
1CE
102
}
330
3B
100
AcDbMaterial
  1
ByLayer
  0
MATERIAL
  5
3E
102
{ACAD_REACTORS
330
3B
102
}
102
{ACAD_XDICTIONARY
360
1D2
102
}
330
3B
100
AcDbMaterial
  1
Global
  0
MLINESTYLE
  5
18
102
{ACAD_REACTORS
330
17
102
}
330
17
100
AcDbMlineStyle
  2
Standard
 70
     0
  3

 62
   256
 51
90.0
 52
90.0
 71
     2
 49
0.5
 62
   256
  6
BYLAYER
 49
-0.5
 62
   256
  6
BYLAYER
  0
ACDBPLACEHOLDER
  5
F
102
{ACAD_REACTORS
330
E
102
}
330
E
  0
SCALE
  5
184
102
{ACAD_REACTORS
330
183
102
}
330
183
100
AcDbScale
 70
     0
300
1:1
140
1.0
141
1.0
290
     1
  0
SCALE
  5
185
102
{ACAD_REACTORS
330
183
102
}
330
183
100
AcDbScale
 70
     0
300
1:2
140
1.0
141
2.0
290
     0
  0
SCALE
  5
186
102
{ACAD_REACTORS
330
183
102
}
330
183
100
AcDbScale
 70
     0
300
1:4
140
1.0
141
4.0
290
     0
  0
SCALE
  5
187
102
{ACAD_REACTORS
330
183
102
}
330
183
100
AcDbScale
 70
     0
300
1:5
140
1.0
141
5.0
290
     0
  0
SCALE
  5
188
102
{ACAD_REACTORS
330
183
102
}
330
183
100
AcDbScale
 70
     0
300
1:8
140
1.0
141
8.0
290
     0
  0
SCALE
  5
189
102
{ACAD_REACTORS
330
183
102
}
330
183
100
AcDbScale
 70
     0
300
1:10
140
1.0
141
10.0
290
     0
  0
SCALE
  5
18A
102
{ACAD_REACTORS
330
183
102
}
330
183
100
AcDbScale
 70
     0
300
1:16
140
1.0
141
16.0
290
     0
  0
SCALE
  5
18B
102
{ACAD_REACTORS
330
183
102
}
330
183
100
AcDbScale
 70
     0
300
1:20
140
1.0
141
20.0
290
     0
  0
SCALE
  5
18C
102
{ACAD_REACTORS
330
183
102
}
330
183
100
AcDbScale
 70
     0
300
1:30
140
1.0
141
30.0
290
     0
  0
SCALE
  5
18D
102
{ACAD_REACTORS
330
183
102
}
330
183
100
AcDbScale
 70
     0
300
1:40
140
1.0
141
40.0
290
     0
  0
SCALE
  5
18E
102
{ACAD_REACTORS
330
183
102
}
330
183
100
AcDbScale
 70
     0
300
1:50
140
1.0
141
50.0
290
     0
  0
SCALE
  5
18F
102
{ACAD_REACTORS
330
183
102
}
330
183
100
AcDbScale
 70
     0
300
1:100
140
1.0
141
100.0
290
     0
  0
SCALE
  5
190
102
{ACAD_REACTORS
330
183
102
}
330
183
100
AcDbScale
 70
     0
300
2:1
140
2.0
141
1.0
290
     0
  0
SCALE
  5
191
102
{ACAD_REACTORS
330
183
102
}
330
183
100
AcDbScale
 70
     0
300
4:1
140
4.0
141
1.0
290
     0
  0
SCALE
  5
192
102
{ACAD_REACTORS
330
183
102
}
330
183
100
AcDbScale
 70
     0
300
8:1
140
8.0
141
1.0
290
     0
  0
SCALE
  5
193
102
{ACAD_REACTORS
330
183
102
}
330
183
100
AcDbScale
 70
     0
300
10:1
140
10.0
141
1.0
290
     0
  0
SCALE
  5
194
102
{ACAD_REACTORS
330
183
102
}
330
183
100
AcDbScale
 70
     0
300
100:1
140
100.0
141
1.0
290
     0
  0
SCALE
  5
195
102
{ACAD_REACTORS
330
183
102
}
330
183
100
AcDbScale
 70
     0
300
1/128" = 1'-0"
140
0.0078125
141
12.0
290
     0
  0
SCALE
  5
196
102
{ACAD_REACTORS
330
183
102
}
330
183
100
AcDbScale
 70
     0
300
1/64" = 1'-0"
140
0.015625
141
12.0
290
     0
  0
SCALE
  5
197
102
{ACAD_REACTORS
330
183
102
}
330
183
100
AcDbScale
 70
     0
300
1/32" = 1'-0"
140
0.03125
141
12.0
290
     0
  0
SCALE
  5
198
102
{ACAD_REACTORS
330
183
102
}
330
183
100
AcDbScale
 70
     0
300
1/16" = 1'-0"
140
0.0625
141
12.0
290
     0
  0
SCALE
  5
199
102
{ACAD_REACTORS
330
183
102
}
330
183
100
AcDbScale
 70
     0
300
3/32" = 1'-0"
140
0.09375
141
12.0
290
     0
  0
SCALE
  5
19A
102
{ACAD_REACTORS
330
183
102
}
330
183
100
AcDbScale
 70
     0
300
1/8" = 1'-0"
140
0.125
141
12.0
290
     0
  0
SCALE
  5
19B
102
{ACAD_REACTORS
330
183
102
}
330
183
100
AcDbScale
 70
     0
300
3/16" = 1'-0"
140
0.1875
141
12.0
290
     0
  0
SCALE
  5
19C
102
{ACAD_REACTORS
330
183
102
}
330
183
100
AcDbScale
 70
     0
300
1/4" = 1'-0"
140
0.25
141
12.0
290
     0
  0
SCALE
  5
19D
102
{ACAD_REACTORS
330
183
102
}
330
183
100
AcDbScale
 70
     0
300
3/8" = 1'-0"
140
0.375
141
12.0
290
     0
  0
SCALE
  5
19E
102
{ACAD_REACTORS
330
183
102
}
330
183
100
AcDbScale
 70
     0
300
1/2" = 1'-0"
140
0.5
141
12.0
290
     0
  0
SCALE
  5
19F
102
{ACAD_REACTORS
330
183
102
}
330
183
100
AcDbScale
 70
     0
300
3/4" = 1'-0"
140
0.75
141
12.0
290
     0
  0
SCALE
  5
1A0
102
{ACAD_REACTORS
330
183
102
}
330
183
100
AcDbScale
 70
     0
300
1" = 1'-0"
140
1.0
141
12.0
290
     0
  0
SCALE
  5
1A1
102
{ACAD_REACTORS
330
183
102
}
330
183
100
AcDbScale
 70
     0
300
1-1/2" = 1'-0"
140
1.5
141
12.0
290
     0
  0
SCALE
  5
1A2
102
{ACAD_REACTORS
330
183
102
}
330
183
100
AcDbScale
 70
     0
300
3" = 1'-0"
140
3.0
141
12.0
290
     0
  0
SCALE
  5
1A3
102
{ACAD_REACTORS
330
183
102
}
330
183
100
AcDbScale
 70
     0
300
6" = 1'-0"
140
6.0
141
12.0
290
     0
  0
SCALE
  5
1A4
102
{ACAD_REACTORS
330
183
102
}
330
183
100
AcDbScale
 70
     0
300
1'-0" = 1'-0"
140
12.0
141
12.0
290
     0
  0
VISUALSTYLE
  5
2F
102
{ACAD_REACTORS
330
2A
102
}
102
{ACAD_XDICTIONARY
360
1B6
102
}
330
2A
100
AcDbVisualStyle
  2
2dWireframe
 70
     4
 71
     0
 72
     2
 73
     0
 90
        0
 40
-0.6
 41
-30.0
 62
     5
 63
     7
 74
     1
 91
        4
 64
     7
 65
   257
 75
     1
175
     1
 42
1.0
 92
        0
 66
   257
 43
1.0
 76
     1
 77
     6
 78
     2
 67
     7
 79
     5
170
     0
171
     0
290
     0
174
     0
 93
        1
 44
0.0
173
     0
291
     0
 45
0.0
1001
ACAD
1000
AcDbSavedByObjectVersion
1070
     0
  0
VISUALSTYLE
  5
31
102
{ACAD_REACTORS
330
2A
102
}
102
{ACAD_XDICTIONARY
360
1BA
102
}
330
2A
100
AcDbVisualStyle
  2
3D Hidden
 70
     6
 71
     1
 72
     2
 73
     2
 90
        0
 40
-0.6
 41
-30.0
 62
     5
 63
     7
 74
     2
 91
        2
 64
     7
 65
   257
 75
     2
175
     1
 42
40.0
 92
        0
 66
   257
 43
1.0
 76
     1
 77
     6
 78
     2
 67
     7
 79
     3
170
     0
171
     0
290
     0
174
     0
 93
        1
 44
0.0
173
     0
291
     0
 45
0.0
1001
ACAD
1000
AcDbSavedByObjectVersion
1070
     0
  0
VISUALSTYLE
  5
30
102
{ACAD_REACTORS
330
2A
102
}
102
{ACAD_XDICTIONARY
360
1B8
102
}
330
2A
100
AcDbVisualStyle
  2
3dWireframe
 70
     5
 71
     0
 72
     2
 73
     0
 90
        0
 40
-0.6
 41
-30.0
 62
     5
 63
     7
 74
     1
 91
        4
 64
     7
 65
   257
 75
     1
175
     1
 42
1.0
 92
        0
 66
   257
 43
1.0
 76
     1
 77
     6
 78
     2
 67
     7
 79
     5
170
     0
171
     0
290
     0
174
     0
 93
        1
 44
0.0
173
     0
291
     0
 45
0.0
1001
ACAD
1000
AcDbSavedByObjectVersion
1070
     0
  0
VISUALSTYLE
  5
32
102
{ACAD_REACTORS
330
2A
102
}
102
{ACAD_XDICTIONARY
360
1BC
102
}
330
2A
100
AcDbVisualStyle
  2
Basic
 70
     7
 71
     1
 72
     0
 73
     1
 90
        0
 40
-0.6
 41
-30.0
 62
     5
 63
     7
 74
     0
 91
        4
 64
     7
 65
   257
 75
     1
175
     1
 42
1.0
 92
        8
 66
     7
 43
1.0
 76
     1
 77
     6
 78
     2
 67
     7
 79
     5
170
     0
171
     0
290
     0
174
     0
 93
        1
 44
0.0
173
     0
291
     1
 45
0.0
1001
ACAD
1000
AcDbSavedByObjectVersion
1070
     0
  0
VISUALSTYLE
  5
36
102
{ACAD_REACTORS
330
2A
102
}
102
{ACAD_XDICTIONARY
360
1C4
102
}
330
2A
100
AcDbVisualStyle
  2
Brighten
 70
    12
 71
     2
 72
     2
 73
     0
 90
        0
 40
-0.6
 41
-30.0
 62
     5
 63
     7
 74
     1
 91
        4
 64
     7
 65
   257
 75
     1
175
     1
 42
1.0
 92
        8
 66
     7
 43
1.0
 76
     1
 77
     6
 78
     2
 67
     7
 79
     5
170
     0
171
     0
290
     0
174
     0
 93
        1
 44
50.0
173
     0
291
     1
 45
0.0
1001
ACAD
1000
AcDbSavedByObjectVersion
1070
     0
  0
VISUALSTYLE
  5
3A
102
{ACAD_REACTORS
330
2A
102
}
102
{ACAD_XDICTIONARY
360
1CC
102
}
330
2A
100
AcDbVisualStyle
  2
ColorChange
 70
    16
 71
     2
 72
     2
 73
     3
 90
        0
 40
-0.6
 41
-30.0
 62
     5
 63
     8
 74
     1
 91
        4
 64
     7
 65
   257
 75
     1
175
     1
 42
1.0
 92
        8
 66
     8
 43
1.0
 76
     1
 77
     6
 78
     2
 67
     7
 79
     5
170
     0
171
     0
290
     0
174
     0
 93
        1
 44
0.0
173
     0
291
     1
 45
0.0
1001
ACAD
1000
AcDbSavedByObjectVersion
1070
     0
  0
VISUALSTYLE
  5
34
102
{ACAD_REACTORS
330
2A
102
}
102
{ACAD_XDICTIONARY
360
1C0
102
}
330
2A
100
AcDbVisualStyle
  2
Conceptual
 70
     9
 71
     3
 72
     2
 73
     0
 90
        0
 40
-0.6
 41
-30.0
 62
     5
 63
     7
 74
     2
 91
        2
 64
     7
 65
   257
 75
     1
175
     1
 42
40.0
 92
        8
 66
     7
 43
1.0
 76
     1
 77
     6
 78
     2
 67
     7
 79
     3
170
     0
171
     0
290
     0
174
     0
 93
        1
 44
0.0
173
     0
291
     0
 45
0.0
1001
ACAD
1000
AcDbSavedByObjectVersion
1070
     0
  0
VISUALSTYLE
  5
35
102
{ACAD_REACTORS
330
2A
102
}
102
{ACAD_XDICTIONARY
360
1C2
102
}
330
2A
100
AcDbVisualStyle
  2
Dim
 70
    11
 71
     2
 72
     2
 73
     0
 90
        0
 40
-0.6
 41
-30.0
 62
     5
 63
     7
 74
     1
 91
        4
 64
     7
 65
   257
 75
     1
175
     1
 42
1.0
 92
        8
 66
     7
 43
1.0
 76
     1
 77
     6
 78
     2
 67
     7
 79
     5
170
     0
171
     0
290
     0
174
     0
 93
        1
 44
-50.0
173
     0
291
     1
 45
0.0
1001
ACAD
1000
AcDbSavedByObjectVersion
1070
     0
  0
VISUALSTYLE
  5
39
102
{ACAD_REACTORS
330
2A
102
}
102
{ACAD_XDICTIONARY
360
1CA
102
}
330
2A
100
AcDbVisualStyle
  2
Facepattern
 70
    15
 71
     2
 72
     2
 73
     0
 90
        0
 40
-0.6
 41
-30.0
 62
     5
 63
     7
 74
     1
 91
        4
 64
     7
 65
   257
 75
     1
175
     1
 42
1.0
 92
        8
 66
     7
 43
1.0
 76
     1
 77
     6
 78
     2
 67
     7
 79
     5
170
     0
171
     0
290
     0
174
     0
 93
        1
 44
0.0
173
     0
291
     1
 45
0.0
1001
ACAD
1000
AcDbSavedByObjectVersion
1070
     0
  0
VISUALSTYLE
  5
2B
102
{ACAD_REACTORS
330
2A
102
}
102
{ACAD_XDICTIONARY
360
1AE
102
}
330
2A
100
AcDbVisualStyle
  2
Flat
 70
     0
 71
     2
 72
     1
 73
     1
 90
        2
 40
-0.6
 41
30.0
 62
     5
 63
     7
 74
     0
 91
        4
 64
     7
 65
   257
 75
     1
175
     1
 42
1.0
 92
        8
 66
     7
 43
1.0
 76
     1
 77
     6
 78
     2
 67
     7
 79
     5
170
     0
171
     0
290
     0
174
     0
 93
       13
 44
0.0
173
     0
291
     1
 45
0.0
1001
ACAD
1000
AcDbSavedByObjectVersion
1070
     0
  0
VISUALSTYLE
  5
2C
102
{ACAD_REACTORS
330
2A
102
}
102
{ACAD_XDICTIONARY
360
1B0
102
}
330
2A
100
AcDbVisualStyle
  2
FlatWithEdges
 70
     1
 71
     2
 72
     1
 73
     1
 90
        2
 40
-0.6
 41
30.0
 62
     5
 63
     7
 74
     1
 91
        4
 64
     7
 65
   257
 75
     1
175
     1
 42
1.0
 92
        0
 66
   257
 43
1.0
 76
     1
 77
     6
 78
     2
 67
     7
 79
     5
170
     0
171
     0
290
     0
174
     0
 93
       13
 44
0.0
173
     0
291
     1
 45
0.0
1001
ACAD
1000
AcDbSavedByObjectVersion
1070
     0
  0
VISUALSTYLE
  5
2D
102
{ACAD_REACTORS
330
2A
102
}
102
{ACAD_XDICTIONARY
360
1B2
102
}
330
2A
100
AcDbVisualStyle
  2
Gouraud
 70
     2
 71
     2
 72
     2
 73
     1
 90
        2
 40
-0.6
 41
30.0
 62
     5
 63
     7
 74
     0
 91
        4
 64
     7
 65
   257
 75
     1
175
     1
 42
1.0
 92
        0
 66
     7
 43
1.0
 76
     1
 77
     6
 78
     2
 67
     7
 79
     5
170
     0
171
     0
290
     0
174
     0
 93
       13
 44
0.0
173
     0
291
     1
 45
0.0
1001
ACAD
1000
AcDbSavedByObjectVersion
1070
     0
  0
VISUALSTYLE
  5
2E
102
{ACAD_REACTORS
330
2A
102
}
102
{ACAD_XDICTIONARY
360
1B4
102
}
330
2A
100
AcDbVisualStyle
  2
GouraudWithEdges
 70
     3
 71
     2
 72
     2
 73
     1
 90
        2
 40
-0.6
 41
30.0
 62
     5
 63
     7
 74
     1
 91
        4
 64
     7
 65
   257
 75
     1
175
     1
 42
1.0
 92
        0
 66
   257
 43
1.0
 76
     1
 77
     6
 78
     2
 67
     7
 79
     5
170
     0
171
     0
290
     0
174
     0
 93
       13
 44
0.0
173
     0
291
     1
 45
0.0
1001
ACAD
1000
AcDbSavedByObjectVersion
1070
     0
  0
VISUALSTYLE
  5
38
102
{ACAD_REACTORS
330
2A
102
}
102
{ACAD_XDICTIONARY
360
1C8
102
}
330
2A
100
AcDbVisualStyle
  2
Linepattern
 70
    14
 71
     2
 72
     2
 73
     0
 90
        0
 40
-0.6
 41
-30.0
 62
     5
 63
     7
 74
     1
 91
        4
 64
     7
 65
   257
 75
     7
175
     7
 42
1.0
 92
        8
 66
     7
 43
1.0
 76
     1
 77
     6
 78
     2
 67
     7
 79
     5
170
     0
171
     0
290
     0
174
     0
 93
        1
 44
0.0
173
     0
291
     1
 45
0.0
1001
ACAD
1000
AcDbSavedByObjectVersion
1070
     0
  0
VISUALSTYLE
  5
33
102
{ACAD_REACTORS
330
2A
102
}
102
{ACAD_XDICTIONARY
360
1BE
102
}
330
2A
100
AcDbVisualStyle
  2
Realistic
 70
     8
 71
     2
 72
     2
 73
     0
 90
        0
 40
-0.6
 41
-30.0
 62
     5
 63
     7
 74
     1
 91
        0
 64
     7
 65
   257
 75
     1
175
     1
 42
1.0
 92
        8
 66
     8
 43
1.0
 76
     1
 77
     6
 78
     2
 67
     7
 79
     5
170
     0
171
     0
290
     0
174
     0
 93
       13
 44
0.0
173
     0
291
     0
 45
0.0
1001
ACAD
1000
AcDbSavedByObjectVersion
1070
     0
  0
VISUALSTYLE
  5
37
102
{ACAD_REACTORS
330
2A
102
}
102
{ACAD_XDICTIONARY
360
1C6
102
}
330
2A
100
AcDbVisualStyle
  2
Thicken
 70
    13
 71
     2
 72
     2
 73
     0
 90
        0
 40
-0.6
 41
-30.0
 62
     5
 63
     7
 74
     1
 91
        4
 64
     7
 65
   257
 75
     1
175
     1
 42
1.0
 92
       12
 66
     7
 43
1.0
 76
     1
 77
     6
 78
     2
 67
     7
 79
     5
170
     0
171
     0
290
     0
174
     0
 93
        1
 44
0.0
173
     0
291
     1
 45
0.0
1001
ACAD
1000
AcDbSavedByObjectVersion
1070
     0
  0
DICTIONARYVAR
  5
1AA
102
{ACAD_REACTORS
330
1A5
102
}
330
1A5
100
DictionaryVariables
280
     0
  1
1:1
  0
DICTIONARYVAR
  5
1AB
102
{ACAD_REACTORS
330
1A5
102
}
330
1A5
100
DictionaryVariables
280
     0
  1
2
  0
DICTIONARYVAR
  5
1AC
102
{ACAD_REACTORS
330
1A5
102
}
330
1A5
100
DictionaryVariables
280
     0
  1
1
  0
DICTIONARYVAR
  5
1A9
102
{ACAD_REACTORS
330
1A5
102
}
330
1A5
100
DictionaryVariables
280
     0
  1
80.000000
  0
DICTIONARYVAR
  5
1A8
102
{ACAD_REACTORS
330
1A5
102
}
330
1A5
100
DictionaryVariables
280
     0
  1
5.000000
  0
DICTIONARY
  5
1D0
330
3D
100
AcDbDictionary
280
     1
281
     1
  3
ACAD_XREC_ROUNDTRIP
360
1D1
  0
DICTIONARY
  5
1CE
330
3C
100
AcDbDictionary
280
     1
281
     1
  3
ACAD_XREC_ROUNDTRIP
360
1CF
  0
DICTIONARY
  5
1D2
330
3E
100
AcDbDictionary
280
     1
281
     1
  3
ACAD_XREC_ROUNDTRIP
360
1D3
  0
DICTIONARY
  5
1B6
330
2F
100
AcDbDictionary
280
     1
281
     1
  3
ACAD_XREC_ROUNDTRIP
360
1B7
  0
DICTIONARY
  5
1BA
330
31
100
AcDbDictionary
280
     1
281
     1
  3
ACAD_XREC_ROUNDTRIP
360
1BB
  0
DICTIONARY
  5
1B8
330
30
100
AcDbDictionary
280
     1
281
     1
  3
ACAD_XREC_ROUNDTRIP
360
1B9
  0
DICTIONARY
  5
1BC
330
32
100
AcDbDictionary
280
     1
281
     1
  3
ACAD_XREC_ROUNDTRIP
360
1BD
  0
DICTIONARY
  5
1C4
330
36
100
AcDbDictionary
280
     1
281
     1
  3
ACAD_XREC_ROUNDTRIP
360
1C5
  0
DICTIONARY
  5
1CC
330
3A
100
AcDbDictionary
280
     1
281
     1
  3
ACAD_XREC_ROUNDTRIP
360
1CD
  0
DICTIONARY
  5
1C0
330
34
100
AcDbDictionary
280
     1
281
     1
  3
ACAD_XREC_ROUNDTRIP
360
1C1
  0
DICTIONARY
  5
1C2
330
35
100
AcDbDictionary
280
     1
281
     1
  3
ACAD_XREC_ROUNDTRIP
360
1C3
  0
DICTIONARY
  5
1CA
330
39
100
AcDbDictionary
280
     1
281
     1
  3
ACAD_XREC_ROUNDTRIP
360
1CB
  0
DICTIONARY
  5
1AE
330
2B
100
AcDbDictionary
280
     1
281
     1
  3
ACAD_XREC_ROUNDTRIP
360
1AF
  0
DICTIONARY
  5
1B0
330
2C
100
AcDbDictionary
280
     1
281
     1
  3
ACAD_XREC_ROUNDTRIP
360
1B1
  0
DICTIONARY
  5
1B2
330
2D
100
AcDbDictionary
280
     1
281
     1
  3
ACAD_XREC_ROUNDTRIP
360
1B3
  0
DICTIONARY
  5
1B4
330
2E
100
AcDbDictionary
280
     1
281
     1
  3
ACAD_XREC_ROUNDTRIP
360
1B5
  0
DICTIONARY
  5
1C8
330
38
100
AcDbDictionary
280
     1
281
     1
  3
ACAD_XREC_ROUNDTRIP
360
1C9
  0
DICTIONARY
  5
1BE
330
33
100
AcDbDictionary
280
     1
281
     1
  3
ACAD_XREC_ROUNDTRIP
360
1BF
  0
DICTIONARY
  5
1C6
330
37
100
AcDbDictionary
280
     1
281
     1
  3
ACAD_XREC_ROUNDTRIP
360
1C7
  0
XRECORD
  5
1D1
102
{ACAD_REACTORS
330
1D0
102
}
330
1D0
100
AcDbXrecord
280
     1
102
MATERIAL
148
0.0
149
0.0
149
0.0
 93
        0
 94
      127
282
     0
 72
     1
 77
     1
171
     1
175
     1
179
     1
273
     0
  0
XRECORD
  5
1CF
102
{ACAD_REACTORS
330
1CE
102
}
330
1CE
100
AcDbXrecord
280
     1
102
MATERIAL
148
0.0
149
0.0
149
0.0
 93
        0
 94
      127
282
     0
 72
     1
 77
     1
171
     1
175
     1
179
     1
273
     0
  0
XRECORD
  5
1D3
102
{ACAD_REACTORS
330
1D2
102
}
330
1D2
100
AcDbXrecord
280
     1
102
MATERIAL
148
0.0
149
0.0
149
0.0
 93
        0
 94
      127
282
     0
 72
     1
 77
     1
171
     1
175
     1
179
     1
273
     0
  0
XRECORD
  5
1B7
102
{ACAD_REACTORS
330
1B6
102
}
330
1B6
100
AcDbXrecord
280
     1
102
RTVSPropertyOp0
 70
     1
102
RTVSPropertyOp1
 70
     1
102
RTVSPropertyOp2
 70
     1
102
RTVSPropertyOp3
 70
     1
102
RTVSPropertyOp4
 70
     1
102
RTVSPropertyOp5
 70
     1
102
RTVSPropertyOp6
 70
     1
102
RTVSPropertyOp7
 70
     1
102
RTVSPropertyOp8
 70
     1
102
RTVSPropertyOp9
 70
     1
102
RTVSPropertyOp10
 70
     1
102
RTVSPropertyOp11
 70
     1
102
RTVSPropertyOp12
 70
     1
102
RTVSPropertyOp13
 70
     1
102
RTVSPropertyOp14
 70
     1
102
RTVSPropertyOp15
 70
     1
102
RTVSPropertyOp16
 70
     1
102
RTVSPropertyOp17
 70
     1
102
RTVSPropertyOp18
 70
     1
102
RTVSPropertyOp19
 70
     1
102
RTVSPropertyOp20
 70
     1
102
RTVSPropertyOp21
 70
     1
102
RTVSPropertyOp22
 70
     1
102
RTVSPropertyOp23
 70
     1
102
RTVSPropertyOp24
 70
     1
102
RTVSPropertyOp25
 70
     1
102
RTVSPropertyOp26
 70
     1
102
RTVSPropertyOp27
 70
     1
102
RTVSPropertyOp28
 70
     1
102
RTVSPropertyOp29
 70
     1
102
RTVSPropertyOp30
 70
     1
102
RTVSPropertyOp31
 70
     1
102
RTVSPropertyOp32
 70
     1
  0
XRECORD
  5
1BB
102
{ACAD_REACTORS
330
1BA
102
}
330
1BA
100
AcDbXrecord
280
     1
102
RTVSPropertyOp0
 70
     1
102
RTVSPropertyOp1
 70
     1
102
RTVSPropertyOp2
 70
     1
102
RTVSPropertyOp3
 70
     1
102
RTVSPropertyOp4
 70
     1
102
RTVSPropertyOp5
 70
     1
102
RTVSPropertyOp6
 70
     1
102
RTVSPropertyOp7
 70
     1
102
RTVSPropertyOp8
 70
     1
102
RTVSPropertyOp9
 70
     1
102
RTVSPropertyOp10
 70
     1
102
RTVSPropertyOp11
 70
     1
102
RTVSPropertyOp12
 70
     1
102
RTVSPropertyOp13
 70
     1
102
RTVSPropertyOp14
 70
     1
102
RTVSPropertyOp15
 70
     1
102
RTVSPropertyOp16
 70
     1
102
RTVSPropertyOp17
 70
     1
102
RTVSPropertyOp18
 70
     1
102
RTVSPropertyOp19
 70
     1
102
RTVSPropertyOp20
 70
     1
102
RTVSPropertyOp21
 70
     1
102
RTVSPropertyOp22
 70
     1
102
RTVSPropertyOp23
 70
     1
102
RTVSPropertyOp24
 70
     1
102
RTVSPropertyOp25
 70
     1
102
RTVSPropertyOp26
 70
     1
102
RTVSPropertyOp27
 70
     1
102
RTVSPropertyOp28
 70
     1
102
RTVSPropertyOp29
 70
     1
102
RTVSPropertyOp30
 70
     1
102
RTVSPropertyOp31
 70
     1
102
RTVSPropertyOp32
 70
     1
  0
XRECORD
  5
1B9
102
{ACAD_REACTORS
330
1B8
102
}
330
1B8
100
AcDbXrecord
280
     1
102
RTVSPropertyOp0
 70
     1
102
RTVSPropertyOp1
 70
     1
102
RTVSPropertyOp2
 70
     1
102
RTVSPropertyOp3
 70
     1
102
RTVSPropertyOp4
 70
     1
102
RTVSPropertyOp5
 70
     1
102
RTVSPropertyOp6
 70
     1
102
RTVSPropertyOp7
 70
     1
102
RTVSPropertyOp8
 70
     1
102
RTVSPropertyOp9
 70
     1
102
RTVSPropertyOp10
 70
     1
102
RTVSPropertyOp11
 70
     1
102
RTVSPropertyOp12
 70
     1
102
RTVSPropertyOp13
 70
     1
102
RTVSPropertyOp14
 70
     1
102
RTVSPropertyOp15
 70
     1
102
RTVSPropertyOp16
 70
     1
102
RTVSPropertyOp17
 70
     1
102
RTVSPropertyOp18
 70
     1
102
RTVSPropertyOp19
 70
     1
102
RTVSPropertyOp20
 70
     1
102
RTVSPropertyOp21
 70
     1
102
RTVSPropertyOp22
 70
     1
102
RTVSPropertyOp23
 70
     1
102
RTVSPropertyOp24
 70
     1
102
RTVSPropertyOp25
 70
     1
102
RTVSPropertyOp26
 70
     1
102
RTVSPropertyOp27
 70
     1
102
RTVSPropertyOp28
 70
     1
102
RTVSPropertyOp29
 70
     1
102
RTVSPropertyOp30
 70
     1
102
RTVSPropertyOp31
 70
     1
102
RTVSPropertyOp32
 70
     1
  0
XRECORD
  5
1BD
102
{ACAD_REACTORS
330
1BC
102
}
330
1BC
100
AcDbXrecord
280
     1
102
RTVSPropertyOp0
 70
     1
102
RTVSPropertyOp1
 70
     1
102
RTVSPropertyOp2
 70
     1
102
RTVSPropertyOp3
 70
     1
102
RTVSPropertyOp4
 70
     1
102
RTVSPropertyOp5
 70
     1
102
RTVSPropertyOp6
 70
     1
102
RTVSPropertyOp7
 70
     1
102
RTVSPropertyOp8
 70
     1
102
RTVSPropertyOp9
 70
     1
102
RTVSPropertyOp10
 70
     1
102
RTVSPropertyOp11
 70
     1
102
RTVSPropertyOp12
 70
     1
102
RTVSPropertyOp13
 70
     1
102
RTVSPropertyOp14
 70
     1
102
RTVSPropertyOp15
 70
     1
102
RTVSPropertyOp16
 70
     1
102
RTVSPropertyOp17
 70
     1
102
RTVSPropertyOp18
 70
     1
102
RTVSPropertyOp19
 70
     1
102
RTVSPropertyOp20
 70
     1
102
RTVSPropertyOp21
 70
     1
102
RTVSPropertyOp22
 70
     1
102
RTVSPropertyOp23
 70
     1
102
RTVSPropertyOp24
 70
     1
102
RTVSPropertyOp25
 70
     1
102
RTVSPropertyOp26
 70
     1
102
RTVSPropertyOp27
 70
     1
102
RTVSPropertyOp28
 70
     1
102
RTVSPropertyOp29
 70
     1
102
RTVSPropertyOp30
 70
     1
102
RTVSPropertyOp31
 70
     1
102
RTVSPropertyOp32
 70
     1
  0
XRECORD
  5
1C5
102
{ACAD_REACTORS
330
1C4
102
}
330
1C4
100
AcDbXrecord
280
     1
102
RTVSPropertyOp0
 70
     1
102
RTVSPropertyOp1
 70
     1
102
RTVSPropertyOp2
 70
     1
102
RTVSPropertyOp3
 70
     1
102
RTVSPropertyOp4
 70
     1
102
RTVSPropertyOp5
 70
     1
102
RTVSPropertyOp6
 70
     1
102
RTVSPropertyOp7
 70
     1
102
RTVSPropertyOp8
 70
     1
102
RTVSPropertyOp9
 70
     1
102
RTVSPropertyOp10
 70
     1
102
RTVSPropertyOp11
 70
     1
102
RTVSPropertyOp12
 70
     1
102
RTVSPropertyOp13
 70
     1
102
RTVSPropertyOp14
 70
     1
102
RTVSPropertyOp15
 70
     1
102
RTVSPropertyOp16
 70
     1
102
RTVSPropertyOp17
 70
     1
102
RTVSPropertyOp18
 70
     1
102
RTVSPropertyOp19
 70
     1
102
RTVSPropertyOp20
 70
     1
102
RTVSPropertyOp21
 70
     1
102
RTVSPropertyOp22
 70
     1
102
RTVSPropertyOp23
 70
     1
102
RTVSPropertyOp24
 70
     1
102
RTVSPropertyOp25
 70
     1
102
RTVSPropertyOp26
 70
     1
102
RTVSPropertyOp27
 70
     1
102
RTVSPropertyOp28
 70
     1
102
RTVSPropertyOp29
 70
     1
102
RTVSPropertyOp30
 70
     1
102
RTVSPropertyOp31
 70
     1
102
RTVSPropertyOp32
 70
     1
  0
XRECORD
  5
1CD
102
{ACAD_REACTORS
330
1CC
102
}
330
1CC
100
AcDbXrecord
280
     1
102
RTVSPropertyOp0
 70
     1
102
RTVSPropertyOp1
 70
     1
102
RTVSPropertyOp2
 70
     1
102
RTVSPropertyOp3
 70
     1
102
RTVSPropertyOp4
 70
     1
102
RTVSPropertyOp5
 70
     1
102
RTVSPropertyOp6
 70
     1
102
RTVSPropertyOp7
 70
     1
102
RTVSPropertyOp8
 70
     1
102
RTVSPropertyOp9
 70
     1
102
RTVSPropertyOp10
 70
     1
102
RTVSPropertyOp11
 70
     1
102
RTVSPropertyOp12
 70
     1
102
RTVSPropertyOp13
 70
     1
102
RTVSPropertyOp14
 70
     1
102
RTVSPropertyOp15
 70
     1
102
RTVSPropertyOp16
 70
     1
102
RTVSPropertyOp17
 70
     1
102
RTVSPropertyOp18
 70
     1
102
RTVSPropertyOp19
 70
     1
102
RTVSPropertyOp20
 70
     1
102
RTVSPropertyOp21
 70
     1
102
RTVSPropertyOp22
 70
     1
102
RTVSPropertyOp23
 70
     1
102
RTVSPropertyOp24
 70
     1
102
RTVSPropertyOp25
 70
     1
102
RTVSPropertyOp26
 70
     1
102
RTVSPropertyOp27
 70
     1
102
RTVSPropertyOp28
 70
     1
102
RTVSPropertyOp29
 70
     1
102
RTVSPropertyOp30
 70
     1
102
RTVSPropertyOp31
 70
     1
102
RTVSPropertyOp32
 70
     1
  0
XRECORD
  5
1C1
102
{ACAD_REACTORS
330
1C0
102
}
330
1C0
100
AcDbXrecord
280
     1
102
RTVSPropertyOp0
 70
     1
102
RTVSPropertyOp1
 70
     1
102
RTVSPropertyOp2
 70
     1
102
RTVSPropertyOp3
 70
     1
102
RTVSPropertyOp4
 70
     1
102
RTVSPropertyOp5
 70
     1
102
RTVSPropertyOp6
 70
     1
102
RTVSPropertyOp7
 70
     1
102
RTVSPropertyOp8
 70
     1
102
RTVSPropertyOp9
 70
     1
102
RTVSPropertyOp10
 70
     1
102
RTVSPropertyOp11
 70
     1
102
RTVSPropertyOp12
 70
     1
102
RTVSPropertyOp13
 70
     1
102
RTVSPropertyOp14
 70
     1
102
RTVSPropertyOp15
 70
     1
102
RTVSPropertyOp16
 70
     1
102
RTVSPropertyOp17
 70
     1
102
RTVSPropertyOp18
 70
     1
102
RTVSPropertyOp19
 70
     1
102
RTVSPropertyOp20
 70
     1
102
RTVSPropertyOp21
 70
     1
102
RTVSPropertyOp22
 70
     1
102
RTVSPropertyOp23
 70
     1
102
RTVSPropertyOp24
 70
     1
102
RTVSPropertyOp25
 70
     1
102
RTVSPropertyOp26
 70
     1
102
RTVSPropertyOp27
 70
     1
102
RTVSPropertyOp28
 70
     1
102
RTVSPropertyOp29
 70
     1
102
RTVSPropertyOp30
 70
     1
102
RTVSPropertyOp31
 70
     1
102
RTVSPropertyOp32
 70
     1
  0
XRECORD
  5
1C3
102
{ACAD_REACTORS
330
1C2
102
}
330
1C2
100
AcDbXrecord
280
     1
102
RTVSPropertyOp0
 70
     1
102
RTVSPropertyOp1
 70
     1
102
RTVSPropertyOp2
 70
     1
102
RTVSPropertyOp3
 70
     1
102
RTVSPropertyOp4
 70
     1
102
RTVSPropertyOp5
 70
     1
102
RTVSPropertyOp6
 70
     1
102
RTVSPropertyOp7
 70
     1
102
RTVSPropertyOp8
 70
     1
102
RTVSPropertyOp9
 70
     1
102
RTVSPropertyOp10
 70
     1
102
RTVSPropertyOp11
 70
     1
102
RTVSPropertyOp12
 70
     1
102
RTVSPropertyOp13
 70
     1
102
RTVSPropertyOp14
 70
     1
102
RTVSPropertyOp15
 70
     1
102
RTVSPropertyOp16
 70
     1
102
RTVSPropertyOp17
 70
     1
102
RTVSPropertyOp18
 70
     1
102
RTVSPropertyOp19
 70
     1
102
RTVSPropertyOp20
 70
     1
102
RTVSPropertyOp21
 70
     1
102
RTVSPropertyOp22
 70
     1
102
RTVSPropertyOp23
 70
     1
102
RTVSPropertyOp24
 70
     1
102
RTVSPropertyOp25
 70
     1
102
RTVSPropertyOp26
 70
     1
102
RTVSPropertyOp27
 70
     1
102
RTVSPropertyOp28
 70
     1
102
RTVSPropertyOp29
 70
     1
102
RTVSPropertyOp30
 70
     1
102
RTVSPropertyOp31
 70
     1
102
RTVSPropertyOp32
 70
     1
  0
XRECORD
  5
1CB
102
{ACAD_REACTORS
330
1CA
102
}
330
1CA
100
AcDbXrecord
280
     1
102
RTVSPropertyOp0
 70
     1
102
RTVSPropertyOp1
 70
     1
102
RTVSPropertyOp2
 70
     1
102
RTVSPropertyOp3
 70
     1
102
RTVSPropertyOp4
 70
     1
102
RTVSPropertyOp5
 70
     1
102
RTVSPropertyOp6
 70
     1
102
RTVSPropertyOp7
 70
     1
102
RTVSPropertyOp8
 70
     1
102
RTVSPropertyOp9
 70
     1
102
RTVSPropertyOp10
 70
     1
102
RTVSPropertyOp11
 70
     1
102
RTVSPropertyOp12
 70
     1
102
RTVSPropertyOp13
 70
     1
102
RTVSPropertyOp14
 70
     1
102
RTVSPropertyOp15
 70
     1
102
RTVSPropertyOp16
 70
     1
102
RTVSPropertyOp17
 70
     1
102
RTVSPropertyOp18
 70
     1
102
RTVSPropertyOp19
 70
     1
102
RTVSPropertyOp20
 70
     1
102
RTVSPropertyOp21
 70
     1
102
RTVSPropertyOp22
 70
     1
102
RTVSPropertyOp23
 70
     1
102
RTVSPropertyOp24
 70
     1
102
RTVSPropertyOp25
 70
     1
102
RTVSPropertyOp26
 70
     1
102
RTVSPropertyOp27
 70
     1
102
RTVSPropertyOp28
 70
     1
102
RTVSPropertyOp29
 70
     1
102
RTVSPropertyOp30
 70
     1
102
RTVSPropertyOp31
 70
     1
102
RTVSPropertyOp32
 70
     1
  0
XRECORD
  5
1AF
102
{ACAD_REACTORS
330
1AE
102
}
330
1AE
100
AcDbXrecord
280
     1
102
RTVSPropertyOp0
 70
     1
102
RTVSPropertyOp1
 70
     1
102
RTVSPropertyOp2
 70
     1
102
RTVSPropertyOp3
 70
     1
102
RTVSPropertyOp4
 70
     1
102
RTVSPropertyOp5
 70
     1
102
RTVSPropertyOp6
 70
     1
102
RTVSPropertyOp7
 70
     1
102
RTVSPropertyOp8
 70
     1
102
RTVSPropertyOp9
 70
     1
102
RTVSPropertyOp10
 70
     1
102
RTVSPropertyOp11
 70
     1
102
RTVSPropertyOp12
 70
     1
102
RTVSPropertyOp13
 70
     1
102
RTVSPropertyOp14
 70
     1
102
RTVSPropertyOp15
 70
     1
102
RTVSPropertyOp16
 70
     1
102
RTVSPropertyOp17
 70
     1
102
RTVSPropertyOp18
 70
     1
102
RTVSPropertyOp19
 70
     1
102
RTVSPropertyOp20
 70
     1
102
RTVSPropertyOp21
 70
     1
102
RTVSPropertyOp22
 70
     1
102
RTVSPropertyOp23
 70
     1
102
RTVSPropertyOp24
 70
     1
102
RTVSPropertyOp25
 70
     1
102
RTVSPropertyOp26
 70
     1
102
RTVSPropertyOp27
 70
     1
102
RTVSPropertyOp28
 70
     1
102
RTVSPropertyOp29
 70
     1
102
RTVSPropertyOp30
 70
     1
102
RTVSPropertyOp31
 70
     1
102
RTVSPropertyOp32
 70
     1
  0
XRECORD
  5
1B1
102
{ACAD_REACTORS
330
1B0
102
}
330
1B0
100
AcDbXrecord
280
     1
102
RTVSPropertyOp0
 70
     1
102
RTVSPropertyOp1
 70
     1
102
RTVSPropertyOp2
 70
     1
102
RTVSPropertyOp3
 70
     1
102
RTVSPropertyOp4
 70
     1
102
RTVSPropertyOp5
 70
     1
102
RTVSPropertyOp6
 70
     1
102
RTVSPropertyOp7
 70
     1
102
RTVSPropertyOp8
 70
     1
102
RTVSPropertyOp9
 70
     1
102
RTVSPropertyOp10
 70
     1
102
RTVSPropertyOp11
 70
     1
102
RTVSPropertyOp12
 70
     1
102
RTVSPropertyOp13
 70
     1
102
RTVSPropertyOp14
 70
     1
102
RTVSPropertyOp15
 70
     1
102
RTVSPropertyOp16
 70
     1
102
RTVSPropertyOp17
 70
     1
102
RTVSPropertyOp18
 70
     1
102
RTVSPropertyOp19
 70
     1
102
RTVSPropertyOp20
 70
     1
102
RTVSPropertyOp21
 70
     1
102
RTVSPropertyOp22
 70
     1
102
RTVSPropertyOp23
 70
     1
102
RTVSPropertyOp24
 70
     1
102
RTVSPropertyOp25
 70
     1
102
RTVSPropertyOp26
 70
     1
102
RTVSPropertyOp27
 70
     1
102
RTVSPropertyOp28
 70
     1
102
RTVSPropertyOp29
 70
     1
102
RTVSPropertyOp30
 70
     1
102
RTVSPropertyOp31
 70
     1
102
RTVSPropertyOp32
 70
     1
  0
XRECORD
  5
1B3
102
{ACAD_REACTORS
330
1B2
102
}
330
1B2
100
AcDbXrecord
280
     1
102
RTVSPropertyOp0
 70
     1
102
RTVSPropertyOp1
 70
     1
102
RTVSPropertyOp2
 70
     1
102
RTVSPropertyOp3
 70
     1
102
RTVSPropertyOp4
 70
     1
102
RTVSPropertyOp5
 70
     1
102
RTVSPropertyOp6
 70
     1
102
RTVSPropertyOp7
 70
     1
102
RTVSPropertyOp8
 70
     1
102
RTVSPropertyOp9
 70
     1
102
RTVSPropertyOp10
 70
     1
102
RTVSPropertyOp11
 70
     1
102
RTVSPropertyOp12
 70
     1
102
RTVSPropertyOp13
 70
     1
102
RTVSPropertyOp14
 70
     1
102
RTVSPropertyOp15
 70
     1
102
RTVSPropertyOp16
 70
     1
102
RTVSPropertyOp17
 70
     1
102
RTVSPropertyOp18
 70
     1
102
RTVSPropertyOp19
 70
     1
102
RTVSPropertyOp20
 70
     1
102
RTVSPropertyOp21
 70
     1
102
RTVSPropertyOp22
 70
     1
102
RTVSPropertyOp23
 70
     1
102
RTVSPropertyOp24
 70
     1
102
RTVSPropertyOp25
 70
     1
102
RTVSPropertyOp26
 70
     1
102
RTVSPropertyOp27
 70
     1
102
RTVSPropertyOp28
 70
     1
102
RTVSPropertyOp29
 70
     1
102
RTVSPropertyOp30
 70
     1
102
RTVSPropertyOp31
 70
     1
102
RTVSPropertyOp32
 70
     1
  0
XRECORD
  5
1B5
102
{ACAD_REACTORS
330
1B4
102
}
330
1B4
100
AcDbXrecord
280
     1
102
RTVSPropertyOp0
 70
     1
102
RTVSPropertyOp1
 70
     1
102
RTVSPropertyOp2
 70
     1
102
RTVSPropertyOp3
 70
     1
102
RTVSPropertyOp4
 70
     1
102
RTVSPropertyOp5
 70
     1
102
RTVSPropertyOp6
 70
     1
102
RTVSPropertyOp7
 70
     1
102
RTVSPropertyOp8
 70
     1
102
RTVSPropertyOp9
 70
     1
102
RTVSPropertyOp10
 70
     1
102
RTVSPropertyOp11
 70
     1
102
RTVSPropertyOp12
 70
     1
102
RTVSPropertyOp13
 70
     1
102
RTVSPropertyOp14
 70
     1
102
RTVSPropertyOp15
 70
     1
102
RTVSPropertyOp16
 70
     1
102
RTVSPropertyOp17
 70
     1
102
RTVSPropertyOp18
 70
     1
102
RTVSPropertyOp19
 70
     1
102
RTVSPropertyOp20
 70
     1
102
RTVSPropertyOp21
 70
     1
102
RTVSPropertyOp22
 70
     1
102
RTVSPropertyOp23
 70
     1
102
RTVSPropertyOp24
 70
     1
102
RTVSPropertyOp25
 70
     1
102
RTVSPropertyOp26
 70
     1
102
RTVSPropertyOp27
 70
     1
102
RTVSPropertyOp28
 70
     1
102
RTVSPropertyOp29
 70
     1
102
RTVSPropertyOp30
 70
     1
102
RTVSPropertyOp31
 70
     1
102
RTVSPropertyOp32
 70
     1
  0
XRECORD
  5
1C9
102
{ACAD_REACTORS
330
1C8
102
}
330
1C8
100
AcDbXrecord
280
     1
102
RTVSPropertyOp0
 70
     1
102
RTVSPropertyOp1
 70
     1
102
RTVSPropertyOp2
 70
     1
102
RTVSPropertyOp3
 70
     1
102
RTVSPropertyOp4
 70
     1
102
RTVSPropertyOp5
 70
     1
102
RTVSPropertyOp6
 70
     1
102
RTVSPropertyOp7
 70
     1
102
RTVSPropertyOp8
 70
     1
102
RTVSPropertyOp9
 70
     1
102
RTVSPropertyOp10
 70
     1
102
RTVSPropertyOp11
 70
     1
102
RTVSPropertyOp12
 70
     1
102
RTVSPropertyOp13
 70
     1
102
RTVSPropertyOp14
 70
     1
102
RTVSPropertyOp15
 70
     1
102
RTVSPropertyOp16
 70
     1
102
RTVSPropertyOp17
 70
     1
102
RTVSPropertyOp18
 70
     1
102
RTVSPropertyOp19
 70
     1
102
RTVSPropertyOp20
 70
     1
102
RTVSPropertyOp21
 70
     1
102
RTVSPropertyOp22
 70
     1
102
RTVSPropertyOp23
 70
     1
102
RTVSPropertyOp24
 70
     1
102
RTVSPropertyOp25
 70
     1
102
RTVSPropertyOp26
 70
     1
102
RTVSPropertyOp27
 70
     1
102
RTVSPropertyOp28
 70
     1
102
RTVSPropertyOp29
 70
     1
102
RTVSPropertyOp30
 70
     1
102
RTVSPropertyOp31
 70
     1
102
RTVSPropertyOp32
 70
     1
  0
XRECORD
  5
1BF
102
{ACAD_REACTORS
330
1BE
102
}
330
1BE
100
AcDbXrecord
280
     1
102
RTVSPropertyOp0
 70
     1
102
RTVSPropertyOp1
 70
     1
102
RTVSPropertyOp2
 70
     1
102
RTVSPropertyOp3
 70
     1
102
RTVSPropertyOp4
 70
     1
102
RTVSPropertyOp5
 70
     1
102
RTVSPropertyOp6
 70
     1
102
RTVSPropertyOp7
 70
     1
102
RTVSPropertyOp8
 70
     1
102
RTVSPropertyOp9
 70
     1
102
RTVSPropertyOp10
 70
     1
102
RTVSPropertyOp11
 70
     1
102
RTVSPropertyOp12
 70
     1
102
RTVSPropertyOp13
 70
     1
102
RTVSPropertyOp14
 70
     1
102
RTVSPropertyOp15
 70
     1
102
RTVSPropertyOp16
 70
     1
102
RTVSPropertyOp17
 70
     1
102
RTVSPropertyOp18
 70
     1
102
RTVSPropertyOp19
 70
     1
102
RTVSPropertyOp20
 70
     1
102
RTVSPropertyOp21
 70
     1
102
RTVSPropertyOp22
 70
     1
102
RTVSPropertyOp23
 70
     1
102
RTVSPropertyOp24
 70
     1
102
RTVSPropertyOp25
 70
     1
102
RTVSPropertyOp26
 70
     1
102
RTVSPropertyOp27
 70
     1
102
RTVSPropertyOp28
 70
     1
102
RTVSPropertyOp29
 70
     1
102
RTVSPropertyOp30
 70
     1
102
RTVSPropertyOp31
 70
     1
102
RTVSPropertyOp32
 70
     1
  0
XRECORD
  5
1C7
102
{ACAD_REACTORS
330
1C6
102
}
330
1C6
100
AcDbXrecord
280
     1
102
RTVSPropertyOp0
 70
     1
102
RTVSPropertyOp1
 70
     1
102
RTVSPropertyOp2
 70
     1
102
RTVSPropertyOp3
 70
     1
102
RTVSPropertyOp4
 70
     1
102
RTVSPropertyOp5
 70
     1
102
RTVSPropertyOp6
 70
     1
102
RTVSPropertyOp7
 70
     1
102
RTVSPropertyOp8
 70
     1
102
RTVSPropertyOp9
 70
     1
102
RTVSPropertyOp10
 70
     1
102
RTVSPropertyOp11
 70
     1
102
RTVSPropertyOp12
 70
     1
102
RTVSPropertyOp13
 70
     1
102
RTVSPropertyOp14
 70
     1
102
RTVSPropertyOp15
 70
     1
102
RTVSPropertyOp16
 70
     1
102
RTVSPropertyOp17
 70
     1
102
RTVSPropertyOp18
 70
     1
102
RTVSPropertyOp19
 70
     1
102
RTVSPropertyOp20
 70
     1
102
RTVSPropertyOp21
 70
     1
102
RTVSPropertyOp22
 70
     1
102
RTVSPropertyOp23
 70
     1
102
RTVSPropertyOp24
 70
     1
102
RTVSPropertyOp25
 70
     1
102
RTVSPropertyOp26
 70
     1
102
RTVSPropertyOp27
 70
     1
102
RTVSPropertyOp28
 70
     1
102
RTVSPropertyOp29
 70
     1
102
RTVSPropertyOp30
 70
     1
102
RTVSPropertyOp31
 70
     1
102
RTVSPropertyOp32
 70
     1
  0
ENDSEC
  0
SECTION
  2
THUMBNAILIMAGE
 90
    16364
310
28000000B40000005500000001000800000000000000000000000000000000000000000000000000FFFFFF00FF000000FFFF000000FF000000FFFF000000FF00FF00FF000000000080808000C0C0C000FF000000FF7F7F00A5000000A55252007F0000007F3F3F004C0000004C2626002600000026131300FF3F0000FF9F7F
310
00A5290000A56752007F1F00007F4F3F004C1300004C2F26002609000026171300FF7F0000FFBF7F00A5520000A57C52007F3F00007F5F3F004C2600004C39260026130000261C1300FFBF0000FFDF7F00A57C0000A59152007F5F00007F6F3F004C3900004C422600261C000026211300FFFF0000FFFF7F00A5A50000A5A5
310
52007F7F00007F7F3F004C4C00004C4C26002626000026261300BFFF0000DFFF7F007CA5000091A552005F7F00006F7F3F00394C0000424C26001C260000212613007FFF0000BFFF7F0052A500007CA552003F7F00005F7F3F00264C0000394C2600132600001C2613003FFF00009FFF7F0029A5000067A552001F7F00004F
310
7F3F00134C00002F4C2600092600001726130000FF00007FFF7F0000A5000052A55200007F00003F7F3F00004C0000264C2600002600001326130000FF3F007FFF9F0000A5290052A56700007F1F003F7F4F00004C1300264C2F00002609001326170000FF7F007FFFBF0000A5520052A57C00007F3F003F7F5F00004C2600
310
264C39000026130013261C0000FFBF007FFFDF0000A57C0052A59100007F5F003F7F6F00004C3900264C420000261C001326210000FFFF007FFFFF0000A5A50052A5A500007F7F003F7F7F00004C4C00264C4C00002626001326260000BFFF007FDFFF00007CA5005291A500005F7F003F6F7F0000394C0026424C00001C26
310
0013212600007FFF007FBFFF000052A500527CA500003F7F003F5F7F0000264C0026394C0000132600131C2600003FFF007F9FFF000029A5005267A500001F7F003F4F7F0000134C00262F4C0000092600131726000000FF007F7FFF000000A5005252A50000007F003F3F7F0000004C0026264C0000002600131326003F00
310
FF009F7FFF002900A5006752A5001F007F004F3F7F0013004C002F264C0009002600171326007F00FF00BF7FFF005200A5007C52A5003F007F005F3F7F0026004C0039264C00130026001C132600BF00FF00DF7FFF007C00A5009152A5005F007F006F3F7F0039004C0042264C001C00260021132600FF00FF00FF7FFF00A5
310
00A500A552A5007F007F007F3F7F004C004C004C264C002600260026132600FF00BF00FF7FDF00A5007C00A55291007F005F007F3F6F004C0039004C26420026001C0026132100FF007F00FF7FBF00A5005200A5527C007F003F007F3F5F004C0026004C2639002600130026131C00FF003F00FF7F9F00A5002900A5526700
310
7F001F007F3F4F004C0013004C262F002600090026131700000000002D2D2D005B5B5B0089898900B7B7B700B3B3B30000000000000000000000000000000000000000000000000000000000000000000000000000000000000000000000000000000000000000000000000000000000000000000000000000000000000000
310
00000000000000000000000000000000000000000000000000000000000000000000000000000000000000000000000000000000000000000000000000000000000000000000000000000000000000000000000000000000000000000000000000000000000000000000000000000000000000000000000000000000000000
310
00000000000000000000000000000000000000000000000000000000000000000000000000000000000000000000000000000000000000000000000000000000000000000000000000000000000000000000000000000000000000000000000000000000000000000000000000000000000000000000000000000000000000
310
00000000000000000000000000000000000000000000000000000000000000000000000000000000000000000000000000000000000000000000000000000000000000000000000000000000000000000000000000000000000000000000000000000000000000000000000000000000000000000000000000000000000000
310
00000000000000000000000000000000000000000000000000000000000000000000000000000000000000000000000000000000000000000000000000000000000000000000000000000000000000000000000000000000000000000000000000000000000000000000000000000000000000000000000000000000000000
310
00000000000000000000000000000000000000000000000000000000000000000000000000000000000000000000000000000000000000000000000000000000000000000000000000000000000000000000000000000000000000000000000000000000000000000000000000000000000000000000000000000000000000
310
00000000000000000000000000000000000000000000000000000000000000000000000000000000000000000000000000000000000000000000000000000000000000000000000000000000000000000000000000000000000000000000000000000000000000000000000000000000000000000000000000000000000000
310
00000000000000000000000000000000000000000000000000000000000000000000000000000000000000000000000000000000000000000000000000000000000000000000000000000000000000000000000000000000000000000000000000000000000000000000000000000000000000000000000000000000000000
310
00000000000000000000000000000000000000000000000000000000000000000000000000000000000000000000000000000000000000000000000000000000000000000000000000000000000000000000000000000000000000000000000000000000000000000000000000000000000000000000000000000000000000
310
00000000000000000000000000000000000000000000000000000000000000000000000000000000000000000000000000000000000000000000000000000000000000000000000000000000000000000000000000000000000000000000000000000000000000000000000000000000000000000000000000000000000000
310
00000000000000000000000000000000000000000000000000000000000000000000000000000000000000000000000000000000000000000000000000000000000000000000000000000000000000000000000000000000000000000000000000000000000000000000000000000000000000000000000000000000000000
310
00000000000000000000000000000000000000000000000000000000000000000000000000000000000000000000000000000000000000000000000000000000000000000000000000000000000000000000000000000000000000000000000000000000000000000000000000000000000000000000000000000000000000
310
00000000000000000000000000000000000000000000000000000000000000000000000000000000000000000000000000000000000000000000000000000000000000000707070707070707070707070707070707070707070707070707070707070707070707070707070000000000000000000000000000000000000000
310
00000000000000000000000000000000000000000000000000000000000000000000000000000000000000000000000000000000000000000000000000000000000000000000000000000000000000000000000000000000000000000000000000000000000000000000000000000000000000000000000000070707000707
310
07070000000000000000000000070707070707070700000000000000000000000700000000000000000000000000000000000000000000000000000000000000000000000000000000000000000000000000000000000000000000000000000000000000000000000000000000000000000000000000000000000000000000
310
00000000000000000000000000000000000000000000000000000000000000000000000000000000000000000000000707070007070707000000000000000000000007070707070707070000000000000000000000070000000000000000000000000000000000000000000000000000000000000000000000000000000000
310
00000000000000000000000000000000000000000000000000000000000000000000000000000000000000000000000000000000000000000000000000000000000000000000000000000000000000000000000000000000000000000000000000000000070000000000000700000000000000000000000000000000000000
310
00000000000000000000000700000000000000000000000000000000000000000000000000000000000000000000000000000000000000000000000000000000000000000000000000000000000000000000000000000000000000000000000000000000000000000000000000000000000000000000000000000000000000
310
00000000000000000000000000000000000000000000000000000707070707070707070707070707070707070707070707070707070707070707070707070707070000000000000000000000000000000000000000000000000000000000000000000000000000000000000000000000000000000000000000000000000000
310
00000000000000000000000000000000000000000000000000000000000000000000000000000000000000000000000000000000000000000000000000000000000000000000000000000000000000070000000000000700000000000000000000000000000000000000000000000000000000000007000000000000000000
310
00000000000000000000000000000000000000000000000000000000000000000000000000000000000000000000000000000000000000000000000000000000000000000000000000000000000000000000000000000000000000000000000000000000000000000000000000000000000000000000000000000000000000
310
00000000000707070000070707000000000000000000000000070700000000000007070000000000000000070000000000000000000000000000000000000000000000000000000000000000000000000000000000000000000000000000000000000000000000000000000000000000000000000000000000000000000000
310
00000000000000000000000000000000000000000000000000000000000000000000000000000000000000000000000000000000000000000000070707000707070700000000000000070707070707070007070707070707000000000000000007000000000000000000000000000000000000000000000000000000000000
310
00000000000000000000000000000000000000000000000000000000000000000000000000000000000000000000000000000000000000000000000000000000000000000000000000000000000000000000000000000000000000000000000000000000000000000000000000000007070700000707070000000000000007
310
07070000070700070707070707070000000000000000070000000000000000000000000000000000000000000000000000000000000000000000000000000000000000000000000000000000000000000000000000000000000000000000000000000000000000000000000000000000000000000000000000000000000000
310
00000000000000000000000000000000000000000000000000000000000000000000000000070000000000000700000000000000000000000000000000000000000000000000000000000007000000000000000000000000000000000000000000000000000000000000000000000000000000000000000000000000000000
310
00000000000000000000000000000000000000000000000000000000000000000000000000000000000000000000000000000000000000000000000000000000000000000000000000000000000000000000000000000000000007000000000000070000000000000000000000000000000000000000000000000000000000
310
00070000000000000000000000000000000000000000000000000000000000000000000000000000000000000000000000000000000000000000000000000000000000000000000000000000000000000000000000000000000000000000000000000000000000000000000000000000000000000000000000000000000000
310
00000000000000000000000000000000070000000000000700000000000000000000000000000000000000000000000000000000000007000000000000000000000000000000000000000000000000000000000000000000000000000000000000000000000000000000000000000000000000000000000000000000000000
310
00000000000000000000000000000000000000000000000004000000000000000000000000000000000000000000000000000000000000000000000000000000000000000007070707070707070707070707070707070707070707070707070707070707070707070707070700000000000000000000000000000000000000
310
00000000000000000000000000000000000000000000000000000000000000000000000000000000000000000000000000000000000000000000000000000000000000000000000000000000000400000000000000000000000000000000000000000000000000000000000000000000000000000000000000000000000000
310
00000000000000000000000000000000000000000000000000000000000000000000000000000000000000000000000000000000000000000000000000000000000000000000000000000000000000000000000000000000000000000000000000000000000000000000000000000000000000000000000000000000000000
310
00000004000000000000000000000000000000000000000000000000000000000000000000000000000000000000000000000000000000000000000000000000000000000000000000000000000000000000000000000000000000000000000000000000000000000000000000000000000000000000000000000000000000
310
00000000000000000000000000000000000000000000000000000000000000000000000000969696000000000000000000000000000096960496000000000000000000000000000096969600000000000000000000000000000000000000000000000000000000000000000000000000000000000000000000000000000000
310
00000000000000000000000000000000000000000000000000000000000000000000000000000000000000000000000000000000000000000000000000000000000000000000000000000000000000000000000000000000000096969600000400000000000000000000009600049600000000000000000000000004009696
310
96000000000000000000000000000000000000000000000000000000000000000000000000000000000000000000000000000000000000000000000000000000000000000000000000000000000000000000000000000000000000000000000000000000000000000000000000000000000000000000000000000000000000
310
00000000000000000000000000000000969600009604969696969696969696969696000496969696969696969696969696040000969600000000000000000000000000000000000000000000000000000000000000000000000000000000000000000000000000000000000000000000000000000000000000000000000000
310
00000000000000000000000000000000000000000000000000000000000000000000000000000000000000000000000000000000000000000000000000000000000000000096969696960496969696969696969696969600049696969696969696969696969696969696960000000000000000000000000000000000000000
310
00000000000000000000000000000000000000000000000000000000000000000000000000000000000000000000000000000000000000000000000000000000000000000000000000000000000000000000000000000000000000000000000000000000000000000000000000000000000000000000000000009696969696
310
04969696969696969696969696960496969696969696969696969696049696969600000000000000000000000000000000000000000000000000000000000000000000000000000000000000000000000000000000000000000000000000000000000000000000000000000000000000000000000000000000000000000000
310
00000000000000000000000000000000000000000000000000000000000000000000000000000000000000000000000000000000960400000000000000000000000000040000000000000000000000009604000000000000000000000000000000000000000000000000000000000000000000000000000000000000000000
310
00000000000000000000000000000000000000000000000000000000000000000000000000000000000000000000000000000000000000000000000000000000000000000000000000000000000000000000000000000000000000000000000000000000000000000000040000000000000000000000000004000000000000
310
00000000000000040000000000000000000000000000000000000000000000000000000000000000000000000000000000000000000000000000000000000000000000000000000000000000000000000000000000000000000000000000000000000000000000000000000000000000000000000000000000000000000000
310
00000000000000000000000000000000000000000000000000000000000000000000000000000000000000000000040000000000000000000000000000000000000000000000000000000000000000000000000000000000000000000000000000000000000000000000000000000000000000000000000000000000000000
310
00000000000000000000000000000000000000000000000000000000000000000000000000000000000000000000000000000000000000000000000000000000000000000000000000000000000000000000000000000000000000000000000000000000000000000000000000000000000000000000000000000000000000
310
00000000000000000000000000000000000000000000000000000000000000000000000000000000000000000000000000000000000000000000000000000000000000000000000000000000000000000000000000000000000000000000000000000000000000000000000000000000000000000000000000000000000000
310
00000000000000000000000000000000000000000000000000000000000000000000000000000000000000000000000000000000000000000000000000000000000000000000000000000000000000000000000000000000000000000000000000000000000000000000000000000000000000000000000000000000000000
310
00000000000000000000000000000000000000000000000000000000000000000000000000000000000000000000000000000000000000000000000000000000000000000000000000000000000000000000000000000000000000000000000000000000000000000000000000000000000000000000000000000000000000
310
00000000000000000000000000000000000000000000000000000000000000000000000000000000000000000000000000000000000000000000000000000000000000000000000000000000000000000000000000000000000000000000000000000000000000000000000000000000000000000000000000000000000000
310
00000000030000000000000000000000000000000000000000000000000000000000000000000000000000000000000000000000000000000000000000000000000000000000000000000000000000000000000000000000000000000000000000000000000000000000000000000000000000000000000000000000000000
310
00000000000000000000000000000000000000000000000000000000000000000000000000000000000000000000000000000000000000000003000000000000000000000000000000000000000000000000000000000000000000000000000000000000000000000000000000000000000000000000000000000000000000
310
00000000000000000000000000000000000000000000000000000000000000000000000000000000000000000000000000000000000000000000000000000000000000000000000000000000000000000000000000000000000000000000000000000000000000000000000000000300000000000000000000000000000000
310
00000000000000000000000000000000000000000000000000000000000000000000000000000000000000000000000000000000000000000000000000000000000000000000000000000000000000000000000000000000000000000000000000000000000000000000000000000000000000000000000000000000000000
310
00000000000000000000000000000000000000000000000000000000000000000000000003000000000000000000000000000000000000000000000000000000000000000000000000000000000000000000000000000000000000000000000000000000000000000000000000000000000000000000000000000000000000
310
00000000000000000000000000000000000000000000000000000000000000000000000000000000000000000000000000000000000000000000000000000000000000000000000000000000000000000000000000009696960396960000000000000000000000000000000000000000000000000000000000000000000000
310
00000000000000000000000000000000000000000000000000000000000000000000000000000000000000000000000000000000000000000000000000000000000000000000000000000000000000000000000000000000000000000000000000000000000000000000000000000000000000000000000000000000000000
310
00000000000000000000000096969603969600000000000000000000000000000000000000000000000000000000000000000000000000000000000000000000000000000000000000000000000000000000000000000000000000000000000000000000000000000000000000000000000000000000000000000000000000
310
00000000000000000000000000000000000000000000000000000000000000000000000000000000000000000000000000000000000000000000000000000000960096960396009696000000000000000000000000000000000000000000000000000000000000000000000000000000000000000000000000000000000000
310
00000000000000000000000000000000000000000000000000000000000000000000000000000000000000000000000000000000000000000000000000000000000000000000000000000000000000000000000000000000000000000000000000000000000000000000000000000000000000969600000000030000000096
310
96000000000000000000000000000000000000000000000000000000000000000000000000000000000000000000000000000000000000000000000000000000000000000000000000000000000000000000000000000000000000000000000000000000000000000000000000000000000000000000000000000000000000
310
00000000000000000000000000000000000000000000000000000000000000000000000000000096960000000000000300000000000096960000000000000000000000000000000000000000000000000000000000000000000000000000000000000000000000000000000000000000000000000000000000000000000000
310
00000000000000000000000000000000000000000000000000000000000000000000000000000000000000000000000000000000000000000000000000000000000000000000000000000000000000000000000000000000000096960000000000000000030000000000000000969600000000000000000000000000000000
310
00000000000000000000000000000000000000000000000000000000000000000000000000000000000000000000000000000000000000000000000000000000000000000000000000000000000000000000000000000000000000000000000000000000000000000000000000000000000000000000000000000000000000
310
00000000000000000000000000969696000000000000000000000300000000009696000000969600000000000000000000000000000000000000000000000000000000000000000000000000000000000000000000000000000000000000000000000000000000000000000000000000000000000000000000000000000000
310
00000000000000000000000000000000000000000000000000000000000000000000000000000000000000000000000000000000000000000000000000000000000096000000000000000000000000030003009696969696960003960000000000000000000000000000000000000000000000000000000000000000000000
310
00000000000000000000000000000000000000000000000000000000000000000000000000000000000000000000000000000000000000000000000000000000000000000000000000000000000000000000000000000000000000000000000000000000000000000000000000000000000000000000960000000000000000
310
00000000000300000303960000960303000096000000000000000000000000000000000000000000000000000000000000000000000000000000000000000000000000000000000000000000000000000000000000000000000000000000000000000000000000000000000000000000000000000000000000000000000000
310
00000000000000000000000000000000000000000000000000000000000000000000000000000000000000009600000000000000000000000000030000960300000000039600009600000000000000000000000000000000000000000000000000000000000000000000000000000000000000000000000000000000000000
310
00000000000000000000000000000000000000000000000000000000000000000000000000000000000000000000000000000000000000000000000000000000000000000000000000000000000000000000000000000000000000000000000000960000000000000000000000000003009696000303030300969600009600
310
00000000000000000000000000000000000000000000000000000000000000000000000000000000000000000000000000000000000000000000000000000000000000000000000000000000000000000000000000000000000000000000000000000000000000000000000000000000000000000000000000000000000000
310
00000000000000000000000000000000000000000000960000000000000000000000000000030096000000000300000096000096000000000000000000000000000000000000000000000000000000000000000000000000000000000000000000000000000000000000000000000000000000000000000000000000000000
310
00000000000000000000000000000000000000000000000000000000000000000000000000000000000000000000000000000000000000000000000000000000000000000000000000000096000000000000000004000000000003009600000003030000009600000096000000000000000000000000000000000000000000
310
00000000000000000000000000000000000000000000000000000000000000000000000000000000000000000000000000000000000000000000000000000000000000000000000000000000000000000000000000000000000000000000000000000000000000000000000000000000000000000000000000000000000000
310
00960000000000000000000404000000030096960303000003039696000000960000000000000000000000000000000000000000000000000000000000000000000000000000000000000000000000000000000000000000000000000000000000000000000000000000000000000000000000000000000000000000000000
310
00000000000000000000000000000000000000000000000000000000000000000000000000000000000000000000000000000000009600000000000000000096040400000003000096030000000003960000000000960000000000000000000000000000000000000000000000000000000000000000000000000000000000
310
00000000000000000000000000000000000000000000000000000000000000000000000000000000000000000000000000000000000000000000000000000000000000000000000000000000000000000000000000000000000000000000000000000000000000000096960000000000000000000004040000000300000396
310
96000096960300000400009600000000000000000000000000000000000000000000000000000000000000000000000000000000000000000000000000000000000000000000000000000000000000000000000000000000000000000000000000000000000000000000000000000000000000000000000000000000000000
310
00000000000000000000000000000000000000000000000000000000009696000000000000000000000000000000000003000000009696969600000000049600049696000000000000000000000000000000000000000000000000000000000000000000000000000000000000000000000000000000000000000000000000
310
00000000000000000000000000000000000000000000000000000000000000000000000000000000000000000000000000000000000000000000000000000000000000000000000000000000000000000000969696000004000000000000000000000096960396000000000000000000000404040496969600000000000000
310
00000000000000000000000000000000000000000000000000000000000000000000000000000000000000000000000000000000000000000000000000000000000000000000000000000000000000000000000000000000000000000000000000000000000000000000000000000000000000000000000000000000000000
310
00000000000003030303030303030303030303030303030303969603969603030303030303030303030403030303030000000000000000000000000000000000000000000000000000000000000000000000000000000000000000000000000000000000000000000000000000000000000000000000000000000000000000
310
00000000000000000000000000000000000000000000000000000000000000000000000000000000000000000000000000000000000000000000000000969696000404040000000000000000000096960396960000000000000000000000040096969600000000000000000000000000000000000000000000000000000000
310
00000000000000000000000000000000000000000000000000000000000000000000000000000000000000000000000000000000000000000000000000000000000000000000000000000000000000000000000000000000000000000000000000000000000000000000000000000000000096969604960400000000000096
310
00000000969603960000000000000000000000040000969696000000000000000000000000000000000000000000000000000000000000000000000000000000000000000000000000000000000000000000000000000000000000000000000000000000000000000000000000000000000000000000000000000000000000
310
00000000000000000000000000000000000000000000000000000000000000000000000000000000969600000004000000009696969696000000000300000400000000000000000000000000969600000000000000000000000000000000000000000000000000000000000000000000000000000000000000000000000000
310
00000000000000000000000000000000000000000000000000000000000000000000000000000000000000000000000000000000000000000000000000000000000000000000000000000000000000000000000000000000000000000000009696000000009696960000969696000000030000040404000000000000000000
310
00960000000000000000000000000000000000000000000000000000000000000000000000000000000000000000000000000000000000000000000000000000000000000000000000000000000000000000000000000000000000000000000000000000000000000000000000000000000000000000000000000000000000
310
00000000000000000000000000000000000000000000960000000096960300000096969600000300000404040000000000000000009600000000000000000000000000000000000000000000000000000000000000000000000000000000000000000000000000000000000000000000000000000000000000000000000000
310
00000000000000000000000000000000000000000000000000000000000000000000000000000000000000000000000000000000000000000000000000000000000000000000000000000000960000969600000303030096960000030000000000000000000000000000960000000000000000000000000000000000000000
310
00000000000000000000000000000000000000000000000000000000000000000000000000000000000000000000000000000000000000000000000000000000000000000000000000000000000000000000000000000000000000000000000000000000000000000000000000000000000000000000000000000000000000
310
00009600009696000003030000009696000300000000000000000000000000960000000000000000000000000000000000000000000000000000000000000000000000000000000000000000000000000000000000000000000000000000000000000000000000000000000000000000000000000000000000000000000000
310
00000000000000000000000000000000000000000000000000000000000000000000000000000000000000000000000000000000000000009600969600000303030000969600030000000000000000000000000096000000000000000000000000000000000000000000000000000000000000000000000000000000000000
310
00000000000000000000000000000000000000000000000000000000000000000000000000000000000000000000000000000000000000000000000000000000000000000000000000000000000000000000000000000000000000000000000000000000000000000000000000960096960003000000039696000003000000
310
00000000000000000096000000000000000000000000000000000000000000000000000000000000000000000000000000000000000000000000000000000000000000000000000000000000000000000000000000000000000000000000000000000000000000000000000000000000000000000000000000000000000000
310
00000000000000000000000000000000000000000000000000000000000000000000009600009696000000009696960000030000000000000000000000009600000000000000000000000000000000000000000000000000000000000000000000000000000000000000000000000000000000000000000000000000000000
310
00000000000000000000000000000000000000000000000000000000000000000000000000000000000000000000000000000000000000000000000000000000000000000000000000000000000000000000000000000000009600969696969696969600000003000000000000000000000096000000000000000000000000
310
00000000000000000000000000000000000000000000000000000000000000000000000000000000000000000000000000000000000000000000000000000000000000000000000000000000000000000000000000000000000000000000000000000000000000000000000000000000000000000000000000000000000000
310
00000000000000000000000000000096000000969696960000000000030000000000000000000000960000000000000000000000000000000000000000000000000000000000000000000000000000000000000000000000000000000000000000000000000000000000000000000000000000000000000000000000000000
310
00000000000000000000000000000000000000000000000000000000000000000000000000000000000000000000000000000000000000000000000000000000000000009696960000000000000000000003000000000000000000009696000000000000000000000000000000000000000000000000000000000000000000
310
00000000000000000000000000000000000000000000000000000000000000000000000000000000000000000000000000000000000000000000000000000000000000000000000000000000000000000000000000000000000000000000000000000000000000000000000000000000000000000000000000000000969696
310
00000000000000030000000000000096969600000000000000000000000000000000000000000000000000000000000000000000000000000000000000000000000000000000000000000000000000000000000000000000000000000000000000000000000000000000000000000000000000000000000000000000000000
310
00000000000000000000000000000000000000000000000000000000000000000000000000000000000000000000000000000000009696000000000003000000009696960000000000000000000000000000000000000000000000000000000000000000000000000000000000000000000000000000000000000000000000
310
00000000000000000000000000000000000000000000000000000000000000000000000000000000000000000000000000000000000000000000000000000000000000000000000000000000000000000000000000000000000000000000000000000000000000000000000096960000000300009696000000000000000000
310
00000000000000000000000000000000000000000000000000000000000000000000000000000000000000000000000000000000000000000000000000000000000000000000000000000000000000000000000000000000000000000000000000000000000000000000000000000000000000000000000000000000000000
310
00000000000000000000000000000000000000000000000000000000000000000000000096969603969600000000000000000000000000000000000000000000000000000000000000000000000000000000000000000000000000000000000000000000000000000000000000000000000000000000000000000000000000
310
00000000000000000000000000000000000000000000000000000000000000000000000000000000000000000000000000000000000000000000000000000000000000000000000000000000000000000000000000000000009696960396960000000000000000000000000000000000000000000000000000000000000000
310
00000000000000000000000000000000000000000000000000000000000000000000000000000000000000000000000000000000000000000000000000000000000000000000000000000000000000000000000000000000000000000000000000000000000000000000000000000000000000000000000000000000000000
310
00000000000000000000000000000096969603969600000000000000000000000000000000000000000000000000000000000000000000000000000000000000000000000000000000000000000000000000000000000000000000000000000000000000000000000000000000000000000000000000000000000000000000
310
00000000000000000000000000000000000000000000000000000000000000000000000000000000000000000000000000000000000000000000000000000000000000000000000300000000000000000000000000000000000000000000000000000000000000000000000000000000000000000000000000000000000000
310
00000000000000000000000000000000000000000000000000000000000000000000000000000000000000000000000000000000000000000000000000000000000000000000000000000000000000000000000000000000000000000000000000000000000000000000000000000000000000000000000000000000030000
310
00000000000000000000000000000000000000000000000000000000000000000000000000000000000000000000000000000000000000000000000000000000000000000000000000000000000000000000000000000000000000000000000000000000000000000000000000000000000000000000000000000000000000
310
00000000000000000000000000000000000000000000000000000000000000000000000000000000000000000000000000000000000000000000000000000000000000000000000000000000000000000000000000000000000000000000000000000000000000000000000000000000000000000000000000000000000000
310
00000000000000000000000000000000000000000000000000000000000000000000000000000000000000000000000000000000000000000000000000000000000000000000000000000000000000000000000000000000000000000000000000000000000000000000000000000000000000000000000000000000000000
310
00000000000000000000000000000000000000000000000000000000000000000000000000000000000000000000000000000000000000000000000000000000000000000000000000000000000000000000000000000000000000000000000000000000000000000000000000000000000000000000000000000000000000
310
00000000000000000000000000000000000000000000000000000000000000000000000000000000000000000000000000000000000000000000000000000000000000000000000000000000000000000000000000000000000000000000000000000000000000000000000000000000000000000000000000000000000000
310
00000000000000000000000000000000000000000000000000000000000000000000000000000000000000000000000000000000000000000000000000000000000000000000000000000000000000000000000000000000000000000000000000000000000000000000000000000000000000000000000000000000000000
310
00000000000000000000000000000000000000000000000000000000000000000000000000000000000000000000000000000000000000000000000000000000000000000000000000000000000000000000000000000000000000000000000000000000000000000000000000000000000000000000000000000000000000
310
00000000000000000000000000000000000000000000000000000000000000000000000000000000000000000000000000000000000000000000000000000000000000000000000000000000000000000000000000000000000000000000000000000000000000000000000000000000000000000000000000000000000000
310
00000000000000000000000000000000000000000000000000000000000000000000000000000000000000000000000000000000000000000000000000000000000000000000000000000000000000000000000000000000000000000000000000000000000000000000000000000000000000000000000000000000000000
310
00000000000000000000000000000000000000000000000000000000000000000000000000000000000000000000000000000000000000000000000000000000000000000000000000000000000000000000000000000000000000000000000000000000000000000000000000000000000000000000000000000000000000
310
000000000000000000000000000000000000000000000000000000000000000000000000000000000000000000000000000000000000000000000000000000000000000000000000000000000000000000000000000000000000000000000000000000000000000000000000
  0
ENDSEC
  0
EOF
