  0
SECTION
  2
HEADER
  9
$ACADVER
  1
AC1015
  9
$ACADMAINTVER
 70
     6
  9
$DWGCODEPAGE
  3
ANSI_932
  9
$INSBASE
 10
0.0
 20
0.0
 30
0.0
  9
$EXTMIN
 10
114.053911993053
 20
40.0
 30
0.0
  9
$EXTMAX
 10
372.0
 20
456.4473271175337
 30
0.0
  9
$LIMMIN
 10
114.053911993053
 20
40.0
  9
$LIMMAX
 10
372.0
 20
456.4473271175337
  9
$ORTHOMODE
 70
     0
  9
$REGENMODE
 70
     1
  9
$FILLMODE
 70
     1
  9
$QTEXTMODE
 70
     0
  9
$MIRRTEXT
 70
     1
  9
$LTSCALE
 40
0.2404682728762662
  9
$ATTMODE
 70
     1
  9
$TEXTSIZE
 40
2.5
  9
$TRACEWID
 40
1.0
  9
$TEXTSTYLE
  7
Standard
  9
$CLAYER
  8
0
  9
$CELTYPE
  6
ByLayer
  9
$CECOLOR
 62
   256
  9
$CELTSCALE
 40
1.0
  9
$DISPSILH
 70
     0
  9
$DIMSCALE
 40
1.0
  9
$DIMASZ
 40
2.5
  9
$DIMEXO
 40
0.625
  9
$DIMDLI
 40
3.75
  9
$DIMRND
 40
0.0
  9
$DIMDLE
 40
0.0
  9
$DIMEXE
 40
1.25
  9
$DIMTP
 40
0.0
  9
$DIMTM
 40
0.0
  9
$DIMTXT
 40
2.5
  9
$DIMCEN
 40
2.5
  9
$DIMTSZ
 40
0.0
  9
$DIMTOL
 70
     0
  9
$DIMLIM
 70
     0
  9
$DIMTIH
 70
     0
  9
$DIMTOH
 70
     0
  9
$DIMSE1
 70
     0
  9
$DIMSE2
 70
     0
  9
$DIMTAD
 70
     1
  9
$DIMZIN
 70
     0
  9
$DIMBLK
  1

  9
$DIMASO
 70
     1
  9
$DIMSHO
 70
     1
  9
$DIMPOST
  1

  9
$DIMAPOST
  1

  9
$DIMALT
 70
     0
  9
$DIMALTD
 70
     3
  9
$DIMALTF
 40
0.03937007874016
  9
$DIMLFAC
 40
1.0
  9
$DIMTOFL
 70
     1
  9
$DIMTVP
 40
0.0
  9
$DIMTIX
 70
     0
  9
$DIMSOXD
 70
     0
  9
$DIMSAH
 70
     0
  9
$DIMBLK1
  1

  9
$DIMBLK2
  1

  9
$DIMSTYLE
  2
Standard
  9
$DIMCLRD
 70
     0
  9
$DIMCLRE
 70
     0
  9
$DIMCLRT
 70
     0
  9
$DIMTFAC
 40
0.75
  9
$DIMGAP
 40
0.625
  9
$DIMJUST
 70
     0
  9
$DIMSD1
 70
     0
  9
$DIMSD2
 70
     0
  9
$DIMTOLJ
 70
     0
  9
$DIMTZIN
 70
     8
  9
$DIMALTZ
 70
     0
  9
$DIMALTTZ
 70
     0
  9
$DIMUPT
 70
     0
  9
$DIMDEC
 70
     2
  9
$DIMTDEC
 70
     2
  9
$DIMALTU
 70
     2
  9
$DIMALTTD
 70
     3
  9
$DIMTXSTY
  7
Standard
  9
$DIMAUNIT
 70
     0
  9
$DIMADEC
 70
     0
  9
$DIMALTRND
 40
0.0
  9
$DIMAZIN
 70
     0
  9
$DIMDSEP
 70
    46
  9
$DIMATFIT
 70
     3
  9
$DIMFRAC
 70
     0
  9
$DIMLDRBLK
  1

  9
$DIMLUNIT
 70
     2
  9
$DIMLWD
 70
    -2
  9
$DIMLWE
 70
    -2
  9
$DIMTMOVE
 70
     0
  9
$LUNITS
 70
     2
  9
$LUPREC
 70
     4
  9
$SKETCHINC
 40
1.0
  9
$FILLETRAD
 40
10.0
  9
$AUNITS
 70
     0
  9
$AUPREC
 70
     0
  9
$MENU
  1
.
  9
$ELEVATION
 40
0.0
  9
$PELEVATION
 40
0.0
  9
$THICKNESS
 40
0.0
  9
$LIMCHECK
 70
     0
  9
$CHAMFERA
 40
10.0
  9
$CHAMFERB
 40
10.0
  9
$CHAMFERC
 40
20.0
  9
$CHAMFERD
 40
0.0
  9
$SKPOLY
 70
     0
  9
$TDCREATE
 40
2455188.75
  9
$TDUCREATE
 40
2455188.375
  9
$TDUPDATE
 40
2455188.75
  9
$TDUUPDATE
 40
2455188.375
  9
$TDINDWG
 40
0.0000000116
  9
$TDUSRTIMER
 40
0.0000000116
  9
$USRTIMER
 70
     1
  9
$ANGBASE
 50
0.0
  9
$ANGDIR
 70
     0
  9
$PDMODE
 70
     0
  9
$PDSIZE
 40
0.0
  9
$PLINEWID
 40
0.0
  9
$SPLFRAME
 70
     0
  9
$SPLINETYPE
 70
     6
  9
$SPLINESEGS
 70
     8
  9
$HANDSEED
  5
2BF
  9
$SURFTAB1
 70
     6
  9
$SURFTAB2
 70
     6
  9
$SURFTYPE
 70
     6
  9
$SURFU
 70
     6
  9
$SURFV
 70
     6
  9
$UCSBASE
  2

  9
$UCSNAME
  2

  9
$UCSORG
 10
0.0
 20
0.0
 30
0.0
  9
$UCSXDIR
 10
1.0
 20
0.0
 30
0.0
  9
$UCSYDIR
 10
0.0
 20
1.0
 30
0.0
  9
$UCSORTHOREF
  2

  9
$UCSORTHOVIEW
 70
     0
  9
$UCSORGTOP
 10
0.0
 20
0.0
 30
0.0
  9
$UCSORGBOTTOM
 10
0.0
 20
0.0
 30
0.0
  9
$UCSORGLEFT
 10
0.0
 20
0.0
 30
0.0
  9
$UCSORGRIGHT
 10
0.0
 20
0.0
 30
0.0
  9
$UCSORGFRONT
 10
0.0
 20
0.0
 30
0.0
  9
$UCSORGBACK
 10
0.0
 20
0.0
 30
0.0
  9
$PUCSBASE
  2

  9
$PUCSNAME
  2

  9
$PUCSORG
 10
0.0
 20
0.0
 30
0.0
  9
$PUCSXDIR
 10
1.0
 20
0.0
 30
0.0
  9
$PUCSYDIR
 10
0.0
 20
1.0
 30
0.0
  9
$PUCSORTHOREF
  2

  9
$PUCSORTHOVIEW
 70
     0
  9
$PUCSORGTOP
 10
0.0
 20
0.0
 30
0.0
  9
$PUCSORGBOTTOM
 10
0.0
 20
0.0
 30
0.0
  9
$PUCSORGLEFT
 10
0.0
 20
0.0
 30
0.0
  9
$PUCSORGRIGHT
 10
0.0
 20
0.0
 30
0.0
  9
$PUCSORGFRONT
 10
0.0
 20
0.0
 30
0.0
  9
$PUCSORGBACK
 10
0.0
 20
0.0
 30
0.0
  9
$USERI1
 70
     0
  9
$USERI2
 70
     0
  9
$USERI3
 70
     0
  9
$USERI4
 70
     0
  9
$USERI5
 70
     0
  9
$USERR1
 40
0.0
  9
$USERR2
 40
0.0
  9
$USERR3
 40
0.0
  9
$USERR4
 40
0.0
  9
$USERR5
 40
0.0
  9
$WORLDVIEW
 70
     1
  9
$SHADEDGE
 70
     3
  9
$SHADEDIF
 70
    70
  9
$TILEMODE
 70
     1
  9
$MAXACTVP
 70
    64
  9
$PINSBASE
 10
0.0
 20
0.0
 30
0.0
  9
$PLIMCHECK
 70
     0
  9
$PEXTMIN
 10
1.000000000000000E+20
 20
1.000000000000000E+20
 30
1.000000000000000E+20
  9
$PEXTMAX
 10
-1.000000000000000E+20
 20
-1.000000000000000E+20
 30
-1.000000000000000E+20
  9
$PLIMMIN
 10
0.0
 20
0.0
  9
$PLIMMAX
 10
420.0
 20
297.0
  9
$UNITMODE
 70
     0
  9
$VISRETAIN
 70
     1
  9
$PLINEGEN
 70
     0
  9
$PSLTSCALE
 70
     0
  9
$TREEDEPTH
 70
  3020
  9
$CMLSTYLE
  2
Standard
  9
$CMLJUST
 70
     0
  9
$CMLSCALE
 40
20.0
  9
$PROXYGRAPHICS
 70
     1
  9
$MEASUREMENT
 70
     1
  9
$CELWEIGHT
370
    -1
  9
$ENDCAPS
280
     0
  9
$JOINSTYLE
280
     0
  9
$LWDISPLAY
290
     0
  9
$INSUNITS
 70
     4
  9
$HYPERLINKBASE
  1

  9
$STYLESHEET
  1

  9
$XEDIT
290
     1
  9
$CEPSNTYPE
380
     0
  9
$PSTYLEMODE
290
     1
  9
$FINGERPRINTGUID
  2
{F11C60DD-8500-488F-8407-F95BC4DE5BA0}
  9
$VERSIONGUID
  2
{FAEB1C32-E019-11D5-929B-00C0DF256EC4}
  9
$EXTNAMES
290
     1
  9
$PSVPSCALE
 40
0.0
  9
$OLESTARTUP
290
     0
  0
ENDSEC
  0
SECTION
  2
CLASSES
  0
CLASS
  1
ACDBDICTIONARYWDFLT
  2
AcDbDictionaryWithDefault
  3
ObjectDBX Classes
 90
        0
280
     0
281
     0
  0
CLASS
  1
VISUALSTYLE
  2
AcDbVisualStyle
  3
ObjectDBX Classes
 90
     4095
280
     0
281
     0
  0
CLASS
  1
MATERIAL
  2
AcDbMaterial
  3
ObjectDBX Classes
 90
     1153
280
     0
281
     0
  0
CLASS
  1
SCALE
  2
AcDbScale
  3
ObjectDBX Classes
 90
     1153
280
     0
281
     0
  0
CLASS
  1
SUN
  2
AcDbSun
  3
SCENEOE
 90
     1153
280
     0
281
     0
  0
CLASS
  1
DICTIONARYVAR
  2
AcDbDictionaryVar
  3
ObjectDBX Classes
 90
        0
280
     0
281
     0
  0
CLASS
  1
ACDBPLACEHOLDER
  2
AcDbPlaceHolder
  3
ObjectDBX Classes
 90
        0
280
     0
281
     0
  0
CLASS
  1
LAYOUT
  2
AcDbLayout
  3
ObjectDBX Classes
 90
        0
280
     0
281
     0
  0
ENDSEC
  0
SECTION
  2
TABLES
  0
TABLE
  2
VPORT
  5
8
330
0
100
AcDbSymbolTable
 70
     1
  0
VPORT
  5
29
330
8
100
AcDbSymbolTableRecord
100
AcDbViewportTableRecord
  2
*Active
 70
     0
 10
0.0
 20
0.0
 11
1.0
 21
1.0
 12
243.0269559965265
 22
248.2236635587668
 13
0.0
 23
0.0
 14
10.0
 24
10.0
 15
10.0
 25
10.0
 16
0.0
 26
0.0
 36
1.0
 17
0.0
 27
0.0
 37
0.0
 40
458.0920598292871
 41
1.333333333333333
 42
50.0
 43
0.0
 44
0.0
 50
0.0
 51
0.0
 71
     0
 72
 20000
 73
     1
 74
     3
 75
     0
 76
     0
 77
     0
 78
     0
281
     0
 65
     1
110
0.0
120
0.0
130
0.0
111
1.0
121
0.0
131
0.0
112
0.0
122
1.0
132
0.0
 79
     0
146
0.0
  0
ENDTAB
  0
TABLE
  2
LTYPE
  5
5
330
0
100
AcDbSymbolTable
 70
     7
  0
LTYPE
  5
14
330
5
100
AcDbSymbolTableRecord
100
AcDbLinetypeTableRecord
  2
ByBlock
 70
     0
  3

 72
    65
 73
     0
 40
0.0
  0
LTYPE
  5
15
330
5
100
AcDbSymbolTableRecord
100
AcDbLinetypeTableRecord
  2
ByLayer
 70
     0
  3

 72
    65
 73
     0
 40
0.0
  0
LTYPE
  5
16
330
5
100
AcDbSymbolTableRecord
100
AcDbLinetypeTableRecord
  2
Continuous
 70
     0
  3
Solid line
 72
    65
 73
     0
 40
0.0
  0
LTYPE
  5
6B
330
5
100
AcDbSymbolTableRecord
100
AcDbLinetypeTableRecord
  2
DASHED
 70
     0
  3
ICAD/SX(2) Dashed __ __ __ __ __ __ __ __ __ __ __ __ __ _
 72
    65
 73
     2
 40
19.05
 49
12.7
 74
     0
 49
-6.35
 74
     0
  0
LTYPE
  5
6C
330
5
100
AcDbSymbolTableRecord
100
AcDbLinetypeTableRecord
  2
CENTER
 70
     0
  3
ICAD/SX(3) Center ____ _ ____ _ ____ _ ____ _ ____ _ ____
 72
    65
 73
     4
 40
50.8
 49
31.75
 74
     0
 49
-6.35
 74
     0
 49
6.35
 74
     0
 49
-6.35
 74
     0
  0
LTYPE
  5
6D
330
5
100
AcDbSymbolTableRecord
100
AcDbLinetypeTableRecord
  2
PHANTOM
 70
     0
  3
ICAD/SX(4) Phantom ______  __  __  ______  __  __  ______
 72
    65
 73
     6
 40
63.5
 49
31.75
 74
     0
 49
-6.35
 74
     0
 49
6.35
 74
     0
 49
-6.35
 74
     0
 49
6.35
 74
     0
 49
-6.35
 74
     0
  0
LTYPE
  5
6E
330
5
100
AcDbSymbolTableRecord
100
AcDbLinetypeTableRecord
  2
DOT
 70
     0
  3
ICAD/SX(5) Dot . . . . . . . . . . . . . . . . . . . . . . . .
 72
    65
 73
     2
 40
6.35
 49
0.0
 74
     0
 49
-6.35
 74
     0
  0
LTYPE
  5
6F
330
5
100
AcDbSymbolTableRecord
100
AcDbLinetypeTableRecord
  2
HIDDEN
 70
     0
  3
ICAD/SX(6) Hidden __ __ __ __ __ __ __ __ __ __ __ __ __ __
 72
    65
 73
     2
 40
9.525
 49
6.35
 74
     0
 49
-3.175
 74
     0
  0
LTYPE
  5
70
330
5
100
AcDbSymbolTableRecord
100
AcDbLinetypeTableRecord
  2
DOTSX
 70
     0
  3
ICAD/SX(5) Dot . . . . . . . . . . . . . . . . . . . . . . . .
 72
    65
 73
     2
 40
6.35
 49
3.175
 74
     0
 49
-3.175
 74
     0
  0
ENDTAB
  0
TABLE
  2
LAYER
  5
2
330
0
100
AcDbSymbolTable
 70
     8
  0
LAYER
  5
10
330
2
100
AcDbSymbolTableRecord
100
AcDbLayerTableRecord
  2
0
 70
     0
 62
     7
  6
Continuous
370
    -3
390
F
  0
LAYER
  5
71
330
2
100
AcDbSymbolTableRecord
100
AcDbLayerTableRecord
  2
NoLayerName_001
 70
     0
 62
     7
  6
Continuous
370
    -3
390
F
  0
LAYER
  5
72
330
2
100
AcDbSymbolTableRecord
100
AcDbLayerTableRecord
  2
NoLayerName_002
 70
     0
 62
     7
  6
Continuous
370
    -3
390
F
  0
LAYER
  5
73
330
2
100
AcDbSymbolTableRecord
100
AcDbLayerTableRecord
  2
NoLayerName_003
 70
     0
 62
     7
  6
Continuous
370
    -3
390
F
  0
LAYER
  5
74
330
2
100
AcDbSymbolTableRecord
100
AcDbLayerTableRecord
  2
NoLayerName_004
 70
     0
 62
     7
  6
Continuous
370
    -3
390
F
  0
LAYER
  5
75
330
2
100
AcDbSymbolTableRecord
100
AcDbLayerTableRecord
  2
NoLayerName_005
 70
     0
 62
     7
  6
Continuous
370
    -3
390
F
  0
LAYER
  5
76
330
2
100
AcDbSymbolTableRecord
100
AcDbLayerTableRecord
  2
NoLayerName_006
 70
     0
 62
     7
  6
Continuous
370
    -3
390
F
  0
LAYER
  5
77
330
2
100
AcDbSymbolTableRecord
100
AcDbLayerTableRecord
  2
Defpoints
 70
     0
 62
     7
  6
Continuous
290
     0
370
    -3
390
F
  0
ENDTAB
  0
TABLE
  2
STYLE
  5
3
330
0
100
AcDbSymbolTable
 70
     2
  0
STYLE
  5
11
330
3
100
AcDbSymbolTableRecord
100
AcDbTextStyleTableRecord
  2
Standard
 70
     0
 40
0.0
 41
1.0
 50
0.0
 71
     0
 42
2.5
  3
txt
  4
extfont2
  0
STYLE
  5
6A
330
3
100
AcDbSymbolTableRecord
100
AcDbTextStyleTableRecord
  2

 70
     1
 40
0.0
 41
1.0
 50
0.0
 71
     0
 42
2.5
  3
ltypeshp.shx
  4

  0
ENDTAB
  0
TABLE
  2
VIEW
  5
6
330
0
100
AcDbSymbolTable
 70
     0
  0
ENDTAB
  0
TABLE
  2
UCS
  5
7
330
0
100
AcDbSymbolTable
 70
     0
  0
ENDTAB
  0
TABLE
  2
APPID
  5
9
330
0
100
AcDbSymbolTable
 70
     1
  0
APPID
  5
12
330
9
100
AcDbSymbolTableRecord
100
AcDbRegAppTableRecord
  2
ACAD
 70
     0
  0
ENDTAB
  0
TABLE
  2
DIMSTYLE
  5
A
330
0
100
AcDbSymbolTable
 70
     1
100
AcDbDimStyleTable
  0
DIMSTYLE
105
27
330
A
100
AcDbSymbolTableRecord
100
AcDbDimStyleTableRecord
  2
Standard
 70
     0
 41
2.5
 42
0.625
 43
3.75
 44
1.25
 73
     0
 74
     0
 77
     1
140
2.5
141
2.5
143
0.03937007874016
146
0.75
147
0.625
171
     3
172
     1
178
     0
271
     2
272
     2
274
     3
283
     0
284
     8
340
11
  0
ENDTAB
  0
TABLE
  2
BLOCK_RECORD
  5
1
330
0
100
AcDbSymbolTable
 70
     1
  0
BLOCK_RECORD
  5
1F
330
1
100
AcDbSymbolTableRecord
100
AcDbBlockTableRecord
  2
*Model_Space
340
22
  0
BLOCK_RECORD
  5
1B
330
1
100
AcDbSymbolTableRecord
100
AcDbBlockTableRecord
  2
*Paper_Space
340
1E
  0
BLOCK_RECORD
  5
23
330
1
100
AcDbSymbolTableRecord
100
AcDbBlockTableRecord
  2
*Paper_Space0
340
0
  0
ENDTAB
  0
ENDSEC
  0
SECTION
  2
BLOCKS
  0
BLOCK
  5
20
330
1F
100
AcDbEntity
  8
0
100
AcDbBlockBegin
  2
*Model_Space
 70
     0
 10
0.0
 20
0.0
 30
0.0
  3
*Model_Space
  1
*Model_Space
  0
ENDBLK
  5
21
330
1F
100
AcDbEntity
  8
0
100
AcDbBlockEnd
  0
BLOCK
  5
1C
330
1B
100
AcDbEntity
 67
     1
  8
0
100
AcDbBlockBegin
  2
*Paper_Space
 70
     0
 10
0.0
 20
0.0
 30
0.0
  3
*Paper_Space
  1
*Paper_Space
  0
ENDBLK
  5
1D
330
1B
100
AcDbEntity
 67
     1
  8
0
100
AcDbBlockEnd
  0
BLOCK
  5
24
330
23
100
AcDbEntity
  8
0
100
AcDbBlockBegin
  2
*Paper_Space0
 70
     0
 10
0.0
 20
0.0
 30
0.0
  3
*Paper_Space0
  1
*Paper_Space0
  0
ENDBLK
  5
25
330
23
100
AcDbEntity
  8
0
100
AcDbBlockEnd
  0
ENDSEC
  0
SECTION
  2
ENTITIES
  0
POINT
  5
78
330
1F
100
AcDbEntity
  8
NoLayerName_001
  6
Continuous
 62
     7
 60
     1
370
    50
100
AcDbPoint
 10
0.0
 20
0.0
 30
0.0
  0
CIRCLE
  5
79
330
1F
100
AcDbEntity
  8
NoLayerName_001
  6
Continuous
 62
     4
370
    50
100
AcDbCircle
 10
152.359962854942
 20
440.6822402020921
 30
0.0
 40
2.6
  0
CIRCLE
  5
7A
330
1F
100
AcDbEntity
  8
NoLayerName_003
  6
Continuous
 62
     4
370
    50
100
AcDbCircle
 10
212.3599628549419
 20
413.1822402020921
 30
0.0
 40
15.6
  0
LINE
  5
7B
330
1F
100
AcDbEntity
  8
NoLayerName_003
  6
Continuous
 62
     4
370
    50
100
AcDbLine
 10
198.9705361374077
 20
418.9349136828119
 30
0.0
 11
199.4991861126737
 21
418.4062637075459
 31
0.0
  0
LINE
  5
7C
330
1F
100
AcDbEntity
  8
NoLayerName_003
  6
Continuous
 62
     4
370
    50
100
AcDbLine
 10
207.1359393494886
 20
400.321463459824
 30
0.0
 11
206.6072893742223
 21
399.7928134845577
 31
0.0
  0
LINE
  5
7D
330
1F
100
AcDbEntity
  8
NoLayerName_003
  6
Continuous
 62
     4
370
    50
100
AcDbLine
 10
198.9705361374075
 20
407.4295667213724
 30
0.0
 11
199.4991861126736
 21
407.9582166966385
 31
0.0
  0
LINE
  5
7E
330
1F
100
AcDbEntity
  8
NoLayerName_003
  6
Continuous
 62
     4
370
    50
100
AcDbLine
 10
217.5839863603954
 20
400.321463459824
 30
0.0
 11
218.1126363356615
 21
399.7928134845579
 31
0.0
  0
ARC
  5
7F
330
1F
100
AcDbEntity
  8
NoLayerName_003
  6
Continuous
 62
     4
370
    50
100
AcDbCircle
 10
212.3599628549419
 20
413.1822402020921
 30
0.0
 40
14.7
100
AcDbArc
 50
293.9844880056555
 51
336.0155119943436
  0
ARC
  5
80
330
1F
100
AcDbEntity
  8
NoLayerName_003
  6
Continuous
 62
     4
370
    50
100
AcDbCircle
 10
218.2540576918989
 20
399.934234840795
 30
0.0
 40
0.2
100
AcDbArc
 50
225.0
 51
293.9844880056555
  0
ARC
  5
81
330
1F
100
AcDbEntity
  8
NoLayerName_003
  6
Continuous
 62
     4
370
    50
100
AcDbCircle
 10
212.3599628549419
 20
413.1822402020921
 30
0.0
 40
14.7
100
AcDbArc
 50
23.98448800565551
 51
66.01551199434357
  0
ARC
  5
82
330
1F
100
AcDbEntity
  8
NoLayerName_003
  6
Continuous
 62
     4
370
    50
100
AcDbCircle
 10
218.2540576918989
 20
426.4302455633888
 30
0.0
 40
0.2
100
AcDbArc
 50
66.01551199434357
 51
135.0
  0
ARC
  5
83
330
1F
100
AcDbEntity
  8
NoLayerName_003
  6
Continuous
 62
     4
370
    50
100
AcDbCircle
 10
212.3599628549419
 20
413.1822402020921
 30
0.0
 40
14.7
100
AcDbArc
 50
113.9844880056555
 51
156.0155119943436
  0
ARC
  5
84
330
1F
100
AcDbEntity
  8
NoLayerName_003
  6
Continuous
 62
     4
370
    50
100
AcDbCircle
 10
199.111957493645
 20
419.076335039049
 30
0.0
 40
0.2
100
AcDbArc
 50
156.0155119943436
 51
225.0
  0
ARC
  5
85
330
1F
100
AcDbEntity
  8
NoLayerName_003
  6
Continuous
 62
     4
370
    50
100
AcDbCircle
 10
199.1119574936448
 20
407.2881453651349
 30
0.0
 40
0.2
100
AcDbArc
 50
135.0
 51
203.9844880056555
  0
ARC
  5
86
330
1F
100
AcDbEntity
  8
NoLayerName_003
  6
Continuous
 62
     4
370
    50
100
AcDbCircle
 10
212.3599628549419
 20
413.1822402020921
 30
0.0
 40
14.7
100
AcDbArc
 50
203.9844880056555
 51
246.0155119943436
  0
ARC
  5
87
330
1F
100
AcDbEntity
  8
NoLayerName_003
  6
Continuous
 62
     4
370
    50
100
AcDbCircle
 10
206.4658680179849
 20
399.934234840795
 30
0.0
 40
0.2
100
AcDbArc
 50
246.0155119943436
 51
315.0
  0
LINE
  5
88
330
1F
100
AcDbEntity
  8
NoLayerName_003
  6
Continuous
 62
     4
370
    50
100
AcDbLine
 10
212.6599628549419
 20
426.9590322815275
 30
0.0
 11
212.6599628549419
 21
428.5793178468919
 31
0.0
  0
LINE
  5
89
330
1F
100
AcDbEntity
  8
NoLayerName_003
  6
Continuous
 62
     4
370
    50
100
AcDbLine
 10
211.011324549256
 20
426.8997560366607
 30
0.0
 11
210.8766292881503
 21
428.5106361237018
 31
0.0
  0
LINE
  5
8A
330
1F
100
AcDbEntity
  8
NoLayerName_003
  6
Continuous
 62
     4
370
    50
100
AcDbLine
 10
198.5831707755063
 20
413.4822402020919
 30
0.0
 11
196.9628852101419
 21
413.4822402020919
 31
0.0
  0
LINE
  5
8B
330
1F
100
AcDbEntity
  8
NoLayerName_003
  6
Continuous
 62
     4
370
    50
100
AcDbLine
 10
198.6424470203731
 20
411.833601896406
 30
0.0
 11
197.0315669333318
 21
411.6989066353003
 31
0.0
  0
LINE
  5
8C
330
1F
100
AcDbEntity
  8
NoLayerName_003
  6
Continuous
 62
     4
370
    50
100
AcDbLine
 10
212.0599628549419
 20
399.4054481226563
 30
0.0
 11
212.0599628549419
 21
397.7851625572919
 31
0.0
  0
LINE
  5
8D
330
1F
100
AcDbEntity
  8
NoLayerName_003
  6
Continuous
 62
     4
370
    50
100
AcDbLine
 10
213.7086011606278
 20
399.4647243675232
 30
0.0
 11
213.8432964217336
 21
397.8538442804818
 31
0.0
  0
ARC
  5
8E
330
1F
100
AcDbEntity
  8
NoLayerName_003
  6
Continuous
 62
     4
370
    50
100
AcDbCircle
 10
212.3599628549419
 20
413.1822402020921
 30
0.0
 40
15.4
100
AcDbArc
 50
268.8837778441415
 51
275.5273194891132
  0
ARC
  5
8F
330
1F
100
AcDbEntity
  8
NoLayerName_003
  6
Continuous
 62
     4
370
    50
100
AcDbCircle
 10
212.3599628549419
 20
413.1822402020921
 30
0.0
 40
15.4
100
AcDbArc
 50
178.8837778441415
 51
185.5273194891119
  0
ARC
  5
90
330
1F
100
AcDbEntity
  8
NoLayerName_003
  6
Continuous
 62
     4
370
    50
100
AcDbCircle
 10
212.3599628549419
 20
413.1822402020921
 30
0.0
 40
13.3
100
AcDbArc
 50
71.58675963172799
 51
108.4132403682721
  0
LINE
  5
91
330
1F
100
AcDbEntity
  8
NoLayerName_003
  6
Continuous
 62
     4
370
    50
100
AcDbLine
 10
217.5839863603958
 20
426.0430169443603
 30
0.0
 11
218.1126363356619
 21
426.5716669196264
 31
0.0
  0
ARC
  5
92
330
1F
100
AcDbEntity
  8
NoLayerName_003
  6
Continuous
 62
     4
370
    50
100
AcDbCircle
 10
216.8768795792092
 20
426.750123725547
 30
0.0
 40
1.0
100
AcDbArc
 50
251.5867596317279
 51
315.0
  0
ARC
  5
93
330
1F
100
AcDbEntity
  8
NoLayerName_003
  6
Continuous
 62
     4
370
    50
100
AcDbCircle
 10
212.3599628549419
 20
413.1822402020921
 30
0.0
 40
13.3
100
AcDbArc
 50
251.5867596317299
 51
288.4132403682705
  0
ARC
  5
94
330
1F
100
AcDbEntity
  8
NoLayerName_003
  6
Continuous
 62
     4
370
    50
100
AcDbCircle
 10
216.8768795792087
 20
399.6143566786373
 30
0.0
 40
1.0
100
AcDbArc
 50
45.0
 51
108.4132403682704
  0
ARC
  5
95
330
1F
100
AcDbEntity
  8
NoLayerName_003
  6
Continuous
 62
     4
370
    50
100
AcDbCircle
 10
207.8430461306751
 20
399.6143566786373
 30
0.0
 40
1.0
100
AcDbArc
 50
71.58675963172992
 51
135.0
  0
ARC
  5
96
330
1F
100
AcDbEntity
  8
NoLayerName_003
  6
Continuous
 62
     4
370
    50
100
AcDbCircle
 10
198.7920793314873
 20
408.6653234778251
 30
0.0
 40
1.0
100
AcDbArc
 50
315.0
 51
18.41324036827191
  0
ARC
  5
97
330
1F
100
AcDbEntity
  8
NoLayerName_003
  6
Continuous
 62
     4
370
    50
100
AcDbCircle
 10
212.3599628549419
 20
413.1822402020921
 30
0.0
 40
13.3
100
AcDbArc
 50
161.5867596317281
 51
198.4132403682719
  0
ARC
  5
98
330
1F
100
AcDbEntity
  8
NoLayerName_003
  6
Continuous
 62
     4
370
    50
100
AcDbCircle
 10
198.7920793314873
 20
417.6991569263592
 30
0.0
 40
1.0
100
AcDbArc
 50
341.5867596317281
 51
45.00000000000003
  0
ARC
  5
99
330
1F
100
AcDbEntity
  8
NoLayerName_003
  6
Continuous
 62
     4
370
    50
100
AcDbCircle
 10
206.4658680179849
 20
426.4302455633888
 30
0.0
 40
0.2
100
AcDbArc
 50
44.99999999999999
 51
113.9844880056564
  0
LINE
  5
9A
330
1F
100
AcDbEntity
  8
NoLayerName_003
  6
Continuous
 62
     4
370
    50
100
AcDbLine
 10
207.135939349488
 20
426.0430169443603
 30
0.0
 11
206.6072893742219
 21
426.5716669196264
 31
0.0
  0
ARC
  5
9B
330
1F
100
AcDbEntity
  8
NoLayerName_003
  6
Continuous
 62
     4
370
    50
100
AcDbCircle
 10
207.8430461306746
 20
426.750123725547
 30
0.0
 40
1.0
100
AcDbArc
 50
225.0
 51
288.4132403682721
  0
ARC
  5
9C
330
1F
100
AcDbEntity
  8
NoLayerName_003
  6
Continuous
 62
     4
370
    50
100
AcDbCircle
 10
198.5831707755063
 20
413.9822402020919
 30
0.0
 40
0.5
100
AcDbArc
 50
270.0
 51
356.6766423260137
  0
ARC
  5
9D
330
1F
100
AcDbEntity
  8
NoLayerName_003
  6
Continuous
 62
     4
370
    50
100
AcDbCircle
 10
198.6841096020669
 20
411.3353406905244
 30
0.0
 40
0.5
100
AcDbArc
 50
7.691160580782656
 51
94.77972211006455
  0
ARC
  5
9E
330
1F
100
AcDbEntity
  8
NoLayerName_003
  6
Continuous
 62
     4
370
    50
100
AcDbCircle
 10
211.5599628549419
 20
399.4054481226563
 30
0.0
 40
0.5
100
AcDbArc
 50
0.0
 51
86.67664232601372
  0
ARC
  5
9F
330
1F
100
AcDbEntity
  8
NoLayerName_003
  6
Continuous
 62
     4
370
    50
100
AcDbCircle
 10
214.2068623665094
 20
399.506386949217
 30
0.0
 40
0.5
100
AcDbArc
 50
97.69116058078211
 51
184.7797221100646
  0
ARC
  5
A0
330
1F
100
AcDbEntity
  8
NoLayerName_003
  6
Continuous
 62
     4
370
    50
100
AcDbCircle
 10
213.1599628549419
 20
426.9590322815275
 30
0.0
 40
0.5
100
AcDbArc
 50
180.0
 51
266.6766423260137
  0
ARC
  5
A1
330
1F
100
AcDbEntity
  8
NoLayerName_003
  6
Continuous
 62
     4
370
    50
100
AcDbCircle
 10
210.5130633433744
 20
426.8580934549669
 30
0.0
 40
0.5
100
AcDbArc
 50
277.6911605807822
 51
4.779722110064586
  0
LINE
  5
A2
330
1F
100
AcDbEntity
  8
NoLayerName_003
  6
Continuous
 62
     4
370
    50
100
AcDbLine
 10
225.2207395972101
 20
407.9582166966384
 30
0.0
 11
225.7493895724763
 21
407.4295667213722
 31
0.0
  0
LINE
  5
A3
330
1F
100
AcDbEntity
  8
NoLayerName_003
  6
Continuous
 62
     4
370
    50
100
AcDbLine
 10
225.2207395972101
 20
418.4062637075459
 30
0.0
 11
225.749389572476
 21
418.9349136828118
 31
0.0
  0
ARC
  5
A4
330
1F
100
AcDbEntity
  8
NoLayerName_003
  6
Continuous
 62
     4
370
    50
100
AcDbCircle
 10
225.6079682162388
 20
407.2881453651349
 30
0.0
 40
0.2
100
AcDbArc
 50
336.0155119943436
 51
45.00000000000001
  0
ARC
  5
A5
330
1F
100
AcDbEntity
  8
NoLayerName_003
  6
Continuous
 62
     4
370
    50
100
AcDbCircle
 10
225.607968216239
 20
419.076335039049
 30
0.0
 40
0.2
100
AcDbArc
 50
315.0
 51
23.98448800565546
  0
LINE
  5
A6
330
1F
100
AcDbEntity
  8
NoLayerName_003
  6
Continuous
 62
     4
370
    50
100
AcDbLine
 10
226.1367549343775
 20
412.882240202092
 30
0.0
 11
227.7570404997418
 21
412.882240202092
 31
0.0
  0
LINE
  5
A7
330
1F
100
AcDbEntity
  8
NoLayerName_003
  6
Continuous
 62
     4
370
    50
100
AcDbLine
 10
226.0774786895107
 20
414.5308785077778
 30
0.0
 11
227.6883587765519
 21
414.6655737688836
 31
0.0
  0
ARC
  5
A8
330
1F
100
AcDbEntity
  8
NoLayerName_003
  6
Continuous
 62
     4
370
    50
100
AcDbCircle
 10
212.3599628549419
 20
413.1822402020921
 30
0.0
 40
15.4
100
AcDbArc
 50
358.8837778441416
 51
5.527319489111828
  0
ARC
  5
A9
330
1F
100
AcDbEntity
  8
NoLayerName_003
  6
Continuous
 62
     4
370
    50
100
AcDbCircle
 10
212.3599628549419
 20
413.1822402020921
 30
0.0
 40
15.4
100
AcDbArc
 50
88.88377784414155
 51
95.52731948911192
  0
ARC
  5
AA
330
1F
100
AcDbEntity
  8
NoLayerName_003
  6
Continuous
 62
     4
370
    50
100
AcDbCircle
 10
212.3599628549419
 20
413.1822402020921
 30
0.0
 40
13.3
100
AcDbArc
 50
341.5867596317281
 51
18.41324036827191
  0
ARC
  5
AB
330
1F
100
AcDbEntity
  8
NoLayerName_003
  6
Continuous
 62
     4
370
    50
100
AcDbCircle
 10
225.9278463783965
 20
417.6991569263592
 30
0.0
 40
1.0
100
AcDbArc
 50
135.0
 51
198.4132403682719
  0
ARC
  5
AC
330
1F
100
AcDbEntity
  8
NoLayerName_003
  6
Continuous
 62
     4
370
    50
100
AcDbCircle
 10
225.9278463783965
 20
408.6653234778251
 30
0.0
 40
1.0
100
AcDbArc
 50
161.5867596317281
 51
225.0
  0
ARC
  5
AD
330
1F
100
AcDbEntity
  8
NoLayerName_003
  6
Continuous
 62
     4
370
    50
100
AcDbCircle
 10
226.0358161078169
 20
415.0291397136594
 30
0.0
 40
0.5
100
AcDbArc
 50
187.6911605807817
 51
274.7797221100645
  0
ARC
  5
AE
330
1F
100
AcDbEntity
  8
NoLayerName_003
  6
Continuous
 62
     4
370
    50
100
AcDbCircle
 10
226.1367549343775
 20
412.382240202092
 30
0.0
 40
0.5
100
AcDbArc
 50
90.0
 51
176.6766423260137
  0
ARC
  5
AF
330
1F
100
AcDbEntity
  8
NoLayerName_003
  6
Continuous
 62
     4
370
    50
100
AcDbCircle
 10
212.3599628549419
 20
413.1822402020921
 30
0.0
 40
12.9
100
AcDbArc
 50
29.71824476045881
 51
60.28175523954071
  0
LINE
  5
B0
330
1F
100
AcDbEntity
  8
NoLayerName_003
  6
Continuous
 62
     4
370
    50
100
AcDbLine
 10
223.5632735969737
 20
419.5772248320555
 30
0.0
 11
222.5323303367104
 21
418.5462815717922
 31
0.0
  0
ARC
  5
B1
330
1F
100
AcDbEntity
  8
NoLayerName_003
  6
Continuous
 62
     4
370
    50
100
AcDbCircle
 10
212.3599628549419
 20
413.1822402020921
 30
0.0
 40
11.5
100
AcDbArc
 50
242.1966486862582
 51
297.8033513137414
  0
LINE
  5
B2
330
1F
100
AcDbEntity
  8
NoLayerName_003
  6
Continuous
 62
     4
370
    50
100
AcDbLine
 10
217.7240042246424
 20
423.3546076838607
 30
0.0
 11
218.7549474849058
 21
424.3855509441241
 31
0.0
  0
ARC
  5
B3
330
1F
100
AcDbEntity
  8
NoLayerName_003
  6
Continuous
 62
     4
370
    50
100
AcDbCircle
 10
212.3599628549419
 20
413.1822402020921
 30
0.0
 40
12.9
100
AcDbArc
 50
119.718244760459
 51
150.2817552395407
  0
LINE
  5
B4
330
1F
100
AcDbEntity
  8
NoLayerName_003
  6
Continuous
 62
     4
370
    50
100
AcDbLine
 10
205.9649782249783
 20
424.3855509441242
 30
0.0
 11
206.9959214852417
 21
423.3546076838609
 31
0.0
  0
ARC
  5
B5
330
1F
100
AcDbEntity
  8
NoLayerName_003
  6
Continuous
 62
     4
370
    50
100
AcDbCircle
 10
212.3599628549419
 20
413.1822402020921
 30
0.0
 40
11.5
100
AcDbArc
 50
332.1966486862583
 51
27.80335131374131
  0
LINE
  5
B6
330
1F
100
AcDbEntity
  8
NoLayerName_003
  6
Continuous
 62
     4
370
    50
100
AcDbLine
 10
202.1875953731733
 20
418.5462815717925
 30
0.0
 11
201.15665211291
 21
419.5772248320558
 31
0.0
  0
ARC
  5
B7
330
1F
100
AcDbEntity
  8
NoLayerName_003
  6
Continuous
 62
     4
370
    50
100
AcDbCircle
 10
212.3599628549419
 20
413.1822402020921
 30
0.0
 40
12.9
100
AcDbArc
 50
209.7182447604588
 51
240.2817552395407
  0
LINE
  5
B8
330
1F
100
AcDbEntity
  8
NoLayerName_003
  6
Continuous
 62
     4
370
    50
100
AcDbLine
 10
201.1566521129101
 20
406.7872555721283
 30
0.0
 11
202.1875953731734
 21
407.8181988323917
 31
0.0
  0
ARC
  5
B9
330
1F
100
AcDbEntity
  8
NoLayerName_003
  6
Continuous
 62
     4
370
    50
100
AcDbCircle
 10
212.3599628549419
 20
413.1822402020921
 30
0.0
 40
11.5
100
AcDbArc
 50
152.1966486862583
 51
207.8033513137414
  0
LINE
  5
BA
330
1F
100
AcDbEntity
  8
NoLayerName_003
  6
Continuous
 62
     4
370
    50
100
AcDbLine
 10
206.9959214852416
 20
403.0098727203236
 30
0.0
 11
205.9649782249782
 21
401.9789294600602
 31
0.0
  0
ARC
  5
BB
330
1F
100
AcDbEntity
  8
NoLayerName_003
  6
Continuous
 62
     4
370
    50
100
AcDbCircle
 10
212.3599628549419
 20
413.1822402020921
 30
0.0
 40
12.9
100
AcDbArc
 50
299.7182447604588
 51
330.2817552395407
  0
LINE
  5
BC
330
1F
100
AcDbEntity
  8
NoLayerName_003
  6
Continuous
 62
     4
370
    50
100
AcDbLine
 10
218.7549474849055
 20
401.9789294600601
 30
0.0
 11
217.7240042246421
 21
403.0098727203234
 31
0.0
  0
ARC
  5
BD
330
1F
100
AcDbEntity
  8
NoLayerName_003
  6
Continuous
 62
     4
370
    50
100
AcDbCircle
 10
212.3599628549419
 20
413.1822402020921
 30
0.0
 40
11.5
100
AcDbArc
 50
62.19664868625815
 51
117.8033513137413
  0
LINE
  5
BE
330
1F
100
AcDbEntity
  8
NoLayerName_003
  6
Continuous
 62
     4
370
    50
100
AcDbLine
 10
222.5323303367105
 20
407.8181988323918
 30
0.0
 11
223.5632735969738
 21
406.7872555721285
 31
0.0
  0
ARC
  5
BF
330
1F
100
AcDbEntity
  8
NoLayerName_003
  6
Continuous
 62
     4
370
    50
100
AcDbCircle
 10
212.3599628549419
 20
413.1822402020921
 30
0.0
 40
14.5
100
AcDbArc
 50
293.9844880056555
 51
336.0155119943436
  0
LINE
  5
C0
330
1F
100
AcDbEntity
  8
NoLayerName_003
  6
Continuous
 62
     4
370
    50
100
AcDbLine
 10
225.0793182409728
 20
407.8167953404009
 30
0.0
 11
225.607968216239
 21
407.2881453651347
 31
0.0
  0
ARC
  5
C1
330
1F
100
AcDbEntity
  8
NoLayerName_003
  6
Continuous
 62
     4
370
    50
100
AcDbCircle
 10
225.9278463783965
 20
408.6653234778251
 30
0.0
 40
1.2
100
AcDbArc
 50
161.5867707635745
 51
224.9999999999962
  0
ARC
  5
C2
330
1F
100
AcDbEntity
  8
NoLayerName_003
  6
Continuous
 62
     4
370
    50
100
AcDbCircle
 10
212.3599628549419
 20
413.1822402020921
 30
0.0
 40
13.1
100
AcDbArc
 50
341.5867596317281
 51
18.41324036827173
  0
ARC
  5
C3
330
1F
100
AcDbEntity
  8
NoLayerName_003
  6
Continuous
 62
     4
370
    50
100
AcDbCircle
 10
212.3599628549419
 20
413.1822402020921
 30
0.0
 40
13.1
100
AcDbArc
 50
161.5867596317281
 51
195.6980864741281
  0
ARC
  5
C4
330
1F
100
AcDbEntity
  8
NoLayerName_003
  6
Continuous
 62
     4
370
    50
100
AcDbCircle
 10
198.7920793314873
 20
417.6991569263592
 30
0.0
 40
1.2
100
AcDbArc
 50
341.5867596317281
 51
45.00000000000247
  0
LINE
  5
C5
330
1F
100
AcDbEntity
  8
NoLayerName_003
  6
Continuous
 62
     4
370
    50
100
AcDbLine
 10
199.111957493645
 20
419.076335039049
 30
0.0
 11
199.640607468911
 21
418.5476850637829
 31
0.0
  0
ARC
  5
C6
330
1F
100
AcDbEntity
  8
NoLayerName_003
  6
Continuous
 62
     4
370
    50
100
AcDbCircle
 10
212.3599628549419
 20
413.1822402020921
 30
0.0
 40
14.5
100
AcDbArc
 50
203.9844880056555
 51
246.0155119943436
  0
LINE
  5
C7
330
1F
100
AcDbEntity
  8
NoLayerName_003
  6
Continuous
 62
     4
370
    50
100
AcDbLine
 10
206.9945179932513
 20
400.462884816061
 30
0.0
 11
206.465868017985
 21
399.9342348407947
 31
0.0
  0
ARC
  5
C8
330
1F
100
AcDbEntity
  8
NoLayerName_003
  6
Continuous
 62
     4
370
    50
100
AcDbCircle
 10
207.8430461306751
 20
399.6143566786373
 30
0.0
 40
1.2
100
AcDbArc
 50
71.58675963172992
 51
134.9999999999986
  0
ARC
  5
C9
330
1F
100
AcDbEntity
  8
NoLayerName_003
  6
Continuous
 62
     4
370
    50
100
AcDbCircle
 10
212.3599628549419
 20
413.1822402020921
 30
0.0
 40
13.1
100
AcDbArc
 50
251.5867596317299
 51
288.4132403682706
  0
ARC
  5
CA
330
1F
100
AcDbEntity
  8
NoLayerName_003
  6
Continuous
 62
     4
370
    50
100
AcDbCircle
 10
216.8768795792087
 20
399.6143566786373
 30
0.0
 40
1.2
100
AcDbArc
 50
45.00001106617123
 51
108.4132403682704
  0
LINE
  5
CB
330
1F
100
AcDbEntity
  8
NoLayerName_003
  6
Continuous
 62
     4
370
    50
100
AcDbLine
 10
217.7254077166324
 20
400.462884816061
 30
0.0
 11
218.2540576918986
 21
399.9342348407949
 31
0.0
  0
ARC
  5
CC
330
1F
100
AcDbEntity
  8
NoLayerName_003
  6
Continuous
 62
     4
370
    50
100
AcDbCircle
 10
212.3599628549419
 20
413.1822402020921
 30
0.0
 40
14.5
100
AcDbArc
 50
23.98448800565551
 51
66.01551199434357
  0
LINE
  5
CD
330
1F
100
AcDbEntity
  8
NoLayerName_003
  6
Continuous
 62
     4
370
    50
100
AcDbLine
 10
217.7254077166329
 20
425.9015955881228
 30
0.0
 11
218.2540576918989
 21
426.4302455633888
 31
0.0
  0
ARC
  5
CE
330
1F
100
AcDbEntity
  8
NoLayerName_003
  6
Continuous
 62
     4
370
    50
100
AcDbCircle
 10
216.8768795792092
 20
426.750123725547
 30
0.0
 40
1.2
100
AcDbArc
 50
251.5867608391462
 51
315.0000000000006
  0
ARC
  5
CF
330
1F
100
AcDbEntity
  8
NoLayerName_003
  6
Continuous
 62
     4
370
    50
100
AcDbCircle
 10
212.3599628549419
 20
413.1822402020921
 30
0.0
 40
13.1
100
AcDbArc
 50
71.58675643719953
 51
108.4132403682723
  0
ARC
  5
D0
330
1F
100
AcDbEntity
  8
NoLayerName_003
  6
Continuous
 62
     4
370
    50
100
AcDbCircle
 10
207.8430461306746
 20
426.750123725547
 30
0.0
 40
1.2
100
AcDbArc
 50
224.9999999999992
 51
288.4132395144984
  0
LINE
  5
D1
330
1F
100
AcDbEntity
  8
NoLayerName_003
  6
Continuous
 62
     4
370
    50
100
AcDbLine
 10
206.9945179932509
 20
425.9015955881228
 30
0.0
 11
206.4658680179849
 21
426.4302455633888
 31
0.0
  0
ARC
  5
D2
330
1F
100
AcDbEntity
  8
NoLayerName_003
  6
Continuous
 62
     4
370
    50
100
AcDbCircle
 10
212.3599628549419
 20
413.1822402020921
 30
0.0
 40
14.5
100
AcDbArc
 50
113.9844880056555
 51
156.0155119943436
  0
ARC
  5
D3
330
1F
100
AcDbEntity
  8
NoLayerName_003
  6
Continuous
 62
     4
370
    50
100
AcDbCircle
 10
225.9278463783965
 20
417.6991569263592
 30
0.0
 40
1.2
100
AcDbArc
 50
135.0
 51
198.4132403682715
  0
LINE
  5
D4
330
1F
100
AcDbEntity
  8
NoLayerName_003
  6
Continuous
 62
     4
370
    50
100
AcDbLine
 10
199.3232096181276
 20
407.7822402020921
 30
0.0
 11
201.6516367428738
 21
407.2822402020921
 31
0.0
  0
LINE
  5
D5
330
1F
100
AcDbEntity
  8
NoLayerName_003
  6
Continuous
 62
     4
370
    50
100
AcDbLine
 10
199.111957493645
 20
407.2881453651349
 30
0.0
 11
199.5560523306021
 21
407.7322402020919
 31
0.0
  0
LINE
  5
D6
330
1F
100
AcDbEntity
  8
NoLayerName_003
  6
Continuous
 62
     4
370
    50
100
AcDbLine
 10
199.5564477126071
 20
409.5822402020922
 30
0.0
 11
201.2856682950163
 21
410.0822402020922
 31
0.0
  0
LINE
  5
D7
330
1F
100
AcDbEntity
  8
NoLayerName_003
  6
Continuous
 62
     4
370
    50
100
AcDbLine
 10
225.0793182409728
 20
418.5476850637829
 30
0.0
 11
225.6079682162388
 21
419.076335039049
 31
0.0
  0
CIRCLE
  5
D8
330
1F
100
AcDbEntity
  8
NoLayerName_004
  6
Continuous
 62
     4
370
    50
100
AcDbCircle
 10
212.3599628549419
 20
363.1822402020921
 30
0.0
 40
17.5
  0
CIRCLE
  5
D9
330
1F
100
AcDbEntity
  8
NoLayerName_003
  6
Continuous
 62
     4
370
    50
100
AcDbCircle
 10
212.3599628549419
 20
363.1822402020921
 30
0.0
 40
15.6
  0
LINE
  5
DA
330
1F
100
AcDbEntity
  8
NoLayerName_003
  6
Continuous
 62
     4
370
    50
100
AcDbLine
 10
198.9705361374075
 20
357.4295667213724
 30
0.0
 11
199.4991861126735
 21
357.9582166966384
 31
0.0
  0
LINE
  5
DB
330
1F
100
AcDbEntity
  8
NoLayerName_003
  6
Continuous
 62
     4
370
    50
100
AcDbLine
 10
207.1359393494886
 20
376.0430169443603
 30
0.0
 11
206.6072893742223
 21
376.5716669196266
 31
0.0
  0
LINE
  5
DC
330
1F
100
AcDbEntity
  8
NoLayerName_003
  6
Continuous
 62
     4
370
    50
100
AcDbLine
 10
198.9705361374075
 20
368.9349136828119
 30
0.0
 11
199.4991861126736
 21
368.4062637075458
 31
0.0
  0
LINE
  5
DD
330
1F
100
AcDbEntity
  8
NoLayerName_003
  6
Continuous
 62
     4
370
    50
100
AcDbLine
 10
217.5839863603954
 20
376.0430169443603
 30
0.0
 11
218.1126363356615
 21
376.5716669196264
 31
0.0
  0
ARC
  5
DE
330
1F
100
AcDbEntity
  8
NoLayerName_003
  6
Continuous
 62
     4
370
    50
100
AcDbCircle
 10
212.3599628549419
 20
363.1822402020921
 30
0.0
 40
14.7
100
AcDbArc
 50
23.98448800565642
 51
66.0155119943445
  0
ARC
  5
DF
330
1F
100
AcDbEntity
  8
NoLayerName_003
  6
Continuous
 62
     4
370
    50
100
AcDbCircle
 10
218.2540576918989
 20
376.4302455633893
 30
0.0
 40
0.2
100
AcDbArc
 50
66.01551199434455
 51
135.0
  0
ARC
  5
E0
330
1F
100
AcDbEntity
  8
NoLayerName_003
  6
Continuous
 62
     4
370
    50
100
AcDbCircle
 10
212.3599628549419
 20
363.1822402020921
 30
0.0
 40
14.7
100
AcDbArc
 50
293.9844880056564
 51
336.0155119943445
  0
ARC
  5
E1
330
1F
100
AcDbEntity
  8
NoLayerName_003
  6
Continuous
 62
     4
370
    50
100
AcDbCircle
 10
218.2540576918989
 20
349.934234840795
 30
0.0
 40
0.2
100
AcDbArc
 50
225.0
 51
293.9844880056564
  0
ARC
  5
E2
330
1F
100
AcDbEntity
  8
NoLayerName_003
  6
Continuous
 62
     4
370
    50
100
AcDbCircle
 10
212.3599628549419
 20
363.1822402020921
 30
0.0
 40
14.7
100
AcDbArc
 50
203.9844880056564
 51
246.0155119943445
  0
ARC
  5
E3
330
1F
100
AcDbEntity
  8
NoLayerName_003
  6
Continuous
 62
     4
370
    50
100
AcDbCircle
 10
199.111957493645
 20
357.2881453651349
 30
0.0
 40
0.2
100
AcDbArc
 50
135.0
 51
203.9844880056564
  0
ARC
  5
E4
330
1F
100
AcDbEntity
  8
NoLayerName_003
  6
Continuous
 62
     4
370
    50
100
AcDbCircle
 10
199.1119574936445
 20
369.076335039049
 30
0.0
 40
0.2
100
AcDbArc
 50
156.0155119943445
 51
225.0
  0
ARC
  5
E5
330
1F
100
AcDbEntity
  8
NoLayerName_003
  6
Continuous
 62
     4
370
    50
100
AcDbCircle
 10
212.3599628549419
 20
363.1822402020921
 30
0.0
 40
14.7
100
AcDbArc
 50
113.9844880056564
 51
156.0155119943445
  0
ARC
  5
E6
330
1F
100
AcDbEntity
  8
NoLayerName_003
  6
Continuous
 62
     4
370
    50
100
AcDbCircle
 10
206.4658680179849
 20
376.4302455633893
 30
0.0
 40
0.2
100
AcDbArc
 50
44.99999999999999
 51
113.9844880056564
  0
LINE
  5
E7
330
1F
100
AcDbEntity
  8
NoLayerName_003
  6
Continuous
 62
     4
370
    50
100
AcDbLine
 10
212.0599628549419
 20
349.4054481226563
 30
0.0
 11
212.0599628549419
 21
347.7851625572919
 31
0.0
  0
LINE
  5
E8
330
1F
100
AcDbEntity
  8
NoLayerName_003
  6
Continuous
 62
     4
370
    50
100
AcDbLine
 10
213.7086011606278
 20
349.4647243675232
 30
0.0
 11
213.8432964217335
 21
347.853844280482
 31
0.0
  0
LINE
  5
E9
330
1F
100
AcDbEntity
  8
NoLayerName_003
  6
Continuous
 62
     4
370
    50
100
AcDbLine
 10
198.5831707755063
 20
363.4822402020919
 30
0.0
 11
196.9628852101419
 21
363.4822402020919
 31
0.0
  0
LINE
  5
EA
330
1F
100
AcDbEntity
  8
NoLayerName_003
  6
Continuous
 62
     4
370
    50
100
AcDbLine
 10
198.6424470203731
 20
361.833601896406
 30
0.0
 11
197.0315669333318
 21
361.6989066353003
 31
0.0
  0
LINE
  5
EB
330
1F
100
AcDbEntity
  8
NoLayerName_003
  6
Continuous
 62
     4
370
    50
100
AcDbLine
 10
212.6599628549419
 20
376.9590322815275
 30
0.0
 11
212.6599628549419
 21
378.5793178468919
 31
0.0
  0
LINE
  5
EC
330
1F
100
AcDbEntity
  8
NoLayerName_003
  6
Continuous
 62
     4
370
    50
100
AcDbLine
 10
211.011324549256
 20
376.8997560366607
 30
0.0
 11
210.8766292881502
 21
378.5106361237021
 31
0.0
  0
ARC
  5
ED
330
1F
100
AcDbEntity
  8
NoLayerName_003
  6
Continuous
 62
     4
370
    50
100
AcDbCircle
 10
212.3599628549419
 20
363.1822402020921
 30
0.0
 40
15.4
100
AcDbArc
 50
88.88377784414159
 51
95.52731948911322
  0
ARC
  5
EE
330
1F
100
AcDbEntity
  8
NoLayerName_003
  6
Continuous
 62
     4
370
    50
100
AcDbCircle
 10
212.3599628549419
 20
363.1822402020921
 30
0.0
 40
15.4
100
AcDbArc
 50
178.8837778441415
 51
185.5273194891119
  0
ARC
  5
EF
330
1F
100
AcDbEntity
  8
NoLayerName_003
  6
Continuous
 62
     4
370
    50
100
AcDbCircle
 10
212.3599628549419
 20
363.1822402020921
 30
0.0
 40
13.3
100
AcDbArc
 50
251.5867596317279
 51
288.413240368272
  0
LINE
  5
F0
330
1F
100
AcDbEntity
  8
NoLayerName_003
  6
Continuous
 62
     4
370
    50
100
AcDbLine
 10
217.5839863603958
 20
350.321463459824
 30
0.0
 11
218.1126363356619
 21
349.7928134845579
 31
0.0
  0
ARC
  5
F1
330
1F
100
AcDbEntity
  8
NoLayerName_003
  6
Continuous
 62
     4
370
    50
100
AcDbCircle
 10
216.8768795792092
 20
349.6143566786373
 30
0.0
 40
1.0
100
AcDbArc
 50
45.0
 51
108.4132403682721
  0
ARC
  5
F2
330
1F
100
AcDbEntity
  8
NoLayerName_003
  6
Continuous
 62
     4
370
    50
100
AcDbCircle
 10
212.3599628549419
 20
363.1822402020921
 30
0.0
 40
13.3
100
AcDbArc
 50
71.58675963172956
 51
108.4132403682701
  0
ARC
  5
F3
330
1F
100
AcDbEntity
  8
NoLayerName_003
  6
Continuous
 62
     4
370
    50
100
AcDbCircle
 10
216.8768795792087
 20
376.750123725547
 30
0.0
 40
1.0
100
AcDbArc
 50
251.5867596317295
 51
315.0
  0
ARC
  5
F4
330
1F
100
AcDbEntity
  8
NoLayerName_003
  6
Continuous
 62
     4
370
    50
100
AcDbCircle
 10
207.8430461306751
 20
376.750123725547
 30
0.0
 40
1.0
100
AcDbArc
 50
225.0
 51
288.4132403682701
  0
ARC
  5
F5
330
1F
100
AcDbEntity
  8
NoLayerName_003
  6
Continuous
 62
     4
370
    50
100
AcDbCircle
 10
198.7920793314873
 20
367.6991569263592
 30
0.0
 40
1.0
100
AcDbArc
 50
341.5867596317281
 51
45.0
  0
ARC
  5
F6
330
1F
100
AcDbEntity
  8
NoLayerName_003
  6
Continuous
 62
     4
370
    50
100
AcDbCircle
 10
212.3599628549419
 20
363.1822402020921
 30
0.0
 40
13.3
100
AcDbArc
 50
161.5867596317281
 51
198.4132403682719
  0
ARC
  5
F7
330
1F
100
AcDbEntity
  8
NoLayerName_003
  6
Continuous
 62
     4
370
    50
100
AcDbCircle
 10
198.7920793314873
 20
358.6653234778246
 30
0.0
 40
1.0
100
AcDbArc
 50
314.9999999999999
 51
18.41324036827189
  0
ARC
  5
F8
330
1F
100
AcDbEntity
  8
NoLayerName_003
  6
Continuous
 62
     4
370
    50
100
AcDbCircle
 10
206.4658680179849
 20
349.934234840795
 30
0.0
 40
0.2
100
AcDbArc
 50
246.0155119943436
 51
315.0
  0
LINE
  5
F9
330
1F
100
AcDbEntity
  8
NoLayerName_003
  6
Continuous
 62
     4
370
    50
100
AcDbLine
 10
207.135939349488
 20
350.321463459824
 30
0.0
 11
206.6072893742219
 21
349.7928134845579
 31
0.0
  0
ARC
  5
FA
330
1F
100
AcDbEntity
  8
NoLayerName_003
  6
Continuous
 62
     4
370
    50
100
AcDbCircle
 10
207.8430461306746
 20
349.6143566786373
 30
0.0
 40
1.0
100
AcDbArc
 50
71.58675963172794
 51
135.0
  0
ARC
  5
FB
330
1F
100
AcDbEntity
  8
NoLayerName_003
  6
Continuous
 62
     4
370
    50
100
AcDbCircle
 10
198.5831707755063
 20
363.9822402020919
 30
0.0
 40
0.5
100
AcDbArc
 50
270.0
 51
356.6766423260137
  0
ARC
  5
FC
330
1F
100
AcDbEntity
  8
NoLayerName_003
  6
Continuous
 62
     4
370
    50
100
AcDbCircle
 10
198.6841096020669
 20
361.3353406905244
 30
0.0
 40
0.5
100
AcDbArc
 50
7.691160580782668
 51
94.77972211006455
  0
ARC
  5
FD
330
1F
100
AcDbEntity
  8
NoLayerName_003
  6
Continuous
 62
     4
370
    50
100
AcDbCircle
 10
213.1599628549419
 20
376.9590322815275
 30
0.0
 40
0.5
100
AcDbArc
 50
180.0
 51
266.6766423260137
  0
ARC
  5
FE
330
1F
100
AcDbEntity
  8
NoLayerName_003
  6
Continuous
 62
     4
370
    50
100
AcDbCircle
 10
210.5130633433744
 20
376.8580934549669
 30
0.0
 40
0.5
100
AcDbArc
 50
277.6911605807821
 51
4.779722110064548
  0
ARC
  5
FF
330
1F
100
AcDbEntity
  8
NoLayerName_003
  6
Continuous
 62
     4
370
    50
100
AcDbCircle
 10
211.5599628549419
 20
349.4054481226563
 30
0.0
 40
0.5
100
AcDbArc
 50
0.0
 51
86.67664232601368
  0
ARC
  5
100
330
1F
100
AcDbEntity
  8
NoLayerName_003
  6
Continuous
 62
     4
370
    50
100
AcDbCircle
 10
214.2068623665094
 20
349.506386949217
 30
0.0
 40
0.5
100
AcDbArc
 50
97.69116058078218
 51
184.7797221100646
  0
LINE
  5
101
330
1F
100
AcDbEntity
  8
NoLayerName_003
  6
Continuous
 62
     4
370
    50
100
AcDbLine
 10
225.2207395972101
 20
368.4062637075459
 30
0.0
 11
225.7493895724763
 21
368.9349136828121
 31
0.0
  0
LINE
  5
102
330
1F
100
AcDbEntity
  8
NoLayerName_003
  6
Continuous
 62
     4
370
    50
100
AcDbLine
 10
225.2207395972101
 20
357.958216696638
 30
0.0
 11
225.749389572476
 21
357.429566721372
 31
0.0
  0
ARC
  5
103
330
1F
100
AcDbEntity
  8
NoLayerName_003
  6
Continuous
 62
     4
370
    50
100
AcDbCircle
 10
225.6079682162388
 20
369.0763350390494
 30
0.0
 40
0.2
100
AcDbArc
 50
315.0
 51
23.98448800565644
  0
ARC
  5
104
330
1F
100
AcDbEntity
  8
NoLayerName_003
  6
Continuous
 62
     4
370
    50
100
AcDbCircle
 10
225.607968216239
 20
357.2881453651353
 30
0.0
 40
0.2
100
AcDbArc
 50
336.0155119943445
 51
45.0
  0
LINE
  5
105
330
1F
100
AcDbEntity
  8
NoLayerName_003
  6
Continuous
 62
     4
370
    50
100
AcDbLine
 10
226.1367549343775
 20
362.882240202092
 30
0.0
 11
227.7570404997418
 21
362.882240202092
 31
0.0
  0
LINE
  5
106
330
1F
100
AcDbEntity
  8
NoLayerName_003
  6
Continuous
 62
     4
370
    50
100
AcDbLine
 10
226.0774786895107
 20
364.5308785077778
 30
0.0
 11
227.6883587765519
 21
364.6655737688836
 31
0.0
  0
ARC
  5
107
330
1F
100
AcDbEntity
  8
NoLayerName_003
  6
Continuous
 62
     4
370
    50
100
AcDbCircle
 10
212.3599628549419
 20
363.1822402020921
 30
0.0
 40
15.4
100
AcDbArc
 50
358.8837778441416
 51
5.52731948911184
  0
ARC
  5
108
330
1F
100
AcDbEntity
  8
NoLayerName_003
  6
Continuous
 62
     4
370
    50
100
AcDbCircle
 10
212.3599628549419
 20
363.1822402020921
 30
0.0
 40
15.4
100
AcDbArc
 50
268.8837778441415
 51
275.5273194891119
  0
ARC
  5
109
330
1F
100
AcDbEntity
  8
NoLayerName_003
  6
Continuous
 62
     4
370
    50
100
AcDbCircle
 10
212.3599628549419
 20
363.1822402020921
 30
0.0
 40
13.3
100
AcDbArc
 50
341.5867596317281
 51
18.41324036827191
  0
ARC
  5
10A
330
1F
100
AcDbEntity
  8
NoLayerName_003
  6
Continuous
 62
     4
370
    50
100
AcDbCircle
 10
225.9278463783965
 20
358.6653234778246
 30
0.0
 40
1.0
100
AcDbArc
 50
161.5867596317281
 51
225.0
  0
ARC
  5
10B
330
1F
100
AcDbEntity
  8
NoLayerName_003
  6
Continuous
 62
     4
370
    50
100
AcDbCircle
 10
225.9278463783965
 20
367.6991569263592
 30
0.0
 40
1.0
100
AcDbArc
 50
135.0
 51
198.4132403682719
  0
ARC
  5
10C
330
1F
100
AcDbEntity
  8
NoLayerName_003
  6
Continuous
 62
     4
370
    50
100
AcDbCircle
 10
226.0358161078169
 20
365.0291397136594
 30
0.0
 40
0.5
100
AcDbArc
 50
187.6911605807817
 51
274.7797221100645
  0
ARC
  5
10D
330
1F
100
AcDbEntity
  8
NoLayerName_003
  6
Continuous
 62
     4
370
    50
100
AcDbCircle
 10
226.1367549343775
 20
362.382240202092
 30
0.0
 40
0.5
100
AcDbArc
 50
90.0
 51
176.6766423260137
  0
ARC
  5
10E
330
1F
100
AcDbEntity
  8
NoLayerName_003
  6
Continuous
 62
     4
370
    50
100
AcDbCircle
 10
212.3599628549419
 20
363.1822402020921
 30
0.0
 40
12.9
100
AcDbArc
 50
299.7182447604593
 51
330.2817552395412
  0
LINE
  5
10F
330
1F
100
AcDbEntity
  8
NoLayerName_003
  6
Continuous
 62
     4
370
    50
100
AcDbLine
 10
223.5632735969737
 20
356.7872555721283
 30
0.0
 11
222.5323303367104
 21
357.8181988323917
 31
0.0
  0
ARC
  5
110
330
1F
100
AcDbEntity
  8
NoLayerName_003
  6
Continuous
 62
     4
370
    50
100
AcDbCircle
 10
212.3599628549419
 20
363.1822402020921
 30
0.0
 40
11.5
100
AcDbArc
 50
62.19664868625864
 51
117.8033513137418
  0
LINE
  5
111
330
1F
100
AcDbEntity
  8
NoLayerName_003
  6
Continuous
 62
     4
370
    50
100
AcDbLine
 10
217.7240042246424
 20
353.0098727203236
 30
0.0
 11
218.7549474849058
 21
351.9789294600602
 31
0.0
  0
ARC
  5
112
330
1F
100
AcDbEntity
  8
NoLayerName_003
  6
Continuous
 62
     4
370
    50
100
AcDbCircle
 10
212.3599628549419
 20
363.1822402020921
 30
0.0
 40
12.9
100
AcDbArc
 50
209.7182447604593
 51
240.281755239541
  0
LINE
  5
113
330
1F
100
AcDbEntity
  8
NoLayerName_003
  6
Continuous
 62
     4
370
    50
100
AcDbLine
 10
205.9649782249783
 20
351.9789294600601
 30
0.0
 11
206.9959214852417
 21
353.0098727203234
 31
0.0
  0
ARC
  5
114
330
1F
100
AcDbEntity
  8
NoLayerName_003
  6
Continuous
 62
     4
370
    50
100
AcDbCircle
 10
212.3599628549419
 20
363.1822402020921
 30
0.0
 40
11.5
100
AcDbArc
 50
332.1966486862587
 51
27.80335131374172
  0
LINE
  5
115
330
1F
100
AcDbEntity
  8
NoLayerName_003
  6
Continuous
 62
     4
370
    50
100
AcDbLine
 10
202.1875953731731
 20
357.8181988323918
 30
0.0
 11
201.1566521129098
 21
356.7872555721285
 31
0.0
  0
ARC
  5
116
330
1F
100
AcDbEntity
  8
NoLayerName_003
  6
Continuous
 62
     4
370
    50
100
AcDbCircle
 10
212.3599628549419
 20
363.1822402020921
 30
0.0
 40
12.9
100
AcDbArc
 50
119.7182447604593
 51
150.2817552395412
  0
LINE
  5
117
330
1F
100
AcDbEntity
  8
NoLayerName_003
  6
Continuous
 62
     4
370
    50
100
AcDbLine
 10
201.1566521129101
 20
369.5772248320555
 30
0.0
 11
202.1875953731734
 21
368.5462815717922
 31
0.0
  0
ARC
  5
118
330
1F
100
AcDbEntity
  8
NoLayerName_003
  6
Continuous
 62
     4
370
    50
100
AcDbCircle
 10
212.3599628549419
 20
363.1822402020921
 30
0.0
 40
11.5
100
AcDbArc
 50
152.1966486862586
 51
207.8033513137417
  0
LINE
  5
119
330
1F
100
AcDbEntity
  8
NoLayerName_003
  6
Continuous
 62
     4
370
    50
100
AcDbLine
 10
206.9959214852416
 20
373.3546076838607
 30
0.0
 11
205.9649782249782
 21
374.3855509441241
 31
0.0
  0
ARC
  5
11A
330
1F
100
AcDbEntity
  8
NoLayerName_003
  6
Continuous
 62
     4
370
    50
100
AcDbCircle
 10
212.3599628549419
 20
363.1822402020921
 30
0.0
 40
12.9
100
AcDbArc
 50
29.71824476045931
 51
60.28175523954123
  0
LINE
  5
11B
330
1F
100
AcDbEntity
  8
NoLayerName_003
  6
Continuous
 62
     4
370
    50
100
AcDbLine
 10
218.7549474849055
 20
374.3855509441237
 30
0.0
 11
217.7240042246421
 21
373.3546076838604
 31
0.0
  0
ARC
  5
11C
330
1F
100
AcDbEntity
  8
NoLayerName_003
  6
Continuous
 62
     4
370
    50
100
AcDbCircle
 10
212.3599628549419
 20
363.1822402020921
 30
0.0
 40
11.5
100
AcDbArc
 50
242.1966486862587
 51
297.8033513137419
  0
LINE
  5
11D
330
1F
100
AcDbEntity
  8
NoLayerName_003
  6
Continuous
 62
     4
370
    50
100
AcDbLine
 10
222.5323303367105
 20
368.5462815717925
 30
0.0
 11
223.5632735969738
 21
369.5772248320558
 31
0.0
  0
ARC
  5
11E
330
1F
100
AcDbEntity
  8
NoLayerName_003
  6
Continuous
 62
     4
370
    50
100
AcDbCircle
 10
212.3599628549419
 20
363.1822402020921
 30
0.0
 40
14.5
100
AcDbArc
 50
23.98448800565642
 51
66.0155119943445
  0
LINE
  5
11F
330
1F
100
AcDbEntity
  8
NoLayerName_003
  6
Continuous
 62
     4
370
    50
100
AcDbLine
 10
225.0793182409728
 20
368.5476850637829
 30
0.0
 11
225.607968216239
 21
369.0763350390491
 31
0.0
  0
ARC
  5
120
330
1F
100
AcDbEntity
  8
NoLayerName_003
  6
Continuous
 62
     4
370
    50
100
AcDbCircle
 10
225.9278463783965
 20
367.6991569263592
 30
0.0
 40
1.2
100
AcDbArc
 50
135.0000000000038
 51
198.4132292364255
  0
ARC
  5
121
330
1F
100
AcDbEntity
  8
NoLayerName_003
  6
Continuous
 62
     4
370
    50
100
AcDbCircle
 10
212.3599628549419
 20
363.1822402020921
 30
0.0
 40
13.1
100
AcDbArc
 50
341.5867596317283
 51
18.41324036827191
  0
ARC
  5
122
330
1F
100
AcDbEntity
  8
NoLayerName_003
  6
Continuous
 62
     4
370
    50
100
AcDbCircle
 10
212.3599628549419
 20
363.1822402020921
 30
0.0
 40
13.1
100
AcDbArc
 50
164.3019135258719
 51
198.4132403682719
  0
ARC
  5
123
330
1F
100
AcDbEntity
  8
NoLayerName_003
  6
Continuous
 62
     4
370
    50
100
AcDbCircle
 10
198.7920793314873
 20
358.6653234778246
 30
0.0
 40
1.2
100
AcDbArc
 50
314.9999999999975
 51
18.41324036827191
  0
LINE
  5
124
330
1F
100
AcDbEntity
  8
NoLayerName_003
  6
Continuous
 62
     4
370
    50
100
AcDbLine
 10
199.111957493645
 20
357.2881453651349
 30
0.0
 11
199.640607468911
 21
357.816795340401
 31
0.0
  0
ARC
  5
125
330
1F
100
AcDbEntity
  8
NoLayerName_003
  6
Continuous
 62
     4
370
    50
100
AcDbCircle
 10
212.3599628549419
 20
363.1822402020921
 30
0.0
 40
14.5
100
AcDbArc
 50
113.9844880056564
 51
156.0155119943445
  0
LINE
  5
126
330
1F
100
AcDbEntity
  8
NoLayerName_003
  6
Continuous
 62
     4
370
    50
100
AcDbLine
 10
206.9945179932513
 20
375.9015955881228
 30
0.0
 11
206.465868017985
 21
376.4302455633891
 31
0.0
  0
ARC
  5
127
330
1F
100
AcDbEntity
  8
NoLayerName_003
  6
Continuous
 62
     4
370
    50
100
AcDbCircle
 10
207.8430461306751
 20
376.750123725547
 30
0.0
 40
1.2
100
AcDbArc
 50
225.0000000000014
 51
288.4132403682701
  0
ARC
  5
128
330
1F
100
AcDbEntity
  8
NoLayerName_003
  6
Continuous
 62
     4
370
    50
100
AcDbCircle
 10
212.3599628549419
 20
363.1822402020921
 30
0.0
 40
13.1
100
AcDbArc
 50
71.5867596317294
 51
108.4132403682701
  0
ARC
  5
129
330
1F
100
AcDbEntity
  8
NoLayerName_003
  6
Continuous
 62
     4
370
    50
100
AcDbCircle
 10
216.8768795792087
 20
376.750123725547
 30
0.0
 40
1.2
100
AcDbArc
 50
251.5867596317296
 51
314.9999889338288
  0
LINE
  5
12A
330
1F
100
AcDbEntity
  8
NoLayerName_003
  6
Continuous
 62
     4
370
    50
100
AcDbLine
 10
217.7254077166324
 20
375.9015955881228
 30
0.0
 11
218.2540576918986
 21
376.4302455633889
 31
0.0
  0
ARC
  5
12B
330
1F
100
AcDbEntity
  8
NoLayerName_003
  6
Continuous
 62
     4
370
    50
100
AcDbCircle
 10
212.3599628549419
 20
363.1822402020921
 30
0.0
 40
14.5
100
AcDbArc
 50
293.9844880056564
 51
336.0155119943445
  0
LINE
  5
12C
330
1F
100
AcDbEntity
  8
NoLayerName_003
  6
Continuous
 62
     4
370
    50
100
AcDbLine
 10
217.7254077166329
 20
350.462884816061
 30
0.0
 11
218.2540576918989
 21
349.934234840795
 31
0.0
  0
ARC
  5
12D
330
1F
100
AcDbEntity
  8
NoLayerName_003
  6
Continuous
 62
     4
370
    50
100
AcDbCircle
 10
216.8768795792092
 20
349.6143566786373
 30
0.0
 40
1.2
100
AcDbArc
 50
44.99999999999947
 51
108.4132391608538
  0
ARC
  5
12E
330
1F
100
AcDbEntity
  8
NoLayerName_003
  6
Continuous
 62
     4
370
    50
100
AcDbCircle
 10
212.3599628549419
 20
363.1822402020921
 30
0.0
 40
13.1
100
AcDbArc
 50
251.5867596317277
 51
288.4132435628005
  0
ARC
  5
12F
330
1F
100
AcDbEntity
  8
NoLayerName_003
  6
Continuous
 62
     4
370
    50
100
AcDbCircle
 10
207.8430461306746
 20
349.6143566786373
 30
0.0
 40
1.2
100
AcDbArc
 50
71.58676048550159
 51
135.0000000000008
  0
LINE
  5
130
330
1F
100
AcDbEntity
  8
NoLayerName_003
  6
Continuous
 62
     4
370
    50
100
AcDbLine
 10
206.9945179932509
 20
350.462884816061
 30
0.0
 11
206.4658680179849
 21
349.934234840795
 31
0.0
  0
ARC
  5
131
330
1F
100
AcDbEntity
  8
NoLayerName_003
  6
Continuous
 62
     4
370
    50
100
AcDbCircle
 10
212.3599628549419
 20
363.1822402020921
 30
0.0
 40
14.5
100
AcDbArc
 50
203.9844880056564
 51
246.0155119943445
  0
ARC
  5
132
330
1F
100
AcDbEntity
  8
NoLayerName_003
  6
Continuous
 62
     4
370
    50
100
AcDbCircle
 10
225.9278463783965
 20
358.6653234778246
 30
0.0
 40
1.2
100
AcDbArc
 50
161.5867596317285
 51
225.0
  0
LINE
  5
133
330
1F
100
AcDbEntity
  8
NoLayerName_003
  6
Continuous
 62
     4
370
    50
100
AcDbLine
 10
199.3232096181276
 20
368.5822402020918
 30
0.0
 11
201.6516367428738
 21
369.0822402020918
 31
0.0
  0
LINE
  5
134
330
1F
100
AcDbEntity
  8
NoLayerName_003
  6
Continuous
 62
     4
370
    50
100
AcDbLine
 10
199.111957493645
 20
369.076335039049
 30
0.0
 11
199.5560523306021
 21
368.6322402020919
 31
0.0
  0
LINE
  5
135
330
1F
100
AcDbEntity
  8
NoLayerName_003
  6
Continuous
 62
     4
370
    50
100
AcDbLine
 10
199.5564477126071
 20
366.7822402020921
 30
0.0
 11
201.2856682950163
 21
366.2822402020921
 31
0.0
  0
LINE
  5
136
330
1F
100
AcDbEntity
  8
NoLayerName_003
  6
Continuous
 62
     4
370
    50
100
AcDbLine
 10
225.0793182409728
 20
357.8167953404009
 30
0.0
 11
225.6079682162388
 21
357.2881453651349
 31
0.0
  0
CIRCLE
  5
137
330
1F
100
AcDbEntity
  8
NoLayerName_003
  6
Continuous
 62
     4
370
    50
100
AcDbCircle
 10
162.3599628549419
 20
413.1822402020921
 30
0.0
 40
15.6
  0
LINE
  5
138
330
1F
100
AcDbEntity
  8
NoLayerName_003
  6
Continuous
 62
     4
370
    50
100
AcDbLine
 10
175.7493895724761
 20
418.9349136828119
 30
0.0
 11
175.2207395972101
 21
418.4062637075459
 31
0.0
  0
LINE
  5
139
330
1F
100
AcDbEntity
  8
NoLayerName_003
  6
Continuous
 62
     4
370
    50
100
AcDbLine
 10
167.5839863603952
 20
400.321463459824
 30
0.0
 11
168.1126363356615
 21
399.7928134845577
 31
0.0
  0
LINE
  5
13A
330
1F
100
AcDbEntity
  8
NoLayerName_003
  6
Continuous
 62
     4
370
    50
100
AcDbLine
 10
175.7493895724763
 20
407.4295667213724
 30
0.0
 11
175.2207395972102
 21
407.9582166966385
 31
0.0
  0
LINE
  5
13B
330
1F
100
AcDbEntity
  8
NoLayerName_003
  6
Continuous
 62
     4
370
    50
100
AcDbLine
 10
157.1359393494884
 20
400.321463459824
 30
0.0
 11
156.6072893742223
 21
399.7928134845579
 31
0.0
  0
ARC
  5
13C
330
1F
100
AcDbEntity
  8
NoLayerName_003
  6
Continuous
 62
     4
370
    50
100
AcDbCircle
 10
162.3599628549419
 20
413.1822402020921
 30
0.0
 40
14.7
100
AcDbArc
 50
203.9844880056564
 51
246.0155119943445
  0
ARC
  5
13D
330
1F
100
AcDbEntity
  8
NoLayerName_003
  6
Continuous
 62
     4
370
    50
100
AcDbCircle
 10
156.4658680179849
 20
399.934234840795
 30
0.0
 40
0.2
100
AcDbArc
 50
246.0155119943445
 51
315.0
  0
ARC
  5
13E
330
1F
100
AcDbEntity
  8
NoLayerName_003
  6
Continuous
 62
     4
370
    50
100
AcDbCircle
 10
162.3599628549419
 20
413.1822402020921
 30
0.0
 40
14.7
100
AcDbArc
 50
113.9844880056564
 51
156.0155119943445
  0
ARC
  5
13F
330
1F
100
AcDbEntity
  8
NoLayerName_003
  6
Continuous
 62
     4
370
    50
100
AcDbCircle
 10
156.4658680179849
 20
426.4302455633888
 30
0.0
 40
0.2
100
AcDbArc
 50
44.99999999999999
 51
113.9844880056564
  0
ARC
  5
140
330
1F
100
AcDbEntity
  8
NoLayerName_003
  6
Continuous
 62
     4
370
    50
100
AcDbCircle
 10
162.3599628549419
 20
413.1822402020921
 30
0.0
 40
14.7
100
AcDbArc
 50
23.98448800565644
 51
66.01551199434452
  0
ARC
  5
141
330
1F
100
AcDbEntity
  8
NoLayerName_003
  6
Continuous
 62
     4
370
    50
100
AcDbCircle
 10
175.6079682162388
 20
419.076335039049
 30
0.0
 40
0.2
100
AcDbArc
 50
315.0
 51
23.98448800565642
  0
ARC
  5
142
330
1F
100
AcDbEntity
  8
NoLayerName_003
  6
Continuous
 62
     4
370
    50
100
AcDbCircle
 10
175.607968216239
 20
407.2881453651349
 30
0.0
 40
0.2
100
AcDbArc
 50
336.0155119943445
 51
45.00000000000003
  0
ARC
  5
143
330
1F
100
AcDbEntity
  8
NoLayerName_003
  6
Continuous
 62
     4
370
    50
100
AcDbCircle
 10
162.3599628549419
 20
413.1822402020921
 30
0.0
 40
14.7
100
AcDbArc
 50
293.9844880056564
 51
336.0155119943445
  0
ARC
  5
144
330
1F
100
AcDbEntity
  8
NoLayerName_003
  6
Continuous
 62
     4
370
    50
100
AcDbCircle
 10
168.2540576918989
 20
399.934234840795
 30
0.0
 40
0.2
100
AcDbArc
 50
225.0
 51
293.9844880056564
  0
LINE
  5
145
330
1F
100
AcDbEntity
  8
NoLayerName_003
  6
Continuous
 62
     4
370
    50
100
AcDbLine
 10
162.6599628549419
 20
426.9590322815275
 30
0.0
 11
162.6599628549419
 21
428.5793178468919
 31
0.0
  0
LINE
  5
146
330
1F
100
AcDbEntity
  8
NoLayerName_003
  6
Continuous
 62
     4
370
    50
100
AcDbLine
 10
161.011324549256
 20
426.8997560366607
 30
0.0
 11
160.8766292881503
 21
428.5106361237018
 31
0.0
  0
LINE
  5
147
330
1F
100
AcDbEntity
  8
NoLayerName_003
  6
Continuous
 62
     4
370
    50
100
AcDbLine
 10
176.1367549343775
 20
412.882240202092
 30
0.0
 11
177.7570404997419
 21
412.882240202092
 31
0.0
  0
LINE
  5
148
330
1F
100
AcDbEntity
  8
NoLayerName_003
  6
Continuous
 62
     4
370
    50
100
AcDbLine
 10
176.0774786895107
 20
414.5308785077778
 30
0.0
 11
177.688358776552
 21
414.6655737688836
 31
0.0
  0
LINE
  5
149
330
1F
100
AcDbEntity
  8
NoLayerName_003
  6
Continuous
 62
     4
370
    50
100
AcDbLine
 10
162.0599628549419
 20
399.4054481226563
 30
0.0
 11
162.0599628549419
 21
397.7851625572919
 31
0.0
  0
LINE
  5
14A
330
1F
100
AcDbEntity
  8
NoLayerName_003
  6
Continuous
 62
     4
370
    50
100
AcDbLine
 10
163.7086011606278
 20
399.4647243675232
 30
0.0
 11
163.8432964217336
 21
397.8538442804818
 31
0.0
  0
ARC
  5
14B
330
1F
100
AcDbEntity
  8
NoLayerName_003
  6
Continuous
 62
     4
370
    50
100
AcDbCircle
 10
162.3599628549419
 20
413.1822402020921
 30
0.0
 40
15.4
100
AcDbArc
 50
268.8837778441416
 51
275.5273194891133
  0
ARC
  5
14C
330
1F
100
AcDbEntity
  8
NoLayerName_003
  6
Continuous
 62
     4
370
    50
100
AcDbCircle
 10
162.3599628549419
 20
413.1822402020921
 30
0.0
 40
15.4
100
AcDbArc
 50
358.8837778441415
 51
5.527319489111917
  0
ARC
  5
14D
330
1F
100
AcDbEntity
  8
NoLayerName_003
  6
Continuous
 62
     4
370
    50
100
AcDbCircle
 10
162.3599628549419
 20
413.1822402020921
 30
0.0
 40
13.3
100
AcDbArc
 50
71.58675963172794
 51
108.413240368272
  0
LINE
  5
14E
330
1F
100
AcDbEntity
  8
NoLayerName_003
  6
Continuous
 62
     4
370
    50
100
AcDbLine
 10
157.135939349488
 20
426.0430169443603
 30
0.0
 11
156.6072893742219
 21
426.5716669196264
 31
0.0
  0
ARC
  5
14F
330
1F
100
AcDbEntity
  8
NoLayerName_003
  6
Continuous
 62
     4
370
    50
100
AcDbCircle
 10
157.8430461306746
 20
426.750123725547
 30
0.0
 40
1.0
100
AcDbArc
 50
225.0
 51
288.4132403682721
  0
ARC
  5
150
330
1F
100
AcDbEntity
  8
NoLayerName_003
  6
Continuous
 62
     4
370
    50
100
AcDbCircle
 10
162.3599628549419
 20
413.1822402020921
 30
0.0
 40
13.3
100
AcDbArc
 50
251.5867596317295
 51
288.4132403682701
  0
ARC
  5
151
330
1F
100
AcDbEntity
  8
NoLayerName_003
  6
Continuous
 62
     4
370
    50
100
AcDbCircle
 10
157.8430461306751
 20
399.6143566786373
 30
0.0
 40
1.0
100
AcDbArc
 50
71.58675963172956
 51
135.0
  0
ARC
  5
152
330
1F
100
AcDbEntity
  8
NoLayerName_003
  6
Continuous
 62
     4
370
    50
100
AcDbCircle
 10
166.8768795792087
 20
399.6143566786373
 30
0.0
 40
1.0
100
AcDbArc
 50
45.0
 51
108.4132403682701
  0
ARC
  5
153
330
1F
100
AcDbEntity
  8
NoLayerName_003
  6
Continuous
 62
     4
370
    50
100
AcDbCircle
 10
175.9278463783965
 20
408.6653234778251
 30
0.0
 40
1.0
100
AcDbArc
 50
161.5867596317281
 51
225.0
  0
ARC
  5
154
330
1F
100
AcDbEntity
  8
NoLayerName_003
  6
Continuous
 62
     4
370
    50
100
AcDbCircle
 10
162.3599628549419
 20
413.1822402020921
 30
0.0
 40
13.3
100
AcDbArc
 50
341.5867596317281
 51
18.41324036827191
  0
ARC
  5
155
330
1F
100
AcDbEntity
  8
NoLayerName_003
  6
Continuous
 62
     4
370
    50
100
AcDbCircle
 10
175.9278463783965
 20
417.6991569263592
 30
0.0
 40
1.0
100
AcDbArc
 50
134.9999999999999
 51
198.4132403682719
  0
ARC
  5
156
330
1F
100
AcDbEntity
  8
NoLayerName_003
  6
Continuous
 62
     4
370
    50
100
AcDbCircle
 10
168.2540576918989
 20
426.4302455633888
 30
0.0
 40
0.2
100
AcDbArc
 50
66.01551199434357
 51
135.0
  0
LINE
  5
157
330
1F
100
AcDbEntity
  8
NoLayerName_003
  6
Continuous
 62
     4
370
    50
100
AcDbLine
 10
167.5839863603958
 20
426.0430169443603
 30
0.0
 11
168.1126363356619
 21
426.5716669196264
 31
0.0
  0
ARC
  5
158
330
1F
100
AcDbEntity
  8
NoLayerName_003
  6
Continuous
 62
     4
370
    50
100
AcDbCircle
 10
166.8768795792092
 20
426.750123725547
 30
0.0
 40
1.0
100
AcDbArc
 50
251.5867596317279
 51
315.0
  0
ARC
  5
159
330
1F
100
AcDbEntity
  8
NoLayerName_003
  6
Continuous
 62
     4
370
    50
100
AcDbCircle
 10
176.1367549343775
 20
412.382240202092
 30
0.0
 40
0.5
100
AcDbArc
 50
90.0
 51
176.6766423260137
  0
ARC
  5
15A
330
1F
100
AcDbEntity
  8
NoLayerName_003
  6
Continuous
 62
     4
370
    50
100
AcDbCircle
 10
176.0358161078169
 20
415.0291397136598
 30
0.0
 40
0.5
100
AcDbArc
 50
187.6911605807827
 51
274.7797221100645
  0
ARC
  5
15B
330
1F
100
AcDbEntity
  8
NoLayerName_003
  6
Continuous
 62
     4
370
    50
100
AcDbCircle
 10
161.5599628549419
 20
399.4054481226563
 30
0.0
 40
0.5
100
AcDbArc
 50
0.0
 51
86.67664232601372
  0
ARC
  5
15C
330
1F
100
AcDbEntity
  8
NoLayerName_003
  6
Continuous
 62
     4
370
    50
100
AcDbCircle
 10
164.2068623665094
 20
399.506386949217
 30
0.0
 40
0.5
100
AcDbArc
 50
97.69116058078211
 51
184.7797221100646
  0
ARC
  5
15D
330
1F
100
AcDbEntity
  8
NoLayerName_003
  6
Continuous
 62
     4
370
    50
100
AcDbCircle
 10
163.1599628549419
 20
426.9590322815275
 30
0.0
 40
0.5
100
AcDbArc
 50
180.0
 51
266.6766423260137
  0
ARC
  5
15E
330
1F
100
AcDbEntity
  8
NoLayerName_003
  6
Continuous
 62
     4
370
    50
100
AcDbCircle
 10
160.5130633433744
 20
426.8580934549669
 30
0.0
 40
0.5
100
AcDbArc
 50
277.6911605807822
 51
4.779722110064586
  0
LINE
  5
15F
330
1F
100
AcDbEntity
  8
NoLayerName_003
  6
Continuous
 62
     4
370
    50
100
AcDbLine
 10
149.4991861126737
 20
407.9582166966384
 30
0.0
 11
148.9705361374075
 21
407.4295667213722
 31
0.0
  0
LINE
  5
160
330
1F
100
AcDbEntity
  8
NoLayerName_003
  6
Continuous
 62
     4
370
    50
100
AcDbLine
 10
149.4991861126737
 20
418.4062637075459
 30
0.0
 11
148.9705361374077
 21
418.9349136828118
 31
0.0
  0
ARC
  5
161
330
1F
100
AcDbEntity
  8
NoLayerName_003
  6
Continuous
 62
     4
370
    50
100
AcDbCircle
 10
149.111957493645
 20
407.2881453651349
 30
0.0
 40
0.2
100
AcDbArc
 50
135.0
 51
203.9844880056564
  0
ARC
  5
162
330
1F
100
AcDbEntity
  8
NoLayerName_003
  6
Continuous
 62
     4
370
    50
100
AcDbCircle
 10
149.1119574936448
 20
419.076335039049
 30
0.0
 40
0.2
100
AcDbArc
 50
156.0155119943445
 51
225.0
  0
LINE
  5
163
330
1F
100
AcDbEntity
  8
NoLayerName_003
  6
Continuous
 62
     4
370
    50
100
AcDbLine
 10
148.5831707755063
 20
413.4822402020919
 30
0.0
 11
146.962885210142
 21
413.4822402020919
 31
0.0
  0
LINE
  5
164
330
1F
100
AcDbEntity
  8
NoLayerName_003
  6
Continuous
 62
     4
370
    50
100
AcDbLine
 10
148.6424470203731
 20
411.833601896406
 30
0.0
 11
147.0315669333319
 21
411.6989066353003
 31
0.0
  0
ARC
  5
165
330
1F
100
AcDbEntity
  8
NoLayerName_003
  6
Continuous
 62
     4
370
    50
100
AcDbCircle
 10
162.3599628549419
 20
413.1822402020921
 30
0.0
 40
15.4
100
AcDbArc
 50
178.8837778441416
 51
185.5273194891118
  0
ARC
  5
166
330
1F
100
AcDbEntity
  8
NoLayerName_003
  6
Continuous
 62
     4
370
    50
100
AcDbCircle
 10
162.3599628549419
 20
413.1822402020921
 30
0.0
 40
15.4
100
AcDbArc
 50
88.88377784414153
 51
95.52731948911192
  0
ARC
  5
167
330
1F
100
AcDbEntity
  8
NoLayerName_003
  6
Continuous
 62
     4
370
    50
100
AcDbCircle
 10
162.3599628549419
 20
413.1822402020921
 30
0.0
 40
13.3
100
AcDbArc
 50
161.5867596317281
 51
198.4132403682719
  0
ARC
  5
168
330
1F
100
AcDbEntity
  8
NoLayerName_003
  6
Continuous
 62
     4
370
    50
100
AcDbCircle
 10
148.7920793314873
 20
417.6991569263592
 30
0.0
 40
1.0
100
AcDbArc
 50
341.5867596317281
 51
45.00000000000003
  0
ARC
  5
169
330
1F
100
AcDbEntity
  8
NoLayerName_003
  6
Continuous
 62
     4
370
    50
100
AcDbCircle
 10
148.7920793314873
 20
408.6653234778251
 30
0.0
 40
1.0
100
AcDbArc
 50
315.0
 51
18.41324036827191
  0
ARC
  5
16A
330
1F
100
AcDbEntity
  8
NoLayerName_003
  6
Continuous
 62
     4
370
    50
100
AcDbCircle
 10
148.6841096020669
 20
411.3353406905244
 30
0.0
 40
0.5
100
AcDbArc
 50
7.691160580781701
 51
94.77972211006458
  0
ARC
  5
16B
330
1F
100
AcDbEntity
  8
NoLayerName_003
  6
Continuous
 62
     4
370
    50
100
AcDbCircle
 10
148.5831707755063
 20
413.9822402020919
 30
0.0
 40
0.5
100
AcDbArc
 50
270.0
 51
356.6766423260137
  0
ARC
  5
16C
330
1F
100
AcDbEntity
  8
NoLayerName_003
  6
Continuous
 62
     4
370
    50
100
AcDbCircle
 10
162.3599628549419
 20
413.1822402020921
 30
0.0
 40
12.9
100
AcDbArc
 50
119.7182447604593
 51
150.2817552395412
  0
LINE
  5
16D
330
1F
100
AcDbEntity
  8
NoLayerName_003
  6
Continuous
 62
     4
370
    50
100
AcDbLine
 10
151.1566521129101
 20
419.5772248320555
 30
0.0
 11
152.1875953731734
 21
418.5462815717922
 31
0.0
  0
ARC
  5
16E
330
1F
100
AcDbEntity
  8
NoLayerName_003
  6
Continuous
 62
     4
370
    50
100
AcDbCircle
 10
162.3599628549419
 20
413.1822402020921
 30
0.0
 40
11.5
100
AcDbArc
 50
242.1966486862586
 51
297.8033513137418
  0
LINE
  5
16F
330
1F
100
AcDbEntity
  8
NoLayerName_003
  6
Continuous
 62
     4
370
    50
100
AcDbLine
 10
156.9959214852414
 20
423.3546076838607
 30
0.0
 11
155.964978224978
 21
424.3855509441241
 31
0.0
  0
ARC
  5
170
330
1F
100
AcDbEntity
  8
NoLayerName_003
  6
Continuous
 62
     4
370
    50
100
AcDbCircle
 10
162.3599628549419
 20
413.1822402020921
 30
0.0
 40
12.9
100
AcDbArc
 50
29.71824476045934
 51
60.28175523954106
  0
LINE
  5
171
330
1F
100
AcDbEntity
  8
NoLayerName_003
  6
Continuous
 62
     4
370
    50
100
AcDbLine
 10
168.7549474849055
 20
424.3855509441242
 30
0.0
 11
167.7240042246421
 21
423.3546076838609
 31
0.0
  0
ARC
  5
172
330
1F
100
AcDbEntity
  8
NoLayerName_003
  6
Continuous
 62
     4
370
    50
100
AcDbCircle
 10
162.3599628549419
 20
413.1822402020921
 30
0.0
 40
11.5
100
AcDbArc
 50
152.1966486862587
 51
207.8033513137417
  0
LINE
  5
173
330
1F
100
AcDbEntity
  8
NoLayerName_003
  6
Continuous
 62
     4
370
    50
100
AcDbLine
 10
172.5323303367105
 20
418.5462815717925
 30
0.0
 11
173.5632735969738
 21
419.5772248320558
 31
0.0
  0
ARC
  5
174
330
1F
100
AcDbEntity
  8
NoLayerName_003
  6
Continuous
 62
     4
370
    50
100
AcDbCircle
 10
162.3599628549419
 20
413.1822402020921
 30
0.0
 40
12.9
100
AcDbArc
 50
299.7182447604593
 51
330.2817552395412
  0
LINE
  5
175
330
1F
100
AcDbEntity
  8
NoLayerName_003
  6
Continuous
 62
     4
370
    50
100
AcDbLine
 10
173.5632735969737
 20
406.7872555721283
 30
0.0
 11
172.5323303367104
 21
407.8181988323917
 31
0.0
  0
ARC
  5
176
330
1F
100
AcDbEntity
  8
NoLayerName_003
  6
Continuous
 62
     4
370
    50
100
AcDbCircle
 10
162.3599628549419
 20
413.1822402020921
 30
0.0
 40
11.5
100
AcDbArc
 50
332.1966486862586
 51
27.80335131374174
  0
LINE
  5
177
330
1F
100
AcDbEntity
  8
NoLayerName_003
  6
Continuous
 62
     4
370
    50
100
AcDbLine
 10
167.7240042246422
 20
403.0098727203236
 30
0.0
 11
168.7549474849056
 21
401.9789294600602
 31
0.0
  0
ARC
  5
178
330
1F
100
AcDbEntity
  8
NoLayerName_003
  6
Continuous
 62
     4
370
    50
100
AcDbCircle
 10
162.3599628549419
 20
413.1822402020921
 30
0.0
 40
12.9
100
AcDbArc
 50
209.7182447604593
 51
240.2817552395412
  0
LINE
  5
179
330
1F
100
AcDbEntity
  8
NoLayerName_003
  6
Continuous
 62
     4
370
    50
100
AcDbLine
 10
155.9649782249783
 20
401.9789294600601
 30
0.0
 11
156.9959214852417
 21
403.0098727203234
 31
0.0
  0
ARC
  5
17A
330
1F
100
AcDbEntity
  8
NoLayerName_003
  6
Continuous
 62
     4
370
    50
100
AcDbCircle
 10
162.3599628549419
 20
413.1822402020921
 30
0.0
 40
11.5
100
AcDbArc
 50
62.19664868625869
 51
117.8033513137419
  0
LINE
  5
17B
330
1F
100
AcDbEntity
  8
NoLayerName_003
  6
Continuous
 62
     4
370
    50
100
AcDbLine
 10
152.1875953731733
 20
407.8181988323918
 30
0.0
 11
151.15665211291
 21
406.7872555721285
 31
0.0
  0
ARC
  5
17C
330
1F
100
AcDbEntity
  8
NoLayerName_003
  6
Continuous
 62
     4
370
    50
100
AcDbCircle
 10
162.3599628549419
 20
413.1822402020921
 30
0.0
 40
14.5
100
AcDbArc
 50
203.9844880056564
 51
246.0155119943445
  0
LINE
  5
17D
330
1F
100
AcDbEntity
  8
NoLayerName_003
  6
Continuous
 62
     4
370
    50
100
AcDbLine
 10
149.640607468911
 20
407.8167953404009
 30
0.0
 11
149.1119574936448
 21
407.2881453651347
 31
0.0
  0
ARC
  5
17E
330
1F
100
AcDbEntity
  8
NoLayerName_003
  6
Continuous
 62
     4
370
    50
100
AcDbCircle
 10
148.7920793314873
 20
408.6653234778251
 30
0.0
 40
1.2
100
AcDbArc
 50
315.0000000000038
 51
18.41322923642548
  0
ARC
  5
17F
330
1F
100
AcDbEntity
  8
NoLayerName_003
  6
Continuous
 62
     4
370
    50
100
AcDbCircle
 10
162.3599628549419
 20
413.1822402020921
 30
0.0
 40
13.1
100
AcDbArc
 50
161.5867596317283
 51
198.4132403682719
  0
ARC
  5
180
330
1F
100
AcDbEntity
  8
NoLayerName_003
  6
Continuous
 62
     4
370
    50
100
AcDbCircle
 10
162.3599628549419
 20
413.1822402020921
 30
0.0
 40
13.1
100
AcDbArc
 50
344.3019135258718
 51
18.41324036827191
  0
ARC
  5
181
330
1F
100
AcDbEntity
  8
NoLayerName_003
  6
Continuous
 62
     4
370
    50
100
AcDbCircle
 10
175.9278463783965
 20
417.6991569263592
 30
0.0
 40
1.2
100
AcDbArc
 50
134.9999999999975
 51
198.4132403682719
  0
LINE
  5
182
330
1F
100
AcDbEntity
  8
NoLayerName_003
  6
Continuous
 62
     4
370
    50
100
AcDbLine
 10
175.6079682162388
 20
419.076335039049
 30
0.0
 11
175.0793182409728
 21
418.5476850637829
 31
0.0
  0
ARC
  5
183
330
1F
100
AcDbEntity
  8
NoLayerName_003
  6
Continuous
 62
     4
370
    50
100
AcDbCircle
 10
162.3599628549419
 20
413.1822402020921
 30
0.0
 40
14.5
100
AcDbArc
 50
293.9844880056564
 51
336.0155119943445
  0
LINE
  5
184
330
1F
100
AcDbEntity
  8
NoLayerName_003
  6
Continuous
 62
     4
370
    50
100
AcDbLine
 10
167.7254077166324
 20
400.462884816061
 30
0.0
 11
168.2540576918988
 21
399.9342348407947
 31
0.0
  0
ARC
  5
185
330
1F
100
AcDbEntity
  8
NoLayerName_003
  6
Continuous
 62
     4
370
    50
100
AcDbCircle
 10
166.8768795792087
 20
399.6143566786373
 30
0.0
 40
1.2
100
AcDbArc
 50
45.00000000000138
 51
108.4132403682701
  0
ARC
  5
186
330
1F
100
AcDbEntity
  8
NoLayerName_003
  6
Continuous
 62
     4
370
    50
100
AcDbCircle
 10
162.3599628549419
 20
413.1822402020921
 30
0.0
 40
13.1
100
AcDbArc
 50
251.5867596317294
 51
288.4132403682701
  0
ARC
  5
187
330
1F
100
AcDbEntity
  8
NoLayerName_003
  6
Continuous
 62
     4
370
    50
100
AcDbCircle
 10
157.8430461306751
 20
399.6143566786373
 30
0.0
 40
1.2
100
AcDbArc
 50
71.5867596317296
 51
134.9999889338288
  0
LINE
  5
188
330
1F
100
AcDbEntity
  8
NoLayerName_003
  6
Continuous
 62
     4
370
    50
100
AcDbLine
 10
156.9945179932513
 20
400.462884816061
 30
0.0
 11
156.4658680179852
 21
399.9342348407949
 31
0.0
  0
ARC
  5
189
330
1F
100
AcDbEntity
  8
NoLayerName_003
  6
Continuous
 62
     4
370
    50
100
AcDbCircle
 10
162.3599628549419
 20
413.1822402020921
 30
0.0
 40
14.5
100
AcDbArc
 50
113.9844880056564
 51
156.0155119943445
  0
LINE
  5
18A
330
1F
100
AcDbEntity
  8
NoLayerName_003
  6
Continuous
 62
     4
370
    50
100
AcDbLine
 10
156.9945179932509
 20
425.9015955881228
 30
0.0
 11
156.4658680179849
 21
426.4302455633888
 31
0.0
  0
ARC
  5
18B
330
1F
100
AcDbEntity
  8
NoLayerName_003
  6
Continuous
 62
     4
370
    50
100
AcDbCircle
 10
157.8430461306746
 20
426.750123725547
 30
0.0
 40
1.2
100
AcDbArc
 50
224.9999999999995
 51
288.4132391608538
  0
ARC
  5
18C
330
1F
100
AcDbEntity
  8
NoLayerName_003
  6
Continuous
 62
     4
370
    50
100
AcDbCircle
 10
162.3599628549419
 20
413.1822402020921
 30
0.0
 40
13.1
100
AcDbArc
 50
71.58675963172773
 51
108.4132435628005
  0
ARC
  5
18D
330
1F
100
AcDbEntity
  8
NoLayerName_003
  6
Continuous
 62
     4
370
    50
100
AcDbCircle
 10
166.8768795792092
 20
426.750123725547
 30
0.0
 40
1.2
100
AcDbArc
 50
251.5867604855016
 51
315.0000000000007
  0
LINE
  5
18E
330
1F
100
AcDbEntity
  8
NoLayerName_003
  6
Continuous
 62
     4
370
    50
100
AcDbLine
 10
167.7254077166329
 20
425.9015955881228
 30
0.0
 11
168.2540576918989
 21
426.4302455633888
 31
0.0
  0
ARC
  5
18F
330
1F
100
AcDbEntity
  8
NoLayerName_003
  6
Continuous
 62
     4
370
    50
100
AcDbCircle
 10
162.3599628549419
 20
413.1822402020921
 30
0.0
 40
14.5
100
AcDbArc
 50
23.98448800565644
 51
66.01551199434452
  0
ARC
  5
190
330
1F
100
AcDbEntity
  8
NoLayerName_003
  6
Continuous
 62
     4
370
    50
100
AcDbCircle
 10
148.7920793314873
 20
417.6991569263592
 30
0.0
 40
1.2
100
AcDbArc
 50
341.5867596317286
 51
45.00000000000003
  0
LINE
  5
191
330
1F
100
AcDbEntity
  8
NoLayerName_003
  6
Continuous
 62
     4
370
    50
100
AcDbLine
 10
175.3967160917562
 20
407.7822402020921
 30
0.0
 11
173.0682889670099
 21
407.2822402020921
 31
0.0
  0
LINE
  5
192
330
1F
100
AcDbEntity
  8
NoLayerName_003
  6
Continuous
 62
     4
370
    50
100
AcDbLine
 10
175.6079682162388
 20
407.2881453651349
 30
0.0
 11
175.1638733792817
 21
407.7322402020919
 31
0.0
  0
LINE
  5
193
330
1F
100
AcDbEntity
  8
NoLayerName_003
  6
Continuous
 62
     4
370
    50
100
AcDbLine
 10
175.1634779972767
 20
409.5822402020922
 30
0.0
 11
173.4342574148675
 21
410.0822402020922
 31
0.0
  0
LINE
  5
194
330
1F
100
AcDbEntity
  8
NoLayerName_003
  6
Continuous
 62
     4
370
    50
100
AcDbLine
 10
149.640607468911
 20
418.5476850637829
 30
0.0
 11
149.111957493645
 21
419.076335039049
 31
0.0
  0
CIRCLE
  5
195
330
1F
100
AcDbEntity
  8
NoLayerName_003
  6
Continuous
 62
     4
370
    50
100
AcDbCircle
 10
162.3599628549419
 20
363.1822402020921
 30
0.0
 40
15.6
  0
LINE
  5
196
330
1F
100
AcDbEntity
  8
NoLayerName_003
  6
Continuous
 62
     4
370
    50
100
AcDbLine
 10
175.7493895724759
 20
357.4295667213724
 30
0.0
 11
175.2207395972098
 21
357.9582166966384
 31
0.0
  0
LINE
  5
197
330
1F
100
AcDbEntity
  8
NoLayerName_003
  6
Continuous
 62
     4
370
    50
100
AcDbLine
 10
167.5839863603952
 20
376.0430169443603
 30
0.0
 11
168.1126363356615
 21
376.5716669196266
 31
0.0
  0
LINE
  5
198
330
1F
100
AcDbEntity
  8
NoLayerName_003
  6
Continuous
 62
     4
370
    50
100
AcDbLine
 10
175.7493895724763
 20
368.9349136828119
 30
0.0
 11
175.2207395972102
 21
368.4062637075458
 31
0.0
  0
LINE
  5
199
330
1F
100
AcDbEntity
  8
NoLayerName_003
  6
Continuous
 62
     4
370
    50
100
AcDbLine
 10
157.1359393494884
 20
376.0430169443603
 30
0.0
 11
156.6072893742223
 21
376.5716669196264
 31
0.0
  0
ARC
  5
19A
330
1F
100
AcDbEntity
  8
NoLayerName_003
  6
Continuous
 62
     4
370
    50
100
AcDbCircle
 10
162.3599628549419
 20
363.1822402020921
 30
0.0
 40
14.7
100
AcDbArc
 50
113.9844880056555
 51
156.0155119943436
  0
ARC
  5
19B
330
1F
100
AcDbEntity
  8
NoLayerName_003
  6
Continuous
 62
     4
370
    50
100
AcDbCircle
 10
156.4658680179849
 20
376.4302455633893
 30
0.0
 40
0.2
100
AcDbArc
 50
45.0
 51
113.9844880056555
  0
ARC
  5
19C
330
1F
100
AcDbEntity
  8
NoLayerName_003
  6
Continuous
 62
     4
370
    50
100
AcDbCircle
 10
162.3599628549419
 20
363.1822402020921
 30
0.0
 40
14.7
100
AcDbArc
 50
203.9844880056555
 51
246.0155119943436
  0
ARC
  5
19D
330
1F
100
AcDbEntity
  8
NoLayerName_003
  6
Continuous
 62
     4
370
    50
100
AcDbCircle
 10
156.4658680179849
 20
349.934234840795
 30
0.0
 40
0.2
100
AcDbArc
 50
246.0155119943436
 51
315.0
  0
ARC
  5
19E
330
1F
100
AcDbEntity
  8
NoLayerName_003
  6
Continuous
 62
     4
370
    50
100
AcDbCircle
 10
162.3599628549419
 20
363.1822402020921
 30
0.0
 40
14.7
100
AcDbArc
 50
293.9844880056555
 51
336.0155119943436
  0
ARC
  5
19F
330
1F
100
AcDbEntity
  8
NoLayerName_003
  6
Continuous
 62
     4
370
    50
100
AcDbCircle
 10
175.6079682162388
 20
357.2881453651349
 30
0.0
 40
0.2
100
AcDbArc
 50
336.0155119943436
 51
45.00000000000001
  0
ARC
  5
1A0
330
1F
100
AcDbEntity
  8
NoLayerName_003
  6
Continuous
 62
     4
370
    50
100
AcDbCircle
 10
175.6079682162388
 20
369.076335039049
 30
0.0
 40
0.2
100
AcDbArc
 50
315.0
 51
23.98448800565546
  0
ARC
  5
1A1
330
1F
100
AcDbEntity
  8
NoLayerName_003
  6
Continuous
 62
     4
370
    50
100
AcDbCircle
 10
162.3599628549419
 20
363.1822402020921
 30
0.0
 40
14.7
100
AcDbArc
 50
23.98448800565551
 51
66.01551199434357
  0
ARC
  5
1A2
330
1F
100
AcDbEntity
  8
NoLayerName_003
  6
Continuous
 62
     4
370
    50
100
AcDbCircle
 10
168.2540576918989
 20
376.4302455633893
 30
0.0
 40
0.2
100
AcDbArc
 50
66.01551199434357
 51
135.0
  0
LINE
  5
1A3
330
1F
100
AcDbEntity
  8
NoLayerName_003
  6
Continuous
 62
     4
370
    50
100
AcDbLine
 10
162.0599628549419
 20
349.4054481226563
 30
0.0
 11
162.0599628549419
 21
347.7851625572919
 31
0.0
  0
LINE
  5
1A4
330
1F
100
AcDbEntity
  8
NoLayerName_003
  6
Continuous
 62
     4
370
    50
100
AcDbLine
 10
163.7086011606278
 20
349.4647243675232
 30
0.0
 11
163.8432964217335
 21
347.853844280482
 31
0.0
  0
LINE
  5
1A5
330
1F
100
AcDbEntity
  8
NoLayerName_003
  6
Continuous
 62
     4
370
    50
100
AcDbLine
 10
176.1367549343775
 20
362.882240202092
 30
0.0
 11
177.7570404997419
 21
362.882240202092
 31
0.0
  0
LINE
  5
1A6
330
1F
100
AcDbEntity
  8
NoLayerName_003
  6
Continuous
 62
     4
370
    50
100
AcDbLine
 10
176.0774786895107
 20
364.5308785077778
 30
0.0
 11
177.688358776552
 21
364.6655737688836
 31
0.0
  0
LINE
  5
1A7
330
1F
100
AcDbEntity
  8
NoLayerName_003
  6
Continuous
 62
     4
370
    50
100
AcDbLine
 10
162.6599628549419
 20
376.9590322815275
 30
0.0
 11
162.6599628549419
 21
378.5793178468919
 31
0.0
  0
LINE
  5
1A8
330
1F
100
AcDbEntity
  8
NoLayerName_003
  6
Continuous
 62
     4
370
    50
100
AcDbLine
 10
161.011324549256
 20
376.8997560366607
 30
0.0
 11
160.8766292881502
 21
378.5106361237021
 31
0.0
  0
ARC
  5
1A9
330
1F
100
AcDbEntity
  8
NoLayerName_003
  6
Continuous
 62
     4
370
    50
100
AcDbCircle
 10
162.3599628549419
 20
363.1822402020921
 30
0.0
 40
15.4
100
AcDbArc
 50
88.88377784414158
 51
95.5273194891132
  0
ARC
  5
1AA
330
1F
100
AcDbEntity
  8
NoLayerName_003
  6
Continuous
 62
     4
370
    50
100
AcDbCircle
 10
162.3599628549419
 20
363.1822402020921
 30
0.0
 40
15.4
100
AcDbArc
 50
358.8837778441415
 51
5.527319489111903
  0
ARC
  5
1AB
330
1F
100
AcDbEntity
  8
NoLayerName_003
  6
Continuous
 62
     4
370
    50
100
AcDbCircle
 10
162.3599628549419
 20
363.1822402020921
 30
0.0
 40
13.3
100
AcDbArc
 50
251.586759631728
 51
288.4132403682721
  0
LINE
  5
1AC
330
1F
100
AcDbEntity
  8
NoLayerName_003
  6
Continuous
 62
     4
370
    50
100
AcDbLine
 10
157.135939349488
 20
350.321463459824
 30
0.0
 11
156.6072893742219
 21
349.7928134845579
 31
0.0
  0
ARC
  5
1AD
330
1F
100
AcDbEntity
  8
NoLayerName_003
  6
Continuous
 62
     4
370
    50
100
AcDbCircle
 10
157.8430461306746
 20
349.6143566786373
 30
0.0
 40
1.0
100
AcDbArc
 50
71.58675963172794
 51
135.0
  0
ARC
  5
1AE
330
1F
100
AcDbEntity
  8
NoLayerName_003
  6
Continuous
 62
     4
370
    50
100
AcDbCircle
 10
162.3599628549419
 20
363.1822402020921
 30
0.0
 40
13.3
100
AcDbArc
 50
71.58675963172992
 51
108.4132403682704
  0
ARC
  5
1AF
330
1F
100
AcDbEntity
  8
NoLayerName_003
  6
Continuous
 62
     4
370
    50
100
AcDbCircle
 10
157.8430461306751
 20
376.750123725547
 30
0.0
 40
1.0
100
AcDbArc
 50
225.0
 51
288.4132403682705
  0
ARC
  5
1B0
330
1F
100
AcDbEntity
  8
NoLayerName_003
  6
Continuous
 62
     4
370
    50
100
AcDbCircle
 10
166.8768795792087
 20
376.750123725547
 30
0.0
 40
1.0
100
AcDbArc
 50
251.5867596317299
 51
315.0
  0
ARC
  5
1B1
330
1F
100
AcDbEntity
  8
NoLayerName_003
  6
Continuous
 62
     4
370
    50
100
AcDbCircle
 10
175.9278463783965
 20
367.6991569263592
 30
0.0
 40
1.0
100
AcDbArc
 50
135.0
 51
198.4132403682719
  0
ARC
  5
1B2
330
1F
100
AcDbEntity
  8
NoLayerName_003
  6
Continuous
 62
     4
370
    50
100
AcDbCircle
 10
162.3599628549419
 20
363.1822402020921
 30
0.0
 40
13.3
100
AcDbArc
 50
341.5867596317281
 51
18.41324036827191
  0
ARC
  5
1B3
330
1F
100
AcDbEntity
  8
NoLayerName_003
  6
Continuous
 62
     4
370
    50
100
AcDbCircle
 10
175.9278463783965
 20
358.6653234778246
 30
0.0
 40
1.0
100
AcDbArc
 50
161.5867596317281
 51
225.0
  0
ARC
  5
1B4
330
1F
100
AcDbEntity
  8
NoLayerName_003
  6
Continuous
 62
     4
370
    50
100
AcDbCircle
 10
168.2540576918989
 20
349.934234840795
 30
0.0
 40
0.2
100
AcDbArc
 50
225.0
 51
293.9844880056564
  0
LINE
  5
1B5
330
1F
100
AcDbEntity
  8
NoLayerName_003
  6
Continuous
 62
     4
370
    50
100
AcDbLine
 10
167.5839863603958
 20
350.321463459824
 30
0.0
 11
168.1126363356619
 21
349.7928134845579
 31
0.0
  0
ARC
  5
1B6
330
1F
100
AcDbEntity
  8
NoLayerName_003
  6
Continuous
 62
     4
370
    50
100
AcDbCircle
 10
166.8768795792092
 20
349.6143566786373
 30
0.0
 40
1.0
100
AcDbArc
 50
45.0
 51
108.4132403682721
  0
ARC
  5
1B7
330
1F
100
AcDbEntity
  8
NoLayerName_003
  6
Continuous
 62
     4
370
    50
100
AcDbCircle
 10
176.1367549343775
 20
362.382240202092
 30
0.0
 40
0.5
100
AcDbArc
 50
90.0
 51
176.6766423260137
  0
ARC
  5
1B8
330
1F
100
AcDbEntity
  8
NoLayerName_003
  6
Continuous
 62
     4
370
    50
100
AcDbCircle
 10
176.0358161078169
 20
365.0291397136598
 30
0.0
 40
0.5
100
AcDbArc
 50
187.6911605807827
 51
274.7797221100645
  0
ARC
  5
1B9
330
1F
100
AcDbEntity
  8
NoLayerName_003
  6
Continuous
 62
     4
370
    50
100
AcDbCircle
 10
163.1599628549419
 20
376.9590322815275
 30
0.0
 40
0.5
100
AcDbArc
 50
180.0
 51
266.6766423260137
  0
ARC
  5
1BA
330
1F
100
AcDbEntity
  8
NoLayerName_003
  6
Continuous
 62
     4
370
    50
100
AcDbCircle
 10
160.5130633433744
 20
376.8580934549669
 30
0.0
 40
0.5
100
AcDbArc
 50
277.6911605807821
 51
4.779722110064548
  0
ARC
  5
1BB
330
1F
100
AcDbEntity
  8
NoLayerName_003
  6
Continuous
 62
     4
370
    50
100
AcDbCircle
 10
161.5599628549419
 20
349.4054481226563
 30
0.0
 40
0.5
100
AcDbArc
 50
0.0
 51
86.67664232601368
  0
ARC
  5
1BC
330
1F
100
AcDbEntity
  8
NoLayerName_003
  6
Continuous
 62
     4
370
    50
100
AcDbCircle
 10
164.2068623665094
 20
349.506386949217
 30
0.0
 40
0.5
100
AcDbArc
 50
97.6911605807822
 51
184.7797221100646
  0
LINE
  5
1BD
330
1F
100
AcDbEntity
  8
NoLayerName_003
  6
Continuous
 62
     4
370
    50
100
AcDbLine
 10
149.4991861126737
 20
368.4062637075459
 30
0.0
 11
148.9705361374075
 21
368.9349136828121
 31
0.0
  0
LINE
  5
1BE
330
1F
100
AcDbEntity
  8
NoLayerName_003
  6
Continuous
 62
     4
370
    50
100
AcDbLine
 10
149.4991861126737
 20
357.958216696638
 30
0.0
 11
148.9705361374077
 21
357.429566721372
 31
0.0
  0
ARC
  5
1BF
330
1F
100
AcDbEntity
  8
NoLayerName_003
  6
Continuous
 62
     4
370
    50
100
AcDbCircle
 10
149.111957493645
 20
369.0763350390494
 30
0.0
 40
0.2
100
AcDbArc
 50
156.0155119943435
 51
225.0
  0
ARC
  5
1C0
330
1F
100
AcDbEntity
  8
NoLayerName_003
  6
Continuous
 62
     4
370
    50
100
AcDbCircle
 10
149.1119574936448
 20
357.2881453651353
 30
0.0
 40
0.2
100
AcDbArc
 50
135.0
 51
203.9844880056555
  0
LINE
  5
1C1
330
1F
100
AcDbEntity
  8
NoLayerName_003
  6
Continuous
 62
     4
370
    50
100
AcDbLine
 10
148.5831707755063
 20
363.4822402020919
 30
0.0
 11
146.962885210142
 21
363.4822402020919
 31
0.0
  0
LINE
  5
1C2
330
1F
100
AcDbEntity
  8
NoLayerName_003
  6
Continuous
 62
     4
370
    50
100
AcDbLine
 10
148.6424470203731
 20
361.833601896406
 30
0.0
 11
147.0315669333319
 21
361.6989066353003
 31
0.0
  0
ARC
  5
1C3
330
1F
100
AcDbEntity
  8
NoLayerName_003
  6
Continuous
 62
     4
370
    50
100
AcDbCircle
 10
162.3599628549419
 20
363.1822402020921
 30
0.0
 40
15.4
100
AcDbArc
 50
178.8837778441416
 51
185.5273194891118
  0
ARC
  5
1C4
330
1F
100
AcDbEntity
  8
NoLayerName_003
  6
Continuous
 62
     4
370
    50
100
AcDbCircle
 10
162.3599628549419
 20
363.1822402020921
 30
0.0
 40
15.4
100
AcDbArc
 50
268.8837778441415
 51
275.5273194891119
  0
ARC
  5
1C5
330
1F
100
AcDbEntity
  8
NoLayerName_003
  6
Continuous
 62
     4
370
    50
100
AcDbCircle
 10
162.3599628549419
 20
363.1822402020921
 30
0.0
 40
13.3
100
AcDbArc
 50
161.5867596317281
 51
198.4132403682719
  0
ARC
  5
1C6
330
1F
100
AcDbEntity
  8
NoLayerName_003
  6
Continuous
 62
     4
370
    50
100
AcDbCircle
 10
148.7920793314873
 20
358.6653234778246
 30
0.0
 40
1.0
100
AcDbArc
 50
315.0
 51
18.41324036827191
  0
ARC
  5
1C7
330
1F
100
AcDbEntity
  8
NoLayerName_003
  6
Continuous
 62
     4
370
    50
100
AcDbCircle
 10
148.7920793314873
 20
367.6991569263592
 30
0.0
 40
1.0
100
AcDbArc
 50
341.5867596317281
 51
45.0
  0
ARC
  5
1C8
330
1F
100
AcDbEntity
  8
NoLayerName_003
  6
Continuous
 62
     4
370
    50
100
AcDbCircle
 10
148.6841096020669
 20
361.3353406905244
 30
0.0
 40
0.5
100
AcDbArc
 50
7.691160580781689
 51
94.77972211006458
  0
ARC
  5
1C9
330
1F
100
AcDbEntity
  8
NoLayerName_003
  6
Continuous
 62
     4
370
    50
100
AcDbCircle
 10
148.5831707755063
 20
363.9822402020919
 30
0.0
 40
0.5
100
AcDbArc
 50
270.0
 51
356.6766423260137
  0
ARC
  5
1CA
330
1F
100
AcDbEntity
  8
NoLayerName_003
  6
Continuous
 62
     4
370
    50
100
AcDbCircle
 10
162.3599628549419
 20
363.1822402020921
 30
0.0
 40
12.9
100
AcDbArc
 50
209.7182447604588
 51
240.2817552395407
  0
LINE
  5
1CB
330
1F
100
AcDbEntity
  8
NoLayerName_003
  6
Continuous
 62
     4
370
    50
100
AcDbLine
 10
151.1566521129101
 20
356.7872555721283
 30
0.0
 11
152.1875953731734
 21
357.8181988323917
 31
0.0
  0
ARC
  5
1CC
330
1F
100
AcDbEntity
  8
NoLayerName_003
  6
Continuous
 62
     4
370
    50
100
AcDbCircle
 10
162.3599628549419
 20
363.1822402020921
 30
0.0
 40
11.5
100
AcDbArc
 50
62.19664868625824
 51
117.8033513137414
  0
LINE
  5
1CD
330
1F
100
AcDbEntity
  8
NoLayerName_003
  6
Continuous
 62
     4
370
    50
100
AcDbLine
 10
156.9959214852414
 20
353.0098727203236
 30
0.0
 11
155.964978224978
 21
351.9789294600602
 31
0.0
  0
ARC
  5
1CE
330
1F
100
AcDbEntity
  8
NoLayerName_003
  6
Continuous
 62
     4
370
    50
100
AcDbCircle
 10
162.3599628549419
 20
363.1822402020921
 30
0.0
 40
12.9
100
AcDbArc
 50
299.718244760459
 51
330.2817552395407
  0
LINE
  5
1CF
330
1F
100
AcDbEntity
  8
NoLayerName_003
  6
Continuous
 62
     4
370
    50
100
AcDbLine
 10
168.7549474849055
 20
351.9789294600601
 30
0.0
 11
167.7240042246421
 21
353.0098727203234
 31
0.0
  0
ARC
  5
1D0
330
1F
100
AcDbEntity
  8
NoLayerName_003
  6
Continuous
 62
     4
370
    50
100
AcDbCircle
 10
162.3599628549419
 20
363.1822402020921
 30
0.0
 40
11.5
100
AcDbArc
 50
152.1966486862583
 51
207.8033513137413
  0
LINE
  5
1D1
330
1F
100
AcDbEntity
  8
NoLayerName_003
  6
Continuous
 62
     4
370
    50
100
AcDbLine
 10
172.5323303367102
 20
357.8181988323918
 30
0.0
 11
173.5632735969736
 21
356.7872555721285
 31
0.0
  0
ARC
  5
1D2
330
1F
100
AcDbEntity
  8
NoLayerName_003
  6
Continuous
 62
     4
370
    50
100
AcDbCircle
 10
162.3599628549419
 20
363.1822402020921
 30
0.0
 40
12.9
100
AcDbArc
 50
29.71824476045878
 51
60.28175523954069
  0
LINE
  5
1D3
330
1F
100
AcDbEntity
  8
NoLayerName_003
  6
Continuous
 62
     4
370
    50
100
AcDbLine
 10
173.5632735969737
 20
369.5772248320555
 30
0.0
 11
172.5323303367104
 21
368.5462815717922
 31
0.0
  0
ARC
  5
1D4
330
1F
100
AcDbEntity
  8
NoLayerName_003
  6
Continuous
 62
     4
370
    50
100
AcDbCircle
 10
162.3599628549419
 20
363.1822402020921
 30
0.0
 40
11.5
100
AcDbArc
 50
332.1966486862583
 51
27.80335131374136
  0
LINE
  5
1D5
330
1F
100
AcDbEntity
  8
NoLayerName_003
  6
Continuous
 62
     4
370
    50
100
AcDbLine
 10
167.7240042246422
 20
373.3546076838607
 30
0.0
 11
168.7549474849056
 21
374.3855509441241
 31
0.0
  0
ARC
  5
1D6
330
1F
100
AcDbEntity
  8
NoLayerName_003
  6
Continuous
 62
     4
370
    50
100
AcDbCircle
 10
162.3599628549419
 20
363.1822402020921
 30
0.0
 40
12.9
100
AcDbArc
 50
119.7182447604588
 51
150.2817552395407
  0
LINE
  5
1D7
330
1F
100
AcDbEntity
  8
NoLayerName_003
  6
Continuous
 62
     4
370
    50
100
AcDbLine
 10
155.9649782249783
 20
374.3855509441237
 30
0.0
 11
156.9959214852417
 21
373.3546076838604
 31
0.0
  0
ARC
  5
1D8
330
1F
100
AcDbEntity
  8
NoLayerName_003
  6
Continuous
 62
     4
370
    50
100
AcDbCircle
 10
162.3599628549419
 20
363.1822402020921
 30
0.0
 40
11.5
100
AcDbArc
 50
242.1966486862581
 51
297.8033513137413
  0
LINE
  5
1D9
330
1F
100
AcDbEntity
  8
NoLayerName_003
  6
Continuous
 62
     4
370
    50
100
AcDbLine
 10
152.1875953731733
 20
368.5462815717925
 30
0.0
 11
151.15665211291
 21
369.5772248320558
 31
0.0
  0
ARC
  5
1DA
330
1F
100
AcDbEntity
  8
NoLayerName_003
  6
Continuous
 62
     4
370
    50
100
AcDbCircle
 10
162.3599628549419
 20
363.1822402020921
 30
0.0
 40
14.5
100
AcDbArc
 50
113.9844880056555
 51
156.0155119943436
  0
LINE
  5
1DB
330
1F
100
AcDbEntity
  8
NoLayerName_003
  6
Continuous
 62
     4
370
    50
100
AcDbLine
 10
149.640607468911
 20
368.5476850637829
 30
0.0
 11
149.1119574936448
 21
369.0763350390491
 31
0.0
  0
ARC
  5
1DC
330
1F
100
AcDbEntity
  8
NoLayerName_003
  6
Continuous
 62
     4
370
    50
100
AcDbCircle
 10
148.7920793314873
 20
367.6991569263592
 30
0.0
 40
1.2
100
AcDbArc
 50
341.5867707635745
 51
44.99999999999623
  0
ARC
  5
1DD
330
1F
100
AcDbEntity
  8
NoLayerName_003
  6
Continuous
 62
     4
370
    50
100
AcDbCircle
 10
162.3599628549419
 20
363.1822402020921
 30
0.0
 40
13.1
100
AcDbArc
 50
161.5867596317281
 51
198.4132403682717
  0
ARC
  5
1DE
330
1F
100
AcDbEntity
  8
NoLayerName_003
  6
Continuous
 62
     4
370
    50
100
AcDbCircle
 10
162.3599628549419
 20
363.1822402020921
 30
0.0
 40
13.1
100
AcDbArc
 50
341.5867596317281
 51
15.69808647412814
  0
ARC
  5
1DF
330
1F
100
AcDbEntity
  8
NoLayerName_003
  6
Continuous
 62
     4
370
    50
100
AcDbCircle
 10
175.9278463783965
 20
358.6653234778246
 30
0.0
 40
1.2
100
AcDbArc
 50
161.5867596317281
 51
225.0000000000025
  0
LINE
  5
1E0
330
1F
100
AcDbEntity
  8
NoLayerName_003
  6
Continuous
 62
     4
370
    50
100
AcDbLine
 10
175.6079682162388
 20
357.2881453651349
 30
0.0
 11
175.0793182409728
 21
357.816795340401
 31
0.0
  0
ARC
  5
1E1
330
1F
100
AcDbEntity
  8
NoLayerName_003
  6
Continuous
 62
     4
370
    50
100
AcDbCircle
 10
162.3599628549419
 20
363.1822402020921
 30
0.0
 40
14.5
100
AcDbArc
 50
23.98448800565551
 51
66.01551199434357
  0
LINE
  5
1E2
330
1F
100
AcDbEntity
  8
NoLayerName_003
  6
Continuous
 62
     4
370
    50
100
AcDbLine
 10
167.7254077166324
 20
375.9015955881228
 30
0.0
 11
168.2540576918988
 21
376.4302455633891
 31
0.0
  0
ARC
  5
1E3
330
1F
100
AcDbEntity
  8
NoLayerName_003
  6
Continuous
 62
     4
370
    50
100
AcDbCircle
 10
166.8768795792087
 20
376.750123725547
 30
0.0
 40
1.2
100
AcDbArc
 50
251.5867596317299
 51
314.9999999999986
  0
ARC
  5
1E4
330
1F
100
AcDbEntity
  8
NoLayerName_003
  6
Continuous
 62
     4
370
    50
100
AcDbCircle
 10
162.3599628549419
 20
363.1822402020921
 30
0.0
 40
13.1
100
AcDbArc
 50
71.58675963172992
 51
108.4132403682706
  0
ARC
  5
1E5
330
1F
100
AcDbEntity
  8
NoLayerName_003
  6
Continuous
 62
     4
370
    50
100
AcDbCircle
 10
157.8430461306751
 20
376.750123725547
 30
0.0
 40
1.2
100
AcDbArc
 50
225.0000110661712
 51
288.4132403682704
  0
LINE
  5
1E6
330
1F
100
AcDbEntity
  8
NoLayerName_003
  6
Continuous
 62
     4
370
    50
100
AcDbLine
 10
156.9945179932513
 20
375.9015955881228
 30
0.0
 11
156.4658680179852
 21
376.4302455633889
 31
0.0
  0
ARC
  5
1E7
330
1F
100
AcDbEntity
  8
NoLayerName_003
  6
Continuous
 62
     4
370
    50
100
AcDbCircle
 10
162.3599628549419
 20
363.1822402020921
 30
0.0
 40
14.5
100
AcDbArc
 50
203.9844880056555
 51
246.0155119943436
  0
LINE
  5
1E8
330
1F
100
AcDbEntity
  8
NoLayerName_003
  6
Continuous
 62
     4
370
    50
100
AcDbLine
 10
156.9945179932509
 20
350.462884816061
 30
0.0
 11
156.4658680179849
 21
349.934234840795
 31
0.0
  0
ARC
  5
1E9
330
1F
100
AcDbEntity
  8
NoLayerName_003
  6
Continuous
 62
     4
370
    50
100
AcDbCircle
 10
157.8430461306746
 20
349.6143566786373
 30
0.0
 40
1.2
100
AcDbArc
 50
71.58676083914618
 51
135.0000000000005
  0
ARC
  5
1EA
330
1F
100
AcDbEntity
  8
NoLayerName_003
  6
Continuous
 62
     4
370
    50
100
AcDbCircle
 10
162.3599628549419
 20
363.1822402020921
 30
0.0
 40
13.1
100
AcDbArc
 50
251.5867564371995
 51
288.4132403682722
  0
ARC
  5
1EB
330
1F
100
AcDbEntity
  8
NoLayerName_003
  6
Continuous
 62
     4
370
    50
100
AcDbCircle
 10
166.8768795792092
 20
349.6143566786373
 30
0.0
 40
1.2
100
AcDbArc
 50
44.99999999999921
 51
108.4132395144984
  0
LINE
  5
1EC
330
1F
100
AcDbEntity
  8
NoLayerName_003
  6
Continuous
 62
     4
370
    50
100
AcDbLine
 10
167.7254077166329
 20
350.462884816061
 30
0.0
 11
168.2540576918989
 21
349.934234840795
 31
0.0
  0
ARC
  5
1ED
330
1F
100
AcDbEntity
  8
NoLayerName_003
  6
Continuous
 62
     4
370
    50
100
AcDbCircle
 10
162.3599628549419
 20
363.1822402020921
 30
0.0
 40
14.5
100
AcDbArc
 50
293.9844880056555
 51
336.0155119943436
  0
ARC
  5
1EE
330
1F
100
AcDbEntity
  8
NoLayerName_003
  6
Continuous
 62
     4
370
    50
100
AcDbCircle
 10
148.7920793314873
 20
358.6653234778246
 30
0.0
 40
1.2
100
AcDbArc
 50
315.0
 51
18.41324036827148
  0
LINE
  5
1EF
330
1F
100
AcDbEntity
  8
NoLayerName_003
  6
Continuous
 62
     4
370
    50
100
AcDbLine
 10
175.3967160917562
 20
368.5822402020918
 30
0.0
 11
173.0682889670099
 21
369.0822402020918
 31
0.0
  0
LINE
  5
1F0
330
1F
100
AcDbEntity
  8
NoLayerName_003
  6
Continuous
 62
     4
370
    50
100
AcDbLine
 10
175.6079682162388
 20
369.076335039049
 30
0.0
 11
175.1638733792817
 21
368.6322402020919
 31
0.0
  0
LINE
  5
1F1
330
1F
100
AcDbEntity
  8
NoLayerName_003
  6
Continuous
 62
     4
370
    50
100
AcDbLine
 10
175.1634779972767
 20
366.7822402020921
 30
0.0
 11
173.4342574148675
 21
366.2822402020921
 31
0.0
  0
LINE
  5
1F2
330
1F
100
AcDbEntity
  8
NoLayerName_003
  6
Continuous
 62
     4
370
    50
100
AcDbLine
 10
149.640607468911
 20
357.8167953404009
 30
0.0
 11
149.111957493645
 21
357.2881453651349
 31
0.0
  0
CIRCLE
  5
1F3
330
1F
100
AcDbEntity
  8
NoLayerName_001
  6
Continuous
 62
     4
370
    50
100
AcDbCircle
 10
222.3599628549419
 20
335.6822402020921
 30
0.0
 40
2.6
  0
CIRCLE
  5
1F4
330
1F
100
AcDbEntity
  8
NoLayerName_001
  6
Continuous
 62
     4
370
    50
100
AcDbCircle
 10
222.3599628549419
 20
335.6822402020921
 30
0.0
 40
1.8
  0
CIRCLE
  5
1F5
330
1F
100
AcDbEntity
  8
NoLayerName_001
  6
Continuous
 62
     4
370
    50
100
AcDbCircle
 10
222.3599628549419
 20
335.6822402020921
 30
0.0
 40
1.0
  0
CIRCLE
  5
1F6
330
1F
100
AcDbEntity
  8
NoLayerName_001
  6
Continuous
 62
     4
370
    50
100
AcDbCircle
 10
239.8599628549419
 20
353.1822402020921
 30
0.0
 40
2.6
  0
CIRCLE
  5
1F7
330
1F
100
AcDbEntity
  8
NoLayerName_001
  6
Continuous
 62
     4
370
    50
100
AcDbCircle
 10
239.8599628549419
 20
353.1822402020921
 30
0.0
 40
1.8
  0
CIRCLE
  5
1F8
330
1F
100
AcDbEntity
  8
NoLayerName_001
  6
Continuous
 62
     4
370
    50
100
AcDbCircle
 10
239.8599628549419
 20
353.1822402020921
 30
0.0
 40
1.0
  0
CIRCLE
  5
1F9
330
1F
100
AcDbEntity
  8
NoLayerName_001
  6
Continuous
 62
     4
370
    50
100
AcDbCircle
 10
239.8599628549419
 20
423.1822402020921
 30
0.0
 40
2.6
  0
CIRCLE
  5
1FA
330
1F
100
AcDbEntity
  8
NoLayerName_001
  6
Continuous
 62
     4
370
    50
100
AcDbCircle
 10
239.8599628549419
 20
423.1822402020921
 30
0.0
 40
1.8
  0
CIRCLE
  5
1FB
330
1F
100
AcDbEntity
  8
NoLayerName_001
  6
Continuous
 62
     4
370
    50
100
AcDbCircle
 10
239.8599628549419
 20
423.1822402020921
 30
0.0
 40
1.0
  0
CIRCLE
  5
1FC
330
1F
100
AcDbEntity
  8
NoLayerName_001
  6
Continuous
 62
     4
370
    50
100
AcDbCircle
 10
222.3599628549419
 20
440.6822402020921
 30
0.0
 40
2.6
  0
CIRCLE
  5
1FD
330
1F
100
AcDbEntity
  8
NoLayerName_001
  6
Continuous
 62
     4
370
    50
100
AcDbCircle
 10
222.3599628549419
 20
440.6822402020921
 30
0.0
 40
1.8
  0
CIRCLE
  5
1FE
330
1F
100
AcDbEntity
  8
NoLayerName_001
  6
Continuous
 62
     4
370
    50
100
AcDbCircle
 10
222.3599628549419
 20
440.6822402020921
 30
0.0
 40
1.0
  0
CIRCLE
  5
1FF
330
1F
100
AcDbEntity
  8
NoLayerName_001
  6
Continuous
 62
     4
370
    50
100
AcDbCircle
 10
152.3599628549419
 20
440.6822402020921
 30
0.0
 40
1.8
  0
CIRCLE
  5
200
330
1F
100
AcDbEntity
  8
NoLayerName_001
  6
Continuous
 62
     4
370
    50
100
AcDbCircle
 10
152.3599628549419
 20
440.6822402020921
 30
0.0
 40
1.0
  0
CIRCLE
  5
201
330
1F
100
AcDbEntity
  8
NoLayerName_001
  6
Continuous
 62
     4
370
    50
100
AcDbCircle
 10
134.8599628549419
 20
423.1822402020921
 30
0.0
 40
2.6
  0
CIRCLE
  5
202
330
1F
100
AcDbEntity
  8
NoLayerName_001
  6
Continuous
 62
     4
370
    50
100
AcDbCircle
 10
134.8599628549419
 20
423.1822402020921
 30
0.0
 40
1.8
  0
CIRCLE
  5
203
330
1F
100
AcDbEntity
  8
NoLayerName_001
  6
Continuous
 62
     4
370
    50
100
AcDbCircle
 10
134.8599628549419
 20
423.1822402020921
 30
0.0
 40
1.0
  0
CIRCLE
  5
204
330
1F
100
AcDbEntity
  8
NoLayerName_001
  6
Continuous
 62
     4
370
    50
100
AcDbCircle
 10
134.8599628549419
 20
353.1822402020921
 30
0.0
 40
2.6
  0
CIRCLE
  5
205
330
1F
100
AcDbEntity
  8
NoLayerName_001
  6
Continuous
 62
     4
370
    50
100
AcDbCircle
 10
134.8599628549419
 20
353.1822402020921
 30
0.0
 40
1.8
  0
CIRCLE
  5
206
330
1F
100
AcDbEntity
  8
NoLayerName_001
  6
Continuous
 62
     4
370
    50
100
AcDbCircle
 10
134.8599628549419
 20
353.1822402020921
 30
0.0
 40
1.0
  0
CIRCLE
  5
207
330
1F
100
AcDbEntity
  8
NoLayerName_001
  6
Continuous
 62
     4
370
    50
100
AcDbCircle
 10
152.3599628549419
 20
335.6822402020921
 30
0.0
 40
2.6
  0
CIRCLE
  5
208
330
1F
100
AcDbEntity
  8
NoLayerName_001
  6
Continuous
 62
     4
370
    50
100
AcDbCircle
 10
152.3599628549419
 20
335.6822402020921
 30
0.0
 40
1.8
  0
CIRCLE
  5
209
330
1F
100
AcDbEntity
  8
NoLayerName_001
  6
Continuous
 62
     4
370
    50
100
AcDbCircle
 10
152.3599628549419
 20
335.6822402020921
 30
0.0
 40
1.0
  0
CIRCLE
  5
20A
330
1F
100
AcDbEntity
  8
NoLayerName_001
  6
Continuous
 62
     4
370
    50
100
AcDbCircle
 10
187.3599628549419
 20
369.1822402020921
 30
0.0
 40
3.0
  0
CIRCLE
  5
20B
330
1F
100
AcDbEntity
  8
NoLayerName_001
  6
Continuous
 62
     4
370
    50
100
AcDbCircle
 10
187.3599628549419
 20
369.1822402020921
 30
0.0
 40
1.799999999999997
  0
CIRCLE
  5
20C
330
1F
100
AcDbEntity
  8
NoLayerName_001
  6
Continuous
 62
     4
370
    50
100
AcDbCircle
 10
187.3599628549419
 20
407.1822402020921
 30
0.0
 40
3.0
  0
CIRCLE
  5
20D
330
1F
100
AcDbEntity
  8
NoLayerName_001
  6
Continuous
 62
     4
370
    50
100
AcDbCircle
 10
187.3599628549419
 20
407.1822402020921
 30
0.0
 40
1.799999999999997
  0
CIRCLE
  5
20E
330
1F
100
AcDbEntity
  8
NoLayerName_001
  6
Continuous
 62
     4
370
    50
100
AcDbCircle
 10
168.3599628549419
 20
388.1822402020921
 30
0.0
 40
3.0
  0
CIRCLE
  5
20F
330
1F
100
AcDbEntity
  8
NoLayerName_001
  6
Continuous
 62
     4
370
    50
100
AcDbCircle
 10
168.3599628549419
 20
388.1822402020921
 30
0.0
 40
1.799999999999997
  0
CIRCLE
  5
210
330
1F
100
AcDbEntity
  8
NoLayerName_001
  6
Continuous
 62
     4
370
    50
100
AcDbCircle
 10
206.3599628549419
 20
388.1822402020921
 30
0.0
 40
3.0
  0
CIRCLE
  5
211
330
1F
100
AcDbEntity
  8
NoLayerName_001
  6
Continuous
 62
     4
370
    50
100
AcDbCircle
 10
206.3599628549419
 20
388.1822402020921
 30
0.0
 40
1.799999999999997
  0
CIRCLE
  5
212
330
1F
100
AcDbEntity
  8
NoLayerName_004
  6
Continuous
 62
     4
370
    50
100
AcDbCircle
 10
162.3599628549419
 20
363.1822402020921
 30
0.0
 40
17.5
  0
CIRCLE
  5
213
330
1F
100
AcDbEntity
  8
NoLayerName_004
  6
Continuous
 62
     4
370
    50
100
AcDbCircle
 10
212.3599628549419
 20
413.1822402020921
 30
0.0
 40
17.5
  0
CIRCLE
  5
214
330
1F
100
AcDbEntity
  8
NoLayerName_004
  6
Continuous
 62
     4
370
    50
100
AcDbCircle
 10
162.3599628549419
 20
413.1822402020921
 30
0.0
 40
17.5
  0
ARC
  5
215
330
1F
100
AcDbEntity
  8
NoLayerName_001
  6
Continuous
 62
     4
370
    50
100
AcDbCircle
 10
123.3599628549419
 20
448.1822402020921
 30
0.0
 40
5.0
100
AcDbArc
 50
90.0
 51
180.0
  0
ARC
  5
216
330
1F
100
AcDbEntity
  8
NoLayerName_001
  6
Continuous
 62
     4
370
    50
100
AcDbCircle
 10
123.3599628549419
 20
328.1822402020921
 30
0.0
 40
5.0
100
AcDbArc
 50
180.0
 51
270.0
  0
ARC
  5
217
330
1F
100
AcDbEntity
  8
NoLayerName_001
  6
Continuous
 62
     4
370
    50
100
AcDbCircle
 10
251.3599628549419
 20
448.1822402020921
 30
0.0
 40
5.0
100
AcDbArc
 50
0.0
 51
90.0
  0
ARC
  5
218
330
1F
100
AcDbEntity
  8
NoLayerName_001
  6
Continuous
 62
     4
370
    50
100
AcDbCircle
 10
251.3599628549419
 20
328.1822402020921
 30
0.0
 40
5.0
100
AcDbArc
 50
270.0
 51
0.0
  0
LINE
  5
219
330
1F
100
AcDbEntity
  8
NoLayerName_001
  6
Continuous
 62
     4
370
    50
100
AcDbLine
 10
251.3599628549419
 20
453.1822402020921
 30
0.0
 11
123.3599628549419
 21
453.1822402020921
 31
0.0
  0
LINE
  5
21A
330
1F
100
AcDbEntity
  8
NoLayerName_001
  6
Continuous
 62
     4
370
    50
100
AcDbLine
 10
251.3599628549419
 20
323.1822402020921
 30
0.0
 11
123.3599628549419
 21
323.1822402020921
 31
0.0
  0
LINE
  5
21B
330
1F
100
AcDbEntity
  8
NoLayerName_001
  6
Continuous
 62
     4
370
    50
100
AcDbLine
 10
118.3599628549419
 20
448.1822402020921
 30
0.0
 11
118.3599628549419
 21
328.1822402020921
 31
0.0
  0
LINE
  5
21C
330
1F
100
AcDbEntity
  8
NoLayerName_001
  6
Continuous
 62
     4
370
    50
100
AcDbLine
 10
256.3599628549419
 20
328.1822402020921
 30
0.0
 11
256.3599628549419
 21
448.1822402020922
 31
0.0
  0
LINE
  5
21D
330
1F
100
AcDbEntity
  8
NoLayerName_002
  6
CENTER
 62
     3
370
    25
100
AcDbLine
 10
114.053911993053
 20
388.1822402020921
 30
0.0
 11
263.9626036104293
 21
388.1822402020921
 31
0.0
  0
LINE
  5
21E
330
1F
100
AcDbEntity
  8
NoLayerName_001
  6
Continuous
 62
     4
370
    50
100
AcDbLine
 10
118.3599628549419
 20
235.2628039525408
 30
0.0
 11
118.3599628549419
 21
228.7628039525408
 31
0.0
  0
LINE
  5
21F
330
1F
100
AcDbEntity
  8
NoLayerName_001
  6
Continuous
 62
     4
370
    50
100
AcDbLine
 10
122.3599628549419
 20
227.962803952541
 30
0.0
 11
122.3599628549419
 21
231.762803952541
 31
0.0
  0
LINE
  5
220
330
1F
100
AcDbEntity
  8
NoLayerName_001
  6
Continuous
 62
     4
370
    50
100
AcDbLine
 10
122.1599628549419
 20
227.7628039525408
 30
0.0
 11
119.3599628549418
 21
227.7628039525408
 31
0.0
  0
ARC
  5
221
330
1F
100
AcDbEntity
  8
NoLayerName_001
  6
Continuous
 62
     4
370
    50
100
AcDbCircle
 10
122.1599628549419
 20
227.962803952541
 30
0.0
 40
0.2
100
AcDbArc
 50
270.0
 51
0.0
  0
ARC
  5
222
330
1F
100
AcDbEntity
  8
NoLayerName_001
  6
Continuous
 62
     4
370
    50
100
AcDbCircle
 10
119.3599628549419
 20
228.7628039525408
 30
0.0
 40
1.0
100
AcDbArc
 50
180.0
 51
270.0
  0
LINE
  5
223
330
1F
100
AcDbEntity
  8
NoLayerName_001
  6
Continuous
 62
     4
370
    50
100
AcDbLine
 10
256.3599628549419
 20
235.2628039525408
 30
0.0
 11
256.3599628549419
 21
228.7628039525408
 31
0.0
  0
LINE
  5
224
330
1F
100
AcDbEntity
  8
NoLayerName_001
  6
Continuous
 62
     4
370
    50
100
AcDbLine
 10
252.5599628549417
 20
227.7628039525408
 30
0.0
 11
255.3599628549417
 21
227.7628039525408
 31
0.0
  0
ARC
  5
225
330
1F
100
AcDbEntity
  8
NoLayerName_001
  6
Continuous
 62
     4
370
    50
100
AcDbCircle
 10
252.5599628549417
 20
227.962803952541
 30
0.0
 40
0.2
100
AcDbArc
 50
180.0
 51
270.0
  0
ARC
  5
226
330
1F
100
AcDbEntity
  8
NoLayerName_001
  6
Continuous
 62
     4
370
    50
100
AcDbCircle
 10
255.3599628549419
 20
228.7628039525408
 30
0.0
 40
1.0
100
AcDbArc
 50
270.0
 51
0.0000000000000127
  0
LINE
  5
227
330
1F
100
AcDbEntity
  8
NoLayerName_001
  6
Continuous
 62
     4
370
    50
100
AcDbLine
 10
252.3599628549419
 20
227.962803952541
 30
0.0
 11
252.3599628549419
 21
231.762803952541
 31
0.0
  0
LINE
  5
228
330
1F
100
AcDbEntity
  8
NoLayerName_001
  6
Continuous
 62
     4
370
    50
100
AcDbLine
 10
119.3599628549419
 20
236.2628039525408
 30
0.0
 11
255.3599628549417
 21
236.2628039525408
 31
0.0
  0
ARC
  5
229
330
1F
100
AcDbEntity
  8
NoLayerName_001
  6
Continuous
 62
     4
370
    50
100
AcDbCircle
 10
119.3599628549419
 20
235.2628039525408
 30
0.0
 40
1.0
100
AcDbArc
 50
90.0
 51
180.0
  0
ARC
  5
22A
330
1F
100
AcDbEntity
  8
NoLayerName_001
  6
Continuous
 62
     4
370
    50
100
AcDbCircle
 10
255.3599628549419
 20
235.2628039525408
 30
0.0
 40
1.0
100
AcDbArc
 50
0.0
 51
90.0
  0
LINE
  5
22B
330
1F
100
AcDbEntity
  8
NoLayerName_001
  6
Continuous
 62
     4
370
    50
100
AcDbLine
 10
256.3599628549419
 20
231.7628039525408
 30
0.0
 11
118.3599628549419
 21
231.7628039525408
 31
0.0
  0
ARC
  5
22C
330
1F
100
AcDbEntity
  8
NoLayerName_001
  6
Continuous
 62
     4
370
    50
100
AcDbCircle
 10
127.1599628549423
 20
231.7628039525408
 30
0.0
 40
0.3
100
AcDbArc
 50
180.0
 51
270.0
  0
ARC
  5
22D
330
1F
100
AcDbEntity
  8
NoLayerName_001
  6
Continuous
 62
     4
370
    50
100
AcDbCircle
 10
247.5599628549413
 20
231.7628039525408
 30
0.0
 40
0.3
100
AcDbArc
 50
270.0
 51
0.0
  0
LINE
  5
22E
330
1F
100
AcDbEntity
  8
NoLayerName_001
  6
Continuous
 62
     4
370
    50
100
AcDbLine
 10
127.1599628549423
 20
231.462803952541
 30
0.0
 11
247.5599628549411
 21
231.462803952541
 31
0.0
  0
LINE
  5
22F
330
1F
100
AcDbEntity
  8
NoLayerName_001
  6
Continuous
 62
     4
370
    50
100
AcDbLine
 10
334.6599628549423
 20
445.1822402020921
 30
0.0
 11
330.6599628549424
 21
447.1822402020921
 31
0.0
  0
LINE
  5
230
330
1F
100
AcDbEntity
  8
NoLayerName_001
  6
Continuous
 62
     4
370
    50
100
AcDbLine
 10
334.6599628549423
 20
331.1822402020919
 30
0.0
 11
330.6599628549424
 21
329.1822402020919
 31
0.0
  0
LINE
  5
231
330
1F
100
AcDbEntity
  8
NoLayerName_001
  6
Continuous
 62
     4
370
    50
100
AcDbLine
 10
334.6599628549423
 20
331.1822402020919
 30
0.0
 11
334.6599628549423
 21
445.1822402020919
 31
0.0
  0
LINE
  5
232
330
1F
100
AcDbEntity
  8
NoLayerName_001
  6
Continuous
 62
     4
370
    50
100
AcDbLine
 10
330.6599628549423
 20
329.1822402020919
 30
0.0
 11
330.6599628549423
 21
323.1822402020918
 31
0.0
  0
LINE
  5
233
330
1F
100
AcDbEntity
  8
NoLayerName_001
  6
Continuous
 62
     4
370
    50
100
AcDbLine
 10
330.6599628549423
 20
447.1822402020921
 30
0.0
 11
330.6599628549423
 21
453.1822402020921
 31
0.0
  0
LINE
  5
234
330
1F
100
AcDbEntity
  8
NoLayerName_001
  6
Continuous
 62
     4
370
    50
100
AcDbLine
 10
326.1599628549423
 20
324.1822402020919
 30
0.0
 11
326.1599628549423
 21
452.182240202092
 31
0.0
  0
LINE
  5
235
330
1F
100
AcDbEntity
  8
NoLayerName_001
  6
Continuous
 62
     4
370
    50
100
AcDbLine
 10
327.1599628549423
 20
323.1822402020919
 30
0.0
 11
330.6599628549423
 21
323.1822402020919
 31
0.0
  0
LINE
  5
236
330
1F
100
AcDbEntity
  8
NoLayerName_001
  6
Continuous
 62
     4
370
    50
100
AcDbLine
 10
327.1599628549423
 20
453.1822402020921
 30
0.0
 11
330.6599628549424
 21
453.1822402020921
 31
0.0
  0
ARC
  5
237
330
1F
100
AcDbEntity
  8
NoLayerName_001
  6
Continuous
 62
     4
370
    50
100
AcDbCircle
 10
327.1599628549423
 20
452.1822402020921
 30
0.0
 40
1.0
100
AcDbArc
 50
90.00000000000006
 51
180.0
  0
ARC
  5
238
330
1F
100
AcDbEntity
  8
NoLayerName_001
  6
Continuous
 62
     4
370
    50
100
AcDbCircle
 10
327.1599628549423
 20
324.1822402020919
 30
0.0
 40
1.0
100
AcDbArc
 50
180.0
 51
270.0000000000001
  0
LINE
  5
239
330
1F
100
AcDbEntity
  8
NoLayerName_001
  6
Continuous
 62
     4
370
    50
100
AcDbLine
 10
330.9599628549423
 20
448.5322402020921
 30
0.0
 11
330.9599628549423
 21
448.9322402020921
 31
0.0
  0
ARC
  5
23A
330
1F
100
AcDbEntity
  8
NoLayerName_001
  6
Continuous
 62
     4
370
    50
100
AcDbCircle
 10
330.6599628549423
 20
448.9322402020921
 30
0.0
 40
0.3
100
AcDbArc
 50
0.0000000000000509
 51
90.00000000000006
  0
ARC
  5
23B
330
1F
100
AcDbEntity
  8
NoLayerName_001
  6
Continuous
 62
     4
370
    50
100
AcDbCircle
 10
330.6599628549423
 20
448.5322402020921
 30
0.0
 40
0.3
100
AcDbArc
 50
270.0
 51
0.0
  0
LINE
  5
23C
330
1F
100
AcDbEntity
  8
NoLayerName_001
  6
Continuous
 62
     4
370
    50
100
AcDbLine
 10
330.9599628549423
 20
327.832240202092
 30
0.0
 11
330.9599628549423
 21
327.432240202092
 31
0.0
  0
ARC
  5
23D
330
1F
100
AcDbEntity
  8
NoLayerName_001
  6
Continuous
 62
     4
370
    50
100
AcDbCircle
 10
330.6599628549423
 20
327.4322402020919
 30
0.0
 40
0.3
100
AcDbArc
 50
270.0000000000001
 51
0.0000000000000382
  0
ARC
  5
23E
330
1F
100
AcDbEntity
  8
NoLayerName_001
  6
Continuous
 62
     4
370
    50
100
AcDbCircle
 10
330.6599628549423
 20
327.832240202092
 30
0.0
 40
0.3
100
AcDbArc
 50
0.0
 51
90.0
  0
LINE
  5
23F
330
1F
100
AcDbEntity
  8
NoLayerName_002
  6
CENTER
 62
     3
370
    25
100
AcDbLine
 10
187.3599628549419
 20
318.2426293868862
 30
0.0
 11
187.3599628549419
 21
456.4473271175337
 31
0.0
  0
LINE
  5
240
330
1F
100
AcDbEntity
  8
NoLayerName_001
  6
Continuous
 62
    21
370
    50
100
AcDbLine
 10
199.8599628549418
 20
266.2628039525408
 30
0.0
 11
174.8599628549418
 21
266.2628039525408
 31
0.0
  0
LINE
  5
241
330
1F
100
AcDbEntity
  8
NoLayerName_001
  6
Continuous
 62
    21
370
    50
100
AcDbLine
 10
174.3599628549418
 20
263.7628039525408
 30
0.0
 11
174.3599628549418
 21
265.7628039525408
 31
0.0
  0
LINE
  5
242
330
1F
100
AcDbEntity
  8
NoLayerName_001
  6
Continuous
 62
    21
370
    50
100
AcDbLine
 10
200.3599628549418
 20
265.7628039525408
 30
0.0
 11
200.3599628549418
 21
263.7628039525408
 31
0.0
  0
ARC
  5
243
330
1F
100
AcDbEntity
  8
NoLayerName_001
  6
Continuous
 62
    21
370
    50
100
AcDbCircle
 10
174.8599628549418
 20
265.7628039525408
 30
0.0
 40
0.5
100
AcDbArc
 50
90.00000000000001
 51
180.0
  0
ARC
  5
244
330
1F
100
AcDbEntity
  8
NoLayerName_001
  6
Continuous
 62
    21
370
    50
100
AcDbCircle
 10
174.8599628549418
 20
263.7628039525408
 30
0.0
 40
0.5
100
AcDbArc
 50
180.0
 51
270.0
  0
ARC
  5
245
330
1F
100
AcDbEntity
  8
NoLayerName_001
  6
Continuous
 62
    21
370
    50
100
AcDbCircle
 10
199.8599628549418
 20
263.7628039525408
 30
0.0
 40
0.5
100
AcDbArc
 50
270.0
 51
0.0
  0
ARC
  5
246
330
1F
100
AcDbEntity
  8
NoLayerName_001
  6
Continuous
 62
    21
370
    50
100
AcDbCircle
 10
199.8599628549418
 20
265.7628039525408
 30
0.0
 40
0.5
100
AcDbArc
 50
0.0
 51
90.00000000000001
  0
LINE
  5
247
330
1F
100
AcDbEntity
  8
NoLayerName_001
  6
CENTER
 62
     3
370
    25
100
AcDbLine
 10
187.3599628549418
 20
269.4268814045109
 30
0.0
 11
187.3599628549418
 21
217.4830548952243
 31
0.0
  0
LINE
  5
248
330
1F
100
AcDbEntity
  8
NoLayerName_001
  6
Continuous
 62
    21
370
    50
100
AcDbLine
 10
194.3599628549418
 20
263.2628039525408
 30
0.0
 11
199.8599628549418
 21
263.2628039525408
 31
0.0
  0
ARC
  5
249
330
1F
100
AcDbEntity
  8
NoLayerName_001
  6
Continuous
 62
    21
370
    50
100
AcDbCircle
 10
180.3599628549418
 20
262.2628039525408
 30
0.0
 40
1.0
100
AcDbArc
 50
0.0
 51
90.00000000000001
  0
ARC
  5
24A
330
1F
100
AcDbEntity
  8
NoLayerName_001
  6
Continuous
 62
    21
370
    50
100
AcDbCircle
 10
194.3599628549418
 20
262.2628039525408
 30
0.0
 40
1.0
100
AcDbArc
 50
90.00000000000001
 51
180.0
  0
LINE
  5
24B
330
1F
100
AcDbEntity
  8
NoLayerName_001
  6
Continuous
 62
    21
370
    50
100
AcDbLine
 10
181.3599628549418
 20
263.2628039525408
 30
0.0
 11
174.8599628549418
 21
263.2628039525408
 31
0.0
  0
LINE
  5
24C
330
1F
100
AcDbEntity
  8
NoLayerName_001
  6
Continuous
 62
    21
370
    50
100
AcDbLine
 10
194.3599628549418
 20
263.2628039525408
 30
0.0
 11
181.3599628549418
 21
263.2628039525408
 31
0.0
  0
LINE
  5
24D
330
1F
100
AcDbEntity
  8
NoLayerName_001
  6
Continuous
 62
    21
370
    50
100
AcDbLine
 10
181.3599628549418
 20
236.2628039525408
 30
0.0
 11
181.3599628549418
 21
262.2628039525408
 31
0.0
  0
LINE
  5
24E
330
1F
100
AcDbEntity
  8
NoLayerName_001
  6
Continuous
 62
    21
370
    50
100
AcDbLine
 10
193.3599628549418
 20
262.2628039525408
 30
0.0
 11
193.3599628549418
 21
236.2628039525408
 31
0.0
  0
ARC
  5
24F
330
1F
100
AcDbEntity
  8
NoLayerName_006
  6
Continuous
 62
    21
370
    50
100
AcDbCircle
 10
179.998746922774
 20
228.2732206192074
 30
0.0
 40
3.510416666666651
100
AcDbArc
 50
225.6541435925184
 51
314.3458564074816
  0
ARC
  5
250
330
1F
100
AcDbEntity
  8
NoLayerName_006
  6
Continuous
 62
    21
370
    50
100
AcDbCircle
 10
194.7211787871095
 20
228.2732206192074
 30
0.0
 40
3.510416666666651
100
AcDbArc
 50
225.6541435925184
 51
314.3458564074816
  0
CIRCLE
  5
251
330
1F
100
AcDbEntity
  8
NoLayerName_001
  6
Continuous
 62
    21
370
    50
100
AcDbCircle
 10
187.3599628549424
 20
388.1822402020921
 30
0.0
 40
11.0
  0
LINE
  5
252
330
1F
100
AcDbEntity
  8
NoLayerName_006
  6
Continuous
 62
    21
370
    50
100
AcDbLine
 10
179.998746922774
 20
224.7628039525408
 30
0.0
 11
194.7211787871095
 21
224.7628039525408
 31
0.0
  0
ARC
  5
253
330
1F
100
AcDbEntity
  8
NoLayerName_006
  6
Continuous
 62
    21
370
    50
100
AcDbCircle
 10
187.3599628549418
 20
237.3044706192074
 30
0.0
 40
12.54166666666667
100
AcDbArc
 50
246.9649682362118
 51
293.0350317637884
  0
LINE
  5
254
330
1F
100
AcDbEntity
  8
NoLayerName_001
  6
Continuous
 62
    21
370
    50
100
AcDbLine
 10
296.1599628549422
 20
400.682240202092
 30
0.0
 11
296.1599628549422
 21
375.682240202092
 31
0.0
  0
LINE
  5
255
330
1F
100
AcDbEntity
  8
NoLayerName_001
  6
Continuous
 62
    21
370
    50
100
AcDbLine
 10
298.6599628549422
 20
375.182240202092
 30
0.0
 11
296.6599628549422
 21
375.182240202092
 31
0.0
  0
LINE
  5
256
330
1F
100
AcDbEntity
  8
NoLayerName_001
  6
Continuous
 62
    21
370
    50
100
AcDbLine
 10
296.6599628549422
 20
401.182240202092
 30
0.0
 11
298.6599628549422
 21
401.182240202092
 31
0.0
  0
ARC
  5
257
330
1F
100
AcDbEntity
  8
NoLayerName_001
  6
Continuous
 62
    21
370
    50
100
AcDbCircle
 10
296.6599628549422
 20
375.682240202092
 30
0.0
 40
0.5
100
AcDbArc
 50
180.0
 51
270.0
  0
ARC
  5
258
330
1F
100
AcDbEntity
  8
NoLayerName_001
  6
Continuous
 62
    21
370
    50
100
AcDbCircle
 10
298.6599628549422
 20
375.682240202092
 30
0.0
 40
0.5
100
AcDbArc
 50
270.0
 51
0.0
  0
ARC
  5
259
330
1F
100
AcDbEntity
  8
NoLayerName_001
  6
Continuous
 62
    21
370
    50
100
AcDbCircle
 10
298.6599628549422
 20
400.682240202092
 30
0.0
 40
0.5
100
AcDbArc
 50
0.0
 51
90.0
  0
ARC
  5
25A
330
1F
100
AcDbEntity
  8
NoLayerName_001
  6
Continuous
 62
    21
370
    50
100
AcDbCircle
 10
296.6599628549422
 20
400.682240202092
 30
0.0
 40
0.5
100
AcDbArc
 50
90.0
 51
180.0
  0
LINE
  5
25B
330
1F
100
AcDbEntity
  8
NoLayerName_001
  6
CENTER
 62
     3
370
    25
100
AcDbLine
 10
292.9958854029721
 20
388.182240202092
 30
0.0
 11
344.9397119122587
 21
388.182240202092
 31
0.0
  0
LINE
  5
25C
330
1F
100
AcDbEntity
  8
NoLayerName_001
  6
Continuous
 62
    21
370
    50
100
AcDbLine
 10
299.1599628549422
 20
395.182240202092
 30
0.0
 11
299.1599628549422
 21
400.682240202092
 31
0.0
  0
ARC
  5
25D
330
1F
100
AcDbEntity
  8
NoLayerName_001
  6
Continuous
 62
    21
370
    50
100
AcDbCircle
 10
300.1599628549422
 20
381.182240202092
 30
0.0
 40
1.0
100
AcDbArc
 50
90.0
 51
180.0
  0
ARC
  5
25E
330
1F
100
AcDbEntity
  8
NoLayerName_001
  6
Continuous
 62
    21
370
    50
100
AcDbCircle
 10
300.1599628549422
 20
395.182240202092
 30
0.0
 40
1.0
100
AcDbArc
 50
180.0
 51
270.0
  0
LINE
  5
25F
330
1F
100
AcDbEntity
  8
NoLayerName_001
  6
Continuous
 62
    21
370
    50
100
AcDbLine
 10
299.1599628549422
 20
382.182240202092
 30
0.0
 11
299.1599628549422
 21
375.682240202092
 31
0.0
  0
LINE
  5
260
330
1F
100
AcDbEntity
  8
NoLayerName_001
  6
Continuous
 62
    21
370
    50
100
AcDbLine
 10
299.1599628549422
 20
395.182240202092
 30
0.0
 11
299.1599628549422
 21
382.182240202092
 31
0.0
  0
LINE
  5
261
330
1F
100
AcDbEntity
  8
NoLayerName_001
  6
Continuous
 62
    21
370
    50
100
AcDbLine
 10
326.1599628549423
 20
382.182240202092
 30
0.0
 11
300.1599628549423
 21
382.182240202092
 31
0.0
  0
LINE
  5
262
330
1F
100
AcDbEntity
  8
NoLayerName_001
  6
Continuous
 62
    21
370
    50
100
AcDbLine
 10
300.1599628549422
 20
394.182240202092
 30
0.0
 11
326.1599628549422
 21
394.182240202092
 31
0.0
  0
ARC
  5
263
330
1F
100
AcDbEntity
  8
NoLayerName_006
  6
Continuous
 62
    21
370
    50
100
AcDbCircle
 10
334.1495461882756
 20
380.8210242699242
 30
0.0
 40
3.510416666666651
100
AcDbArc
 50
315.6541435925184
 51
44.34585640748161
  0
ARC
  5
264
330
1F
100
AcDbEntity
  8
NoLayerName_006
  6
Continuous
 62
    21
370
    50
100
AcDbCircle
 10
334.1495461882756
 20
395.5434561342597
 30
0.0
 40
3.510416666666651
100
AcDbArc
 50
315.6541435925184
 51
44.34585640748161
  0
LINE
  5
265
330
1F
100
AcDbEntity
  8
NoLayerName_006
  6
Continuous
 62
    21
370
    50
100
AcDbLine
 10
337.6599628549424
 20
380.8210242699242
 30
0.0
 11
337.6599628549424
 21
395.5434561342597
 31
0.0
  0
ARC
  5
266
330
1F
100
AcDbEntity
  8
NoLayerName_006
  6
Continuous
 62
    21
370
    50
100
AcDbCircle
 10
325.1182961882756
 20
388.182240202092
 30
0.0
 40
12.54166666666667
100
AcDbArc
 50
336.9649682362118
 51
23.03503176378839
  0
LINE
  5
267
330
1F
100
AcDbEntity
  8
NoLayerName_006
  6
Continuous
 62
    21
370
    50
100
AcDbLine
 10
334.6599628549423
 20
397.9971947783158
 30
0.0
 11
336.6599628549424
 21
397.9971947783158
 31
0.0
  0
LINE
  5
268
330
1F
100
AcDbEntity
  8
NoLayerName_006
  6
Continuous
 62
    21
370
    50
100
AcDbLine
 10
334.6599628549423
 20
393.0897174902038
 30
0.0
 11
336.6599628549424
 21
393.0897174902038
 31
0.0
  0
LINE
  5
269
330
1F
100
AcDbEntity
  8
NoLayerName_006
  6
Continuous
 62
    21
370
    50
100
AcDbLine
 10
334.6599628549423
 20
383.2747629139802
 30
0.0
 11
336.6599628549424
 21
383.2747629139802
 31
0.0
  0
LINE
  5
26A
330
1F
100
AcDbEntity
  8
NoLayerName_006
  6
Continuous
 62
    21
370
    50
100
AcDbLine
 10
334.6599628549423
 20
378.3672856258684
 30
0.0
 11
336.6599628549423
 21
378.3672856258684
 31
0.0
  0
LINE
  5
26B
330
1F
100
AcDbEntity
  8
NoLayerName_006
  6
Continuous
 62
    21
370
    50
100
AcDbLine
 10
192.2674401430536
 20
231.462803952541
 30
0.0
 11
192.2674401430536
 21
225.7628039525408
 31
0.0
  0
LINE
  5
26C
330
1F
100
AcDbEntity
  8
NoLayerName_006
  6
DOTSX
 62
     7
370
    25
100
AcDbLine
 10
192.2674401430536
 20
231.462803952541
 30
0.0
 11
192.2674401430536
 21
231.7628039525408
 31
0.0
  0
LINE
  5
26D
330
1F
100
AcDbEntity
  8
NoLayerName_006
  6
DOTSX
 62
     7
370
    25
100
AcDbLine
 10
197.1749174311655
 20
231.462803952541
 30
0.0
 11
197.1749174311655
 21
231.7628039525408
 31
0.0
  0
LINE
  5
26E
330
1F
100
AcDbEntity
  8
NoLayerName_006
  6
Continuous
 62
    21
370
    50
100
AcDbLine
 10
197.1749174311655
 20
231.462803952541
 30
0.0
 11
197.1749174311655
 21
225.7628039525408
 31
0.0
  0
LINE
  5
26F
330
1F
100
AcDbEntity
  8
NoLayerName_006
  6
Continuous
 62
    21
370
    50
100
AcDbLine
 10
182.45248556683
 20
231.462803952541
 30
0.0
 11
182.45248556683
 21
225.7628039525408
 31
0.0
  0
LINE
  5
270
330
1F
100
AcDbEntity
  8
NoLayerName_006
  6
DOTSX
 62
     7
370
    25
100
AcDbLine
 10
182.45248556683
 20
231.462803952541
 30
0.0
 11
182.45248556683
 21
231.7628039525408
 31
0.0
  0
LINE
  5
271
330
1F
100
AcDbEntity
  8
NoLayerName_006
  6
DOTSX
 62
     7
370
    25
100
AcDbLine
 10
177.5450082787182
 20
231.462803952541
 30
0.0
 11
177.5450082787182
 21
231.7628039525408
 31
0.0
  0
LINE
  5
272
330
1F
100
AcDbEntity
  8
NoLayerName_006
  6
Continuous
 62
    21
370
    50
100
AcDbLine
 10
177.5450082787182
 20
231.462803952541
 30
0.0
 11
177.5450082787182
 21
225.7628039525408
 31
0.0
  0
LINE
  5
273
330
1F
100
AcDbEntity
  8
NoLayerName_005
  6
Continuous
 62
     7
370
   100
100
AcDbLine
 10
372.0
 20
80.0
 30
0.0
 11
372.0
 21
40.0
 31
0.0
  0
LINE
  5
274
330
1F
100
AcDbEntity
  8
NoLayerName_005
  6
Continuous
 62
     7
370
    25
100
AcDbLine
 10
253.0
 20
54.0
 30
0.0
 11
372.0
 21
54.0
 31
0.0
  0
LINE
  5
275
330
1F
100
AcDbEntity
  8
NoLayerName_005
  6
Continuous
 62
     7
370
    25
100
AcDbLine
 10
275.0
 20
80.0
 30
0.0
 11
275.0
 21
40.0
 31
0.0
  0
LINE
  5
276
330
1F
100
AcDbEntity
  8
NoLayerName_005
  6
Continuous
 62
     7
370
   100
100
AcDbLine
 10
253.0
 20
80.0
 30
0.0
 11
253.0
 21
40.0
 31
0.0
  0
LINE
  5
277
330
1F
100
AcDbEntity
  8
NoLayerName_005
  6
Continuous
 62
     7
370
   100
100
AcDbLine
 10
372.0
 20
80.0
 30
0.0
 11
253.0
 21
80.0
 31
0.0
  0
LINE
  5
278
330
1F
100
AcDbEntity
  8
NoLayerName_005
  6
Continuous
 62
     7
370
   100
100
AcDbLine
 10
253.0
 20
40.0
 30
0.0
 11
372.0
 21
40.0
 31
0.0
  0
MTEXT
  5
279
330
1F
100
AcDbEntity
  8
NoLayerName_005
 62
     7
370
    50
100
AcDbMText
 10
255.2960004806519
 20
63.79999995231628
 30
0.0
 40
4.413793169218918
 41
0.0
 71
     7
 72
     5
  1
\fＭＳ Ｐゴシック|b0|c128|p50;\A1;品　名
 73
     1
 44
1.299389002163688
1001
ACAD
1000
ACAD_MTEXT_DEFINED_HEIGHT_BEGIN
1070
    46
1040
3.200000047683716
1000
ACAD_MTEXT_DEFINED_HEIGHT_END
  0
MTEXT
  5
27A
330
1F
100
AcDbEntity
  8
NoLayerName_005
 62
     7
370
    50
100
AcDbMText
 10
255.2960004806519
 20
43.79999995231628
 30
0.0
 40
4.413793169218918
 41
0.0
 71
     7
 72
     5
  1
\fＭＳ Ｐゴシック|b0|c128|p50;\A1;品　番
 73
     1
 44
1.299389002163688
1001
ACAD
1000
ACAD_MTEXT_DEFINED_HEIGHT_BEGIN
1070
    46
1040
3.200000047683716
1000
ACAD_MTEXT_DEFINED_HEIGHT_END
  0
MTEXT
  5
27B
330
1F
100
AcDbEntity
  8
NoLayerName_001
 62
     7
370
    50
100
AcDbMText
 10
323.5
 20
67.00000004768371
 30
0.0
 40
4.413793169218918
 41
0.0
 71
     5
 72
     5
  1
\fＭＳ Ｐゴシック|b0|c128|p50;\A1;プレート　４ＣＢＬ用\Pインサート付
 73
     1
 44
0.9745417371009623
1001
ACAD
1000
ACAD_MTEXT_DEFINED_HEIGHT_BEGIN
1070
    46
1040
6.400000095367432
1000
ACAD_MTEXT_DEFINED_HEIGHT_END
  0
MTEXT
  5
27C
330
1F
100
AcDbEntity
  8
NoLayerName_001
 62
     7
370
    50
100
AcDbMText
 10
323.5000152587891
 20
47.00000004768371
 30
0.0
 40
4.413793169218918
 41
0.0
 71
     5
 72
     5
  1
\fＭＳ Ｐゴシック|b0|c128|p50;\A1;Ｐ４ＣＢＬＺ－Ｔ
 73
     1
 44
1.299389002163688
1001
ACAD
1000
ACAD_MTEXT_DEFINED_HEIGHT_BEGIN
1070
    46
1040
3.200000047683716
1000
ACAD_MTEXT_DEFINED_HEIGHT_END
  0
ENDSEC
  0
SECTION
  2
OBJECTS
  0
DICTIONARY
  5
C
330
0
100
AcDbDictionary
281
     1
  3
ACAD_GROUP
350
D
  3
ACAD_LAYOUT
350
1A
  3
ACAD_MATERIAL
350
43
  3
ACAD_MLEADERSTYLE
350
27F
  3
ACAD_MLINESTYLE
350
17
  3
ACAD_PLOTSETTINGS
350
19
  3
ACAD_PLOTSTYLENAME
350
E
  3
ACAD_SCALELIST
350
47
  3
ACAD_VISUALSTYLE
350
2A
  3
AcDbVariableDictionary
350
27D
  3
DWGPROPS
350
286
  0
DICTIONARY
  5
D
102
{ACAD_REACTORS
330
C
102
}
330
C
100
AcDbDictionary
281
     1
  0
DICTIONARY
  5
1A
102
{ACAD_REACTORS
330
C
102
}
330
C
100
AcDbDictionary
281
     1
  3
Layout1
350
1E
  3
Model
350
22
  0
DICTIONARY
  5
43
102
{ACAD_REACTORS
330
C
102
}
330
C
100
AcDbDictionary
281
     1
  3
ByBlock
350
45
  3
ByLayer
350
44
  3
Global
350
46
  0
DICTIONARY
  5
27F
102
{ACAD_REACTORS
330
C
102
}
330
C
100
AcDbDictionary
281
     1
  0
DICTIONARY
  5
17
102
{ACAD_REACTORS
330
C
102
}
330
C
100
AcDbDictionary
281
     1
  3
Standard
350
18
  0
DICTIONARY
  5
19
102
{ACAD_REACTORS
330
C
102
}
330
C
100
AcDbDictionary
281
     1
  0
ACDBDICTIONARYWDFLT
  5
E
102
{ACAD_REACTORS
330
C
102
}
330
C
100
AcDbDictionary
281
     1
  3
Normal
350
F
100
AcDbDictionaryWithDefault
340
F
  0
DICTIONARY
  5
47
102
{ACAD_REACTORS
330
C
102
}
330
C
100
AcDbDictionary
281
     1
  3
A0
350
48
  3
A1
350
49
  3
A2
350
4A
  3
A3
350
4B
  3
A4
350
4C
  3
A5
350
4D
  3
A6
350
4E
  3
A7
350
4F
  3
A8
350
50
  3
A9
350
51
  3
B0
350
52
  3
B1
350
53
  3
B2
350
54
  3
B3
350
55
  3
B4
350
56
  3
B5
350
57
  3
B6
350
58
  3
B7
350
59
  3
B8
350
5A
  3
B9
350
5B
  3
C0
350
5C
  3
C1
350
5D
  3
C2
350
5E
  3
C3
350
5F
  3
C4
350
60
  3
C5
350
61
  3
C6
350
62
  3
C7
350
63
  3
C8
350
64
  3
C9
350
65
  3
D0
350
66
  3
D1
350
67
  3
D2
350
68
  0
DICTIONARY
  5
2A
102
{ACAD_REACTORS
330
C
102
}
330
C
100
AcDbDictionary
281
     1
  3
2dWireframe
350
2F
  3
Basic
350
32
  3
Brighten
350
36
  3
ColorChange
350
3A
  3
Conceptual
350
34
  3
Dim
350
35
  3
EdgeColorOff
350
3D
  3
Facepattern
350
39
  3
Flat
350
2B
  3
FlatWithEdges
350
2C
  3
Gouraud
350
2D
  3
GouraudWithEdges
350
2E
  3
Hidden
350
31
  3
JitterOff
350
3B
  3
Linepattern
350
38
  3
OverhangOff
350
3C
  3
Realistic
350
33
  3
Shaded
350
42
  3
Shaded with edges
350
41
  3
Shades of Gray
350
3E
  3
Sketchy
350
3F
  3
Thicken
350
37
  3
Wireframe
350
30
  3
X-Ray
350
40
  0
DICTIONARY
  5
27D
102
{ACAD_REACTORS
330
C
102
}
330
C
100
AcDbDictionary
281
     1
  3
CANNOSCALE
350
287
  3
DIMASSOC
350
284
  3
HIDETEXT
350
285
  3
MSLTSCALE
350
288
  3
PSOLHEIGHT
350
281
  3
PSOLWIDTH
350
280
  0
XRECORD
  5
286
102
{ACAD_REACTORS
330
C
102
}
330
C
100
AcDbXrecord
280
     1
  1
DWGPROPS COOKIE
  2

  3

  4

  6
File was created by TR2_DExp
  7

  8

  9

300
=
301
=
302
=
303
=
304
=
305
=
306
=
307
=
308
=
309
=
 40
0.0
 41
2455188.375
 42
2455188.375
  1

 90
        0
  0
LAYOUT
  5
1E
102
{ACAD_REACTORS
330
1A
102
}
330
1A
100
AcDbPlotSettings
  1

  2
none_device
  4

  6

 40
0.0
 41
0.0
 42
0.0
 43
0.0
 44
0.0
 45
0.0
 46
0.0
 47
0.0
 48
0.0
 49
0.0
140
0.0
141
0.0
142
1.0
143
1.0
 70
   688
 72
     1
 73
     0
 74
     5
  7

 75
    16
147
1.0
148
0.0
149
0.0
100
AcDbLayout
  1
Layout1
 70
     0
 71
     1
 10
0.0
 20
0.0
 11
420.0
 21
297.0
 12
0.0
 22
0.0
 32
0.0
 14
1.000000000000000E+20
 24
1.000000000000000E+20
 34
1.000000000000000E+20
 15
-1.000000000000000E+20
 25
-1.000000000000000E+20
 35
-1.000000000000000E+20
146
0.0
 13
0.0
 23
0.0
 33
0.0
 16
1.0
 26
0.0
 36
0.0
 17
0.0
 27
1.0
 37
0.0
 76
     0
330
1B
  0
LAYOUT
  5
22
102
{ACAD_REACTORS
330
1A
102
}
330
1A
100
AcDbPlotSettings
  1

  2
none_device
  4
Letter_(8.50_x_11.00_Inches)
  6

 40
6.35
 41
6.35
 42
6.35000508
 43
6.35000508
 44
215.9
 45
279.4
 46
0.0
 47
0.0
 48
0.0
 49
0.0
140
0.0
141
0.0
142
1.0
143
1.0
 70
  1712
 72
     1
 73
     0
 74
     0
  7

 75
     0
147
1.0
148
0.0
149
0.0
100
AcDbLayout
  1
Model
 70
     1
 71
     0
 10
114.053911993053
 20
40.0
 11
372.0
 21
456.4473271175337
 12
0.0
 22
0.0
 32
0.0
 14
114.053911993053
 24
40.0
 34
0.0
 15
372.0
 25
456.4473271175337
 35
0.0
146
0.0
 13
0.0
 23
0.0
 33
0.0
 16
1.0
 26
0.0
 36
0.0
 17
0.0
 27
1.0
 37
0.0
 76
     0
330
1F
331
29
  0
MATERIAL
  5
45
102
{ACAD_REACTORS
330
43
102
}
102
{ACAD_XDICTIONARY
360
2BB
102
}
330
43
100
AcDbMaterial
  1
ByBlock
  0
MATERIAL
  5
44
102
{ACAD_REACTORS
330
43
102
}
102
{ACAD_XDICTIONARY
360
2B9
102
}
330
43
100
AcDbMaterial
  1
ByLayer
  0
MATERIAL
  5
46
102
{ACAD_REACTORS
330
43
102
}
102
{ACAD_XDICTIONARY
360
2BD
102
}
330
43
100
AcDbMaterial
  1
Global
  0
MLINESTYLE
  5
18
102
{ACAD_REACTORS
330
17
102
}
330
17
100
AcDbMlineStyle
  2
Standard
 70
     0
  3

 62
   256
 51
90.0
 52
90.0
 71
     2
 49
0.5
 62
   256
  6
BYLAYER
 49
-0.5
 62
   256
  6
BYLAYER
  0
ACDBPLACEHOLDER
  5
F
102
{ACAD_REACTORS
330
E
102
}
330
E
  0
SCALE
  5
48
102
{ACAD_REACTORS
330
47
102
}
330
47
100
AcDbScale
 70
     0
300
1:1
140
1.0
141
1.0
290
     1
  0
SCALE
  5
49
102
{ACAD_REACTORS
330
47
102
}
330
47
100
AcDbScale
 70
     0
300
1:2
140
1.0
141
2.0
290
     0
  0
SCALE
  5
4A
102
{ACAD_REACTORS
330
47
102
}
330
47
100
AcDbScale
 70
     0
300
1:4
140
1.0
141
4.0
290
     0
  0
SCALE
  5
4B
102
{ACAD_REACTORS
330
47
102
}
330
47
100
AcDbScale
 70
     0
300
1:5
140
1.0
141
5.0
290
     0
  0
SCALE
  5
4C
102
{ACAD_REACTORS
330
47
102
}
330
47
100
AcDbScale
 70
     0
300
1:8
140
1.0
141
8.0
290
     0
  0
SCALE
  5
4D
102
{ACAD_REACTORS
330
47
102
}
330
47
100
AcDbScale
 70
     0
300
1:10
140
1.0
141
10.0
290
     0
  0
SCALE
  5
4E
102
{ACAD_REACTORS
330
47
102
}
330
47
100
AcDbScale
 70
     0
300
1:16
140
1.0
141
16.0
290
     0
  0
SCALE
  5
4F
102
{ACAD_REACTORS
330
47
102
}
330
47
100
AcDbScale
 70
     0
300
1:20
140
1.0
141
20.0
290
     0
  0
SCALE
  5
50
102
{ACAD_REACTORS
330
47
102
}
330
47
100
AcDbScale
 70
     0
300
1:30
140
1.0
141
30.0
290
     0
  0
SCALE
  5
51
102
{ACAD_REACTORS
330
47
102
}
330
47
100
AcDbScale
 70
     0
300
1:40
140
1.0
141
40.0
290
     0
  0
SCALE
  5
52
102
{ACAD_REACTORS
330
47
102
}
330
47
100
AcDbScale
 70
     0
300
1:50
140
1.0
141
50.0
290
     0
  0
SCALE
  5
53
102
{ACAD_REACTORS
330
47
102
}
330
47
100
AcDbScale
 70
     0
300
1:100
140
1.0
141
100.0
290
     0
  0
SCALE
  5
54
102
{ACAD_REACTORS
330
47
102
}
330
47
100
AcDbScale
 70
     0
300
2:1
140
2.0
141
1.0
290
     0
  0
SCALE
  5
55
102
{ACAD_REACTORS
330
47
102
}
330
47
100
AcDbScale
 70
     0
300
4:1
140
4.0
141
1.0
290
     0
  0
SCALE
  5
56
102
{ACAD_REACTORS
330
47
102
}
330
47
100
AcDbScale
 70
     0
300
8:1
140
8.0
141
1.0
290
     0
  0
SCALE
  5
57
102
{ACAD_REACTORS
330
47
102
}
330
47
100
AcDbScale
 70
     0
300
10:1
140
10.0
141
1.0
290
     0
  0
SCALE
  5
58
102
{ACAD_REACTORS
330
47
102
}
330
47
100
AcDbScale
 70
     0
300
100:1
140
100.0
141
1.0
290
     0
  0
SCALE
  5
59
102
{ACAD_REACTORS
330
47
102
}
330
47
100
AcDbScale
 70
     0
300
1/128" = 1'-0"
140
0.0078125
141
12.0
290
     0
  0
SCALE
  5
5A
102
{ACAD_REACTORS
330
47
102
}
330
47
100
AcDbScale
 70
     0
300
1/64" = 1'-0"
140
0.015625
141
12.0
290
     0
  0
SCALE
  5
5B
102
{ACAD_REACTORS
330
47
102
}
330
47
100
AcDbScale
 70
     0
300
1/32" = 1'-0"
140
0.03125
141
12.0
290
     0
  0
SCALE
  5
5C
102
{ACAD_REACTORS
330
47
102
}
330
47
100
AcDbScale
 70
     0
300
1/16" = 1'-0"
140
0.0625
141
12.0
290
     0
  0
SCALE
  5
5D
102
{ACAD_REACTORS
330
47
102
}
330
47
100
AcDbScale
 70
     0
300
3/32" = 1'-0"
140
0.09375
141
12.0
290
     0
  0
SCALE
  5
5E
102
{ACAD_REACTORS
330
47
102
}
330
47
100
AcDbScale
 70
     0
300
1/8" = 1'-0"
140
0.125
141
12.0
290
     0
  0
SCALE
  5
5F
102
{ACAD_REACTORS
330
47
102
}
330
47
100
AcDbScale
 70
     0
300
3/16" = 1'-0"
140
0.1875
141
12.0
290
     0
  0
SCALE
  5
60
102
{ACAD_REACTORS
330
47
102
}
330
47
100
AcDbScale
 70
     0
300
1/4" = 1'-0"
140
0.25
141
12.0
290
     0
  0
SCALE
  5
61
102
{ACAD_REACTORS
330
47
102
}
330
47
100
AcDbScale
 70
     0
300
3/8" = 1'-0"
140
0.375
141
12.0
290
     0
  0
SCALE
  5
62
102
{ACAD_REACTORS
330
47
102
}
330
47
100
AcDbScale
 70
     0
300
1/2" = 1'-0"
140
0.5
141
12.0
290
     0
  0
SCALE
  5
63
102
{ACAD_REACTORS
330
47
102
}
330
47
100
AcDbScale
 70
     0
300
3/4" = 1'-0"
140
0.75
141
12.0
290
     0
  0
SCALE
  5
64
102
{ACAD_REACTORS
330
47
102
}
330
47
100
AcDbScale
 70
     0
300
1" = 1'-0"
140
1.0
141
12.0
290
     0
  0
SCALE
  5
65
102
{ACAD_REACTORS
330
47
102
}
330
47
100
AcDbScale
 70
     0
300
1-1/2" = 1'-0"
140
1.5
141
12.0
290
     0
  0
SCALE
  5
66
102
{ACAD_REACTORS
330
47
102
}
330
47
100
AcDbScale
 70
     0
300
3" = 1'-0"
140
3.0
141
12.0
290
     0
  0
SCALE
  5
67
102
{ACAD_REACTORS
330
47
102
}
330
47
100
AcDbScale
 70
     0
300
6" = 1'-0"
140
6.0
141
12.0
290
     0
  0
SCALE
  5
68
102
{ACAD_REACTORS
330
47
102
}
330
47
100
AcDbScale
 70
     0
300
1'-0" = 1'-0"
140
12.0
141
12.0
290
     0
  0
VISUALSTYLE
  5
2F
102
{ACAD_REACTORS
330
2A
102
}
102
{ACAD_XDICTIONARY
360
291
102
}
330
2A
100
AcDbVisualStyle
  2
2dWireframe
 70
     4
 71
     0
 72
     2
 73
     0
 90
        0
 40
0.6
 41
30.0
 62
     5
 63
     7
 74
     1
 91
        4
 64
     7
 65
   257
 75
     1
175
     1
 42
1.0
 92
        0
 66
   257
 43
1.0
 76
     1
 77
     6
 78
     2
 67
     7
 79
     5
170
     0
171
     0
290
     0
174
     0
 93
        1
 44
0.0
173
     0
291
     0
 45
0.0
1001
ACAD
1000
AcDbSavedByObjectVersion
1070
     0
  0
VISUALSTYLE
  5
32
102
{ACAD_REACTORS
330
2A
102
}
102
{ACAD_XDICTIONARY
360
297
102
}
330
2A
100
AcDbVisualStyle
  2
Basic
 70
     7
 71
     1
 72
     0
 73
     1
 90
        0
 40
0.6
 41
30.0
 62
     5
 63
     7
 74
     0
 91
        4
 64
     7
 65
   257
 75
     1
175
     1
 42
1.0
 92
        8
 66
     7
 43
1.0
 76
     1
 77
     6
 78
     2
 67
     7
 79
     5
170
     0
171
     0
290
     0
174
     0
 93
        1
 44
0.0
173
     0
291
     1
 45
0.0
1001
ACAD
1000
AcDbSavedByObjectVersion
1070
     0
  0
VISUALSTYLE
  5
36
102
{ACAD_REACTORS
330
2A
102
}
102
{ACAD_XDICTIONARY
360
29F
102
}
330
2A
100
AcDbVisualStyle
  2
Brighten
 70
    12
 71
     2
 72
     2
 73
     0
 90
        0
 40
0.6
 41
30.0
 62
     5
 63
     7
 74
     1
 91
        4
 64
     7
 65
   257
 75
     1
175
     1
 42
1.0
 92
        8
 66
     7
 43
1.0
 76
     1
 77
     6
 78
     2
 67
     7
 79
     5
170
     0
171
     0
290
     0
174
     0
 93
        1
 44
50.0
173
     0
291
     1
 45
0.0
1001
ACAD
1000
AcDbSavedByObjectVersion
1070
     0
  0
VISUALSTYLE
  5
3A
102
{ACAD_REACTORS
330
2A
102
}
102
{ACAD_XDICTIONARY
360
2A7
102
}
330
2A
100
AcDbVisualStyle
  2
ColorChange
 70
    16
 71
     2
 72
     2
 73
     3
 90
        0
 40
0.6
 41
30.0
 62
     5
 63
     8
 74
     1
 91
        4
 64
     7
 65
   257
 75
     1
175
     1
 42
1.0
 92
        8
 66
     8
 43
1.0
 76
     1
 77
     6
 78
     2
 67
     7
 79
     5
170
     0
171
     0
290
     0
174
     0
 93
        1
 44
0.0
173
     0
291
     1
 45
0.0
1001
ACAD
1000
AcDbSavedByObjectVersion
1070
     0
  0
VISUALSTYLE
  5
34
102
{ACAD_REACTORS
330
2A
102
}
102
{ACAD_XDICTIONARY
360
29B
102
}
330
2A
100
AcDbVisualStyle
  2
Conceptual
 70
     9
 71
     3
 72
     2
 73
     0
 90
        0
 40
0.6
 41
30.0
 62
     5
 63
     7
 74
     2
 91
        2
 64
     7
 65
   257
 75
     1
175
     1
 42
179.0
 92
        8
 66
     7
 43
1.0
 76
     1
 77
     6
 78
     2
 67
     7
 79
     3
170
     0
171
     0
290
     0
174
     0
 93
        1
 44
0.0
173
     0
291
     0
 45
0.0
1001
ACAD
1000
AcDbSavedByObjectVersion
1070
     0
  0
VISUALSTYLE
  5
35
102
{ACAD_REACTORS
330
2A
102
}
102
{ACAD_XDICTIONARY
360
29D
102
}
330
2A
100
AcDbVisualStyle
  2
Dim
 70
    11
 71
     2
 72
     2
 73
     0
 90
        0
 40
0.6
 41
30.0
 62
     5
 63
     7
 74
     1
 91
        4
 64
     7
 65
   257
 75
     1
175
     1
 42
1.0
 92
        8
 66
     7
 43
1.0
 76
     1
 77
     6
 78
     2
 67
     7
 79
     5
170
     0
171
     0
290
     0
174
     0
 93
        1
 44
-50.0
173
     0
291
     1
 45
0.0
1001
ACAD
1000
AcDbSavedByObjectVersion
1070
     0
  0
VISUALSTYLE
  5
3D
102
{ACAD_REACTORS
330
2A
102
}
102
{ACAD_XDICTIONARY
360
2AD
102
}
330
2A
100
AcDbVisualStyle
  2
EdgeColorOff
 70
    22
 71
     2
 72
     2
 73
     0
 90
        0
 40
0.6
 41
30.0
 62
     5
 63
     7
 74
     1
 91
        4
 64
     7
 65
   257
 75
     1
175
     1
 42
1.0
 92
        8
 66
     7
 43
1.0
 76
     1
 77
     6
 78
     2
 67
     7
 79
     5
170
     0
171
     0
290
     0
174
     0
 93
        1
 44
0.0
173
     0
291
     1
 45
0.0
1001
ACAD
1000
AcDbSavedByObjectVersion
1070
     0
  0
VISUALSTYLE
  5
39
102
{ACAD_REACTORS
330
2A
102
}
102
{ACAD_XDICTIONARY
360
2A5
102
}
330
2A
100
AcDbVisualStyle
  2
Facepattern
 70
    15
 71
     2
 72
     2
 73
     0
 90
        0
 40
0.6
 41
30.0
 62
     5
 63
     7
 74
     1
 91
        4
 64
     7
 65
   257
 75
     1
175
     1
 42
1.0
 92
        8
 66
     7
 43
1.0
 76
     1
 77
     6
 78
     2
 67
     7
 79
     5
170
     0
171
     0
290
     0
174
     0
 93
        1
 44
0.0
173
     0
291
     1
 45
0.0
1001
ACAD
1000
AcDbSavedByObjectVersion
1070
     0
  0
VISUALSTYLE
  5
2B
102
{ACAD_REACTORS
330
2A
102
}
102
{ACAD_XDICTIONARY
360
289
102
}
330
2A
100
AcDbVisualStyle
  2
Flat
 70
     0
 71
     2
 72
     1
 73
     1
 90
        2
 40
0.6
 41
30.0
 62
     5
 63
     7
 74
     0
 91
        0
 64
     7
 65
   257
 75
     1
175
     1
 42
1.0
 92
        8
 66
     7
 43
1.0
 76
     1
 77
     6
 78
     2
 67
     7
 79
     5
170
     0
171
     0
290
     0
174
     0
 93
       13
 44
0.0
173
     0
291
     1
 45
0.0
1001
ACAD
1000
AcDbSavedByObjectVersion
1070
     0
  0
VISUALSTYLE
  5
2C
102
{ACAD_REACTORS
330
2A
102
}
102
{ACAD_XDICTIONARY
360
28B
102
}
330
2A
100
AcDbVisualStyle
  2
FlatWithEdges
 70
     1
 71
     2
 72
     1
 73
     1
 90
        2
 40
0.6
 41
30.0
 62
     5
 63
     7
 74
     1
 91
        0
 64
     7
 65
   257
 75
     1
175
     1
 42
1.0
 92
        0
 66
   257
 43
1.0
 76
     1
 77
     6
 78
     2
 67
     7
 79
     5
170
     0
171
     0
290
     0
174
     0
 93
       13
 44
0.0
173
     0
291
     1
 45
0.0
1001
ACAD
1000
AcDbSavedByObjectVersion
1070
     0
  0
VISUALSTYLE
  5
2D
102
{ACAD_REACTORS
330
2A
102
}
102
{ACAD_XDICTIONARY
360
28D
102
}
330
2A
100
AcDbVisualStyle
  2
Gouraud
 70
     2
 71
     2
 72
     2
 73
     1
 90
        2
 40
0.6
 41
30.0
 62
     5
 63
     7
 74
     0
 91
        0
 64
     7
 65
   257
 75
     1
175
     1
 42
1.0
 92
        0
 66
     7
 43
1.0
 76
     1
 77
     6
 78
     2
 67
     7
 79
     5
170
     0
171
     0
290
     0
174
     0
 93
       13
 44
0.0
173
     0
291
     1
 45
0.0
1001
ACAD
1000
AcDbSavedByObjectVersion
1070
     0
  0
VISUALSTYLE
  5
2E
102
{ACAD_REACTORS
330
2A
102
}
102
{ACAD_XDICTIONARY
360
28F
102
}
330
2A
100
AcDbVisualStyle
  2
GouraudWithEdges
 70
     3
 71
     2
 72
     2
 73
     1
 90
        2
 40
0.6
 41
30.0
 62
     5
 63
     7
 74
     1
 91
        0
 64
     7
 65
   257
 75
     1
175
     1
 42
1.0
 92
        0
 66
   257
 43
1.0
 76
     1
 77
     6
 78
     2
 67
     7
 79
     5
170
     0
171
     0
290
     0
174
     0
 93
       13
 44
0.0
173
     0
291
     1
 45
0.0
1001
ACAD
1000
AcDbSavedByObjectVersion
1070
     0
  0
VISUALSTYLE
  5
31
102
{ACAD_REACTORS
330
2A
102
}
102
{ACAD_XDICTIONARY
360
295
102
}
330
2A
100
AcDbVisualStyle
  2
Hidden
 70
     6
 71
     1
 72
     2
 73
     2
 90
        0
 40
0.6
 41
30.0
 62
     5
 63
     7
 74
     2
 91
        2
 64
     7
 65
   257
 75
     2
175
     1
 42
40.0
 92
        0
 66
   257
 43
1.0
 76
     1
 77
     6
 78
     2
 67
     7
 79
     3
170
     0
171
     0
290
     0
174
     0
 93
        1
 44
0.0
173
     0
291
     0
 45
0.0
1001
ACAD
1000
AcDbSavedByObjectVersion
1070
     0
  0
VISUALSTYLE
  5
3B
102
{ACAD_REACTORS
330
2A
102
}
102
{ACAD_XDICTIONARY
360
2A9
102
}
330
2A
100
AcDbVisualStyle
  2
JitterOff
 70
    20
 71
     2
 72
     2
 73
     0
 90
        0
 40
0.6
 41
30.0
 62
     5
 63
     7
 74
     1
 91
        4
 64
     7
 65
   257
 75
     1
175
     1
 42
1.0
 92
       10
 66
     7
 43
1.0
 76
     1
 77
     6
 78
     2
 67
     7
 79
     5
170
     0
171
     0
290
     0
174
     0
 93
        1
 44
0.0
173
     0
291
     1
 45
0.0
1001
ACAD
1000
AcDbSavedByObjectVersion
1070
     0
  0
VISUALSTYLE
  5
38
102
{ACAD_REACTORS
330
2A
102
}
102
{ACAD_XDICTIONARY
360
2A3
102
}
330
2A
100
AcDbVisualStyle
  2
Linepattern
 70
    14
 71
     2
 72
     2
 73
     0
 90
        0
 40
0.6
 41
30.0
 62
     5
 63
     7
 74
     1
 91
        4
 64
     7
 65
   257
 75
     7
175
     7
 42
1.0
 92
        8
 66
     7
 43
1.0
 76
     1
 77
     6
 78
     2
 67
     7
 79
     5
170
     0
171
     0
290
     0
174
     0
 93
        1
 44
0.0
173
     0
291
     1
 45
0.0
1001
ACAD
1000
AcDbSavedByObjectVersion
1070
     0
  0
VISUALSTYLE
  5
3C
102
{ACAD_REACTORS
330
2A
102
}
102
{ACAD_XDICTIONARY
360
2AB
102
}
330
2A
100
AcDbVisualStyle
  2
OverhangOff
 70
    21
 71
     2
 72
     2
 73
     0
 90
        0
 40
0.6
 41
30.0
 62
     5
 63
     7
 74
     1
 91
        4
 64
     7
 65
   257
 75
     1
175
     1
 42
1.0
 92
        9
 66
     7
 43
1.0
 76
     1
 77
     6
 78
     2
 67
     7
 79
     5
170
     0
171
     0
290
     0
174
     0
 93
        1
 44
0.0
173
     0
291
     1
 45
0.0
1001
ACAD
1000
AcDbSavedByObjectVersion
1070
     0
  0
VISUALSTYLE
  5
33
102
{ACAD_REACTORS
330
2A
102
}
102
{ACAD_XDICTIONARY
360
299
102
}
330
2A
100
AcDbVisualStyle
  2
Realistic
 70
     8
 71
     2
 72
     3
 73
     0
 90
        2
 40
0.6
 41
30.0
 62
     5
 63
     7
 74
     0
 91
        0
 64
     7
 65
   257
 75
     1
175
     1
 42
1.0
 92
        8
 66
   257
 43
1.0
 76
     1
 77
     6
 78
     2
 67
     7
 79
     3
170
     0
171
     0
290
     0
174
     0
 93
       13
 44
0.0
173
     0
291
     0
 45
0.0
1001
ACAD
1000
AcDbSavedByObjectVersion
1070
     0
  0
VISUALSTYLE
  5
42
102
{ACAD_REACTORS
330
2A
102
}
102
{ACAD_XDICTIONARY
360
2B7
102
}
330
2A
100
AcDbVisualStyle
  2
Shaded
 70
    27
 71
     2
 72
     2
 73
     1
 90
        2
 40
0.6
 41
30.0
 62
     5
 63
     7
 74
     0
 91
        4
 64
     7
 65
   257
 75
     1
175
     1
 42
1.0
 92
        8
 66
   257
 43
1.0
 76
     1
 77
     6
 78
     2
 67
     8
 79
     3
170
     0
171
     0
290
     0
174
     0
 93
        5
 44
0.0
173
     0
291
     0
 45
0.0
1001
ACAD
1000
AcDbSavedByObjectVersion
1070
     0
  0
VISUALSTYLE
  5
41
102
{ACAD_REACTORS
330
2A
102
}
102
{ACAD_XDICTIONARY
360
2B5
102
}
330
2A
100
AcDbVisualStyle
  2
Shaded with edges
 70
    26
 71
     2
 72
     2
 73
     1
 90
        2
 40
0.6
 41
30.0
 62
     5
 63
     7
 74
     1
 91
       10
 64
     7
 65
   257
 75
     2
175
     1
 42
1.0
 92
        8
 66
   257
 43
1.0
 76
     1
 77
     6
 78
     2
 67
     7
 79
     3
170
     0
171
     0
290
     0
174
     0
 93
        5
 44
0.0
173
     0
291
     0
 45
0.0
1001
ACAD
1000
AcDbSavedByObjectVersion
1070
     0
  0
VISUALSTYLE
  5
3E
102
{ACAD_REACTORS
330
2A
102
}
102
{ACAD_XDICTIONARY
360
2AF
102
}
330
2A
100
AcDbVisualStyle
  2
Shades of Gray
 70
    23
 71
     2
 72
     2
 73
     3
 90
        0
 40
0.6
 41
30.0
 62
     5
 63
     7
 74
     2
 91
        2
 64
     7
 65
     7
 75
     1
175
     1
 42
40.0
 92
        8
 66
     7
 43
1.0
 76
     1
 77
     6
 78
     2
 67
     7
 79
     3
170
     0
171
     0
290
     0
174
     0
 93
        1
 44
0.0
173
     0
291
     0
 45
0.0
1001
ACAD
1000
AcDbSavedByObjectVersion
1070
     0
  0
VISUALSTYLE
  5
3F
102
{ACAD_REACTORS
330
2A
102
}
102
{ACAD_XDICTIONARY
360
2B1
102
}
330
2A
100
AcDbVisualStyle
  2
Sketchy
 70
    24
 71
     1
 72
     2
 73
     2
 90
        0
 40
0.6
 41
30.0
 62
     5
 63
     7
 74
     2
 91
        2
 64
     7
 65
     7
 75
     1
175
     1
 42
40.0
 92
       11
 66
     7
 43
1.0
 76
     1
 77
     6
 78
     2
 67
     7
 79
     6
170
     0
171
     0
290
     0
174
     0
 93
        1
 44
0.0
173
     0
291
     0
 45
0.0
1001
ACAD
1000
AcDbSavedByObjectVersion
1070
     0
  0
VISUALSTYLE
  5
37
102
{ACAD_REACTORS
330
2A
102
}
102
{ACAD_XDICTIONARY
360
2A1
102
}
330
2A
100
AcDbVisualStyle
  2
Thicken
 70
    13
 71
     2
 72
     2
 73
     0
 90
        0
 40
0.6
 41
30.0
 62
     5
 63
     7
 74
     1
 91
        4
 64
     7
 65
   257
 75
     1
175
     1
 42
1.0
 92
       12
 66
     7
 43
1.0
 76
     1
 77
     6
 78
     2
 67
     7
 79
     5
170
     0
171
     0
290
     0
174
     0
 93
        1
 44
0.0
173
     0
291
     1
 45
0.0
1001
ACAD
1000
AcDbSavedByObjectVersion
1070
     0
  0
VISUALSTYLE
  5
30
102
{ACAD_REACTORS
330
2A
102
}
102
{ACAD_XDICTIONARY
360
293
102
}
330
2A
100
AcDbVisualStyle
  2
Wireframe
 70
     5
 71
     0
 72
     2
 73
     0
 90
        0
 40
0.6
 41
30.0
 62
     5
 63
     7
 74
     1
 91
        4
 64
     7
 65
   257
 75
     1
175
     1
 42
1.0
 92
        0
 66
   257
 43
1.0
 76
     1
 77
     6
 78
     2
 67
     7
 79
     3
170
     0
171
     0
290
     0
174
     0
 93
        1
 44
0.0
173
     0
291
     0
 45
0.0
1001
ACAD
1000
AcDbSavedByObjectVersion
1070
     0
  0
VISUALSTYLE
  5
40
102
{ACAD_REACTORS
330
2A
102
}
102
{ACAD_XDICTIONARY
360
2B3
102
}
330
2A
100
AcDbVisualStyle
  2
X-Ray
 70
    25
 71
     2
 72
     2
 73
     1
 90
        1
 40
0.5
 41
30.0
 62
     5
 63
     7
 74
     1
 91
        0
 64
     7
 65
   257
 75
     1
175
     1
 42
1.0
 92
        8
 66
     7
 43
1.0
 76
     1
 77
     6
 78
     2
 67
     7
 79
     3
170
     0
171
     0
290
     0
174
     0
 93
       13
 44
0.0
173
     0
291
     0
 45
0.0
1001
ACAD
1000
AcDbSavedByObjectVersion
1070
     0
  0
DICTIONARYVAR
  5
287
102
{ACAD_REACTORS
330
27D
102
}
330
27D
100
DictionaryVariables
280
     0
  1
1:1
  0
DICTIONARYVAR
  5
284
102
{ACAD_REACTORS
330
27D
102
}
330
27D
100
DictionaryVariables
280
     0
  1
2
  0
DICTIONARYVAR
  5
285
102
{ACAD_REACTORS
330
27D
102
}
330
27D
100
DictionaryVariables
280
     0
  1
1
  0
DICTIONARYVAR
  5
288
102
{ACAD_REACTORS
330
27D
102
}
330
27D
100
DictionaryVariables
280
     0
  1
1
  0
DICTIONARYVAR
  5
281
102
{ACAD_REACTORS
330
27D
102
}
330
27D
100
DictionaryVariables
280
     0
  1
80.000000
  0
DICTIONARYVAR
  5
280
102
{ACAD_REACTORS
330
27D
102
}
330
27D
100
DictionaryVariables
280
     0
  1
5.000000
  0
DICTIONARY
  5
2BB
330
45
100
AcDbDictionary
280
     1
281
     1
  3
ACAD_XREC_ROUNDTRIP
360
2BC
  0
DICTIONARY
  5
2B9
330
44
100
AcDbDictionary
280
     1
281
     1
  3
ACAD_XREC_ROUNDTRIP
360
2BA
  0
DICTIONARY
  5
2BD
330
46
100
AcDbDictionary
280
     1
281
     1
  3
ACAD_XREC_ROUNDTRIP
360
2BE
  0
DICTIONARY
  5
291
330
2F
100
AcDbDictionary
280
     1
281
     1
  3
ACAD_XREC_ROUNDTRIP
360
292
  0
DICTIONARY
  5
297
330
32
100
AcDbDictionary
280
     1
281
     1
  3
ACAD_XREC_ROUNDTRIP
360
298
  0
DICTIONARY
  5
29F
330
36
100
AcDbDictionary
280
     1
281
     1
  3
ACAD_XREC_ROUNDTRIP
360
2A0
  0
DICTIONARY
  5
2A7
330
3A
100
AcDbDictionary
280
     1
281
     1
  3
ACAD_XREC_ROUNDTRIP
360
2A8
  0
DICTIONARY
  5
29B
330
34
100
AcDbDictionary
280
     1
281
     1
  3
ACAD_XREC_ROUNDTRIP
360
29C
  0
DICTIONARY
  5
29D
330
35
100
AcDbDictionary
280
     1
281
     1
  3
ACAD_XREC_ROUNDTRIP
360
29E
  0
DICTIONARY
  5
2AD
330
3D
100
AcDbDictionary
280
     1
281
     1
  3
ACAD_XREC_ROUNDTRIP
360
2AE
  0
DICTIONARY
  5
2A5
330
39
100
AcDbDictionary
280
     1
281
     1
  3
ACAD_XREC_ROUNDTRIP
360
2A6
  0
DICTIONARY
  5
289
330
2B
100
AcDbDictionary
280
     1
281
     1
  3
ACAD_XREC_ROUNDTRIP
360
28A
  0
DICTIONARY
  5
28B
330
2C
100
AcDbDictionary
280
     1
281
     1
  3
ACAD_XREC_ROUNDTRIP
360
28C
  0
DICTIONARY
  5
28D
330
2D
100
AcDbDictionary
280
     1
281
     1
  3
ACAD_XREC_ROUNDTRIP
360
28E
  0
DICTIONARY
  5
28F
330
2E
100
AcDbDictionary
280
     1
281
     1
  3
ACAD_XREC_ROUNDTRIP
360
290
  0
DICTIONARY
  5
295
330
31
100
AcDbDictionary
280
     1
281
     1
  3
ACAD_XREC_ROUNDTRIP
360
296
  0
DICTIONARY
  5
2A9
330
3B
100
AcDbDictionary
280
     1
281
     1
  3
ACAD_XREC_ROUNDTRIP
360
2AA
  0
DICTIONARY
  5
2A3
330
38
100
AcDbDictionary
280
     1
281
     1
  3
ACAD_XREC_ROUNDTRIP
360
2A4
  0
DICTIONARY
  5
2AB
330
3C
100
AcDbDictionary
280
     1
281
     1
  3
ACAD_XREC_ROUNDTRIP
360
2AC
  0
DICTIONARY
  5
299
330
33
100
AcDbDictionary
280
     1
281
     1
  3
ACAD_XREC_ROUNDTRIP
360
29A
  0
DICTIONARY
  5
2B7
330
42
100
AcDbDictionary
280
     1
281
     1
  3
ACAD_XREC_ROUNDTRIP
360
2B8
  0
DICTIONARY
  5
2B5
330
41
100
AcDbDictionary
280
     1
281
     1
  3
ACAD_XREC_ROUNDTRIP
360
2B6
  0
DICTIONARY
  5
2AF
330
3E
100
AcDbDictionary
280
     1
281
     1
  3
ACAD_XREC_ROUNDTRIP
360
2B0
  0
DICTIONARY
  5
2B1
330
3F
100
AcDbDictionary
280
     1
281
     1
  3
ACAD_XREC_ROUNDTRIP
360
2B2
  0
DICTIONARY
  5
2A1
330
37
100
AcDbDictionary
280
     1
281
     1
  3
ACAD_XREC_ROUNDTRIP
360
2A2
  0
DICTIONARY
  5
293
330
30
100
AcDbDictionary
280
     1
281
     1
  3
ACAD_XREC_ROUNDTRIP
360
294
  0
DICTIONARY
  5
2B3
330
40
100
AcDbDictionary
280
     1
281
     1
  3
ACAD_XREC_ROUNDTRIP
360
2B4
  0
XRECORD
  5
2BC
102
{ACAD_REACTORS
330
2BB
102
}
330
2BB
100
AcDbXrecord
280
     1
102
MATERIAL
148
0.0
149
0.0
149
0.0
 93
        0
 94
      127
282
     0
 72
     1
 77
     1
171
     1
175
     1
179
     1
273
     0
  0
XRECORD
  5
2BA
102
{ACAD_REACTORS
330
2B9
102
}
330
2B9
100
AcDbXrecord
280
     1
102
MATERIAL
148
0.0
149
0.0
149
0.0
 93
        0
 94
      127
282
     0
 72
     1
 77
     1
171
     1
175
     1
179
     1
273
     0
  0
XRECORD
  5
2BE
102
{ACAD_REACTORS
330
2BD
102
}
330
2BD
100
AcDbXrecord
280
     1
102
MATERIAL
148
0.0
149
0.0
149
0.0
 93
        0
 94
      127
282
     0
 72
     1
 77
     1
171
     1
175
     1
179
     1
273
     0
  0
XRECORD
  5
292
102
{ACAD_REACTORS
330
291
102
}
330
291
100
AcDbXrecord
280
     1
102
RTVSPropertyOp0
 70
     1
102
RTVSPropertyOp1
 70
     1
102
RTVSPropertyOp2
 70
     1
102
RTVSPropertyOp3
 70
     1
102
RTVSPropertyOp4
 70
     1
102
RTVSPropertyOp5
 70
     1
102
RTVSPropertyOp6
 70
     1
102
RTVSPropertyOp7
 70
     1
102
RTVSPropertyOp8
 70
     1
102
RTVSPropertyOp9
 70
     1
102
RTVSPropertyOp10
 70
     1
102
RTVSPropertyOp11
 70
     1
102
RTVSPropertyOp12
 70
     1
102
RTVSPropertyOp13
 70
     1
102
RTVSPropertyOp14
 70
     1
102
RTVSPropertyOp15
 70
     1
102
RTVSPropertyOp16
 70
     1
102
RTVSPropertyOp17
 70
     1
102
RTVSPropertyOp18
 70
     1
102
RTVSPropertyOp19
 70
     1
102
RTVSPropertyOp20
 70
     1
102
RTVSPropertyOp21
 70
     1
102
RTVSPropertyOp22
 70
     1
102
RTVSPropertyOp23
 70
     1
102
RTVSPropertyOp24
 70
     1
102
RTVSPropertyOp25
 70
     1
102
RTVSPropertyOp26
 70
     1
102
RTVSPropertyOp27
 70
     1
102
RTVSPropertyOp28
 70
     1
102
RTVSPropertyOp29
 70
     1
102
RTVSPropertyOp30
 70
     1
102
RTVSPropertyOp31
 70
     1
102
RTVSPropertyOp32
 70
     1
102
RTVSPropertyOp33
 70
     1
102
RTVSPropertyOp34
 70
     1
102
RTVSPropertyOp35
 70
     1
102
RTVSPropertyOp36
 70
     1
102
RTVSPropertyOp37
 70
     1
102
RTVSPropertyOp38
 70
     1
102
RTVSPropertyOp39
 70
     1
102
RTVSPropertyOp40
 70
     1
102
RTVSPropertyOp41
 70
     1
102
RTVSPropertyOp42
 70
     1
102
RTVSPropertyOp43
 70
     1
102
RTVSPropertyOp44
 70
     1
102
RTVSPropertyOp45
 70
     1
102
RTVSPropertyOp46
 70
     1
102
RTVSPropertyOp47
 70
     1
102
RTVSPropertyOp48
 70
     1
102
RTVSPropertyOp49
 70
     1
102
RTVSPropertyOp50
 70
     1
102
RTVSPropertyOp51
 70
     0
102
RTVSPropertyOp52
 70
     0
102
RTVSPropertyOp53
 70
     1
102
RTVSPropertyOp54
 70
     1
102
RTVSPropertyOp55
 70
     1
102
RTVSPropertyOp56
 70
     1
102
RTVSPropertyOp57
 70
     1
102
RTVSPost2010Prop28
280
     1
102
RTVSPost2010PropOp28
 70
     1
102
RTVSPost2010Prop29
280
     1
102
RTVSPost2010PropOp29
 70
     1
102
RTVSPost2010Prop30
280
     0
102
RTVSPost2010PropOp30
 70
     1
102
RTVSPost2010Prop31
280
     0
102
RTVSPost2010PropOp31
 70
     1
102
RTVSPost2010Prop32
280
     0
102
RTVSPost2010PropOp32
 70
     1
102
RTVSPost2010Prop33
280
     0
102
RTVSPost2010PropOp33
 70
     1
102
RTVSPost2010Prop34
280
     0
102
RTVSPost2010PropOp34
 70
     1
102
RTVSPost2010Prop35
280
     0
102
RTVSPost2010PropOp35
 70
     1
102
RTVSPost2010Prop36
280
     0
102
RTVSPost2010PropOp36
 70
     1
102
RTVSPost2010Prop37
 90
       50
102
RTVSPost2010PropOp37
 70
     1
102
RTVSPost2010Prop38
140
0.0
102
RTVSPost2010PropOp38
 70
     1
102
RTVSPost2010Prop39
140
1.0
102
RTVSPost2010PropOp39
 70
     1
102
RTVSPost2010Prop40
 90
        0
102
RTVSPost2010PropOp40
 70
     1
102
RTVSPost2010Prop41ColorIndex
 90
       18
102
RTVSPost2010Prop41ColorRGB
 90
        0
102
RTVSPost2010PropOp41
 70
     1
102
RTVSPost2010Prop42
 90
       50
102
RTVSPost2010PropOp42
 70
     1
102
RTVSPost2010Prop43
 90
        3
102
RTVSPost2010PropOp43
 70
     1
102
RTVSPost2010Prop44ColorIndex
 90
        5
102
RTVSPost2010Prop44ColorRGB
 90
      255
102
RTVSPost2010PropOp44
 70
     1
102
RTVSPost2010Prop45
280
     0
102
RTVSPost2010PropOp45
 70
     1
102
RTVSPost2010Prop46
 90
       50
102
RTVSPost2010PropOp46
 70
     1
102
RTVSPost2010Prop47
 90
       50
102
RTVSPost2010PropOp47
 70
     1
102
RTVSPost2010Prop48
 90
       50
102
RTVSPost2010PropOp48
 70
     1
102
RTVSPost2010Prop49
280
     0
102
RTVSPost2010PropOp49
 70
     1
102
RTVSPost2010Prop50
 90
       50
102
RTVSPost2010PropOp50
 70
     1
102
RTVSPost2010Prop51ColorIndex
 90
      256
102
RTVSPost2010Prop51ColorRGB
 90
-16777216
102
RTVSPost2010PropOp51
 70
     0
102
RTVSPost2010Prop52
140
1.0
102
RTVSPost2010PropOp52
 70
     0
102
RTVSPost2010Prop53
 90
        2
102
RTVSPost2010PropOp53
 70
     1
102
RTVSPost2010Prop54
  1
strokes_ogs.tif
102
RTVSPost2010PropOp54
 70
     1
102
RTVSPost2010Prop55
280
     0
102
RTVSPost2010PropOp55
 70
     1
102
RTVSPost2010Prop56
140
1.0
102
RTVSPost2010PropOp56
 70
     1
102
RTVSPost2010Prop57
140
1.0
102
RTVSPost2010PropOp57
 70
     1
  0
XRECORD
  5
298
102
{ACAD_REACTORS
330
297
102
}
330
297
100
AcDbXrecord
280
     1
102
RTVSPropertyOp0
 70
     1
102
RTVSPropertyOp1
 70
     1
102
RTVSPropertyOp2
 70
     1
102
RTVSPropertyOp3
 70
     1
102
RTVSPropertyOp4
 70
     1
102
RTVSPropertyOp5
 70
     1
102
RTVSPropertyOp6
 70
     1
102
RTVSPropertyOp7
 70
     1
102
RTVSPropertyOp8
 70
     1
102
RTVSPropertyOp9
 70
     1
102
RTVSPropertyOp10
 70
     1
102
RTVSPropertyOp11
 70
     1
102
RTVSPropertyOp12
 70
     1
102
RTVSPropertyOp13
 70
     1
102
RTVSPropertyOp14
 70
     1
102
RTVSPropertyOp15
 70
     1
102
RTVSPropertyOp16
 70
     1
102
RTVSPropertyOp17
 70
     1
102
RTVSPropertyOp18
 70
     1
102
RTVSPropertyOp19
 70
     1
102
RTVSPropertyOp20
 70
     1
102
RTVSPropertyOp21
 70
     1
102
RTVSPropertyOp22
 70
     1
102
RTVSPropertyOp23
 70
     1
102
RTVSPropertyOp24
 70
     1
102
RTVSPropertyOp25
 70
     1
102
RTVSPropertyOp26
 70
     1
102
RTVSPropertyOp27
 70
     1
102
RTVSPropertyOp28
 70
     1
102
RTVSPropertyOp29
 70
     1
102
RTVSPropertyOp30
 70
     1
102
RTVSPropertyOp31
 70
     1
102
RTVSPropertyOp32
 70
     1
102
RTVSPropertyOp33
 70
     1
102
RTVSPropertyOp34
 70
     1
102
RTVSPropertyOp35
 70
     1
102
RTVSPropertyOp36
 70
     1
102
RTVSPropertyOp37
 70
     1
102
RTVSPropertyOp38
 70
     1
102
RTVSPropertyOp39
 70
     1
102
RTVSPropertyOp40
 70
     1
102
RTVSPropertyOp41
 70
     1
102
RTVSPropertyOp42
 70
     1
102
RTVSPropertyOp43
 70
     1
102
RTVSPropertyOp44
 70
     1
102
RTVSPropertyOp45
 70
     1
102
RTVSPropertyOp46
 70
     1
102
RTVSPropertyOp47
 70
     1
102
RTVSPropertyOp48
 70
     1
102
RTVSPropertyOp49
 70
     1
102
RTVSPropertyOp50
 70
     1
102
RTVSPropertyOp51
 70
     0
102
RTVSPropertyOp52
 70
     0
102
RTVSPropertyOp53
 70
     1
102
RTVSPropertyOp54
 70
     1
102
RTVSPropertyOp55
 70
     1
102
RTVSPropertyOp56
 70
     1
102
RTVSPropertyOp57
 70
     1
102
RTVSPost2010Prop28
280
     0
102
RTVSPost2010PropOp28
 70
     1
102
RTVSPost2010Prop29
280
     1
102
RTVSPost2010PropOp29
 70
     1
102
RTVSPost2010Prop30
280
     1
102
RTVSPost2010PropOp30
 70
     1
102
RTVSPost2010Prop31
280
     0
102
RTVSPost2010PropOp31
 70
     1
102
RTVSPost2010Prop32
280
     0
102
RTVSPost2010PropOp32
 70
     1
102
RTVSPost2010Prop33
280
     0
102
RTVSPost2010PropOp33
 70
     1
102
RTVSPost2010Prop34
280
     0
102
RTVSPost2010PropOp34
 70
     1
102
RTVSPost2010Prop35
280
     0
102
RTVSPost2010PropOp35
 70
     1
102
RTVSPost2010Prop36
280
     0
102
RTVSPost2010PropOp36
 70
     1
102
RTVSPost2010Prop37
 90
       50
102
RTVSPost2010PropOp37
 70
     1
102
RTVSPost2010Prop38
140
0.0
102
RTVSPost2010PropOp38
 70
     1
102
RTVSPost2010Prop39
140
1.0
102
RTVSPost2010PropOp39
 70
     1
102
RTVSPost2010Prop40
 90
        0
102
RTVSPost2010PropOp40
 70
     1
102
RTVSPost2010Prop41ColorIndex
 90
       18
102
RTVSPost2010Prop41ColorRGB
 90
        0
102
RTVSPost2010PropOp41
 70
     1
102
RTVSPost2010Prop42
 90
       50
102
RTVSPost2010PropOp42
 70
     1
102
RTVSPost2010Prop43
 90
        3
102
RTVSPost2010PropOp43
 70
     1
102
RTVSPost2010Prop44ColorIndex
 90
        5
102
RTVSPost2010Prop44ColorRGB
 90
      255
102
RTVSPost2010PropOp44
 70
     1
102
RTVSPost2010Prop45
280
     0
102
RTVSPost2010PropOp45
 70
     1
102
RTVSPost2010Prop46
 90
       50
102
RTVSPost2010PropOp46
 70
     1
102
RTVSPost2010Prop47
 90
       50
102
RTVSPost2010PropOp47
 70
     1
102
RTVSPost2010Prop48
 90
       50
102
RTVSPost2010PropOp48
 70
     1
102
RTVSPost2010Prop49
280
     0
102
RTVSPost2010PropOp49
 70
     1
102
RTVSPost2010Prop50
 90
       50
102
RTVSPost2010PropOp50
 70
     1
102
RTVSPost2010Prop51ColorIndex
 90
      256
102
RTVSPost2010Prop51ColorRGB
 90
-16777216
102
RTVSPost2010PropOp51
 70
     0
102
RTVSPost2010Prop52
140
1.0
102
RTVSPost2010PropOp52
 70
     0
102
RTVSPost2010Prop53
 90
        2
102
RTVSPost2010PropOp53
 70
     1
102
RTVSPost2010Prop54
  1
strokes_ogs.tif
102
RTVSPost2010PropOp54
 70
     1
102
RTVSPost2010Prop55
280
     0
102
RTVSPost2010PropOp55
 70
     1
102
RTVSPost2010Prop56
140
1.0
102
RTVSPost2010PropOp56
 70
     1
102
RTVSPost2010Prop57
140
1.0
102
RTVSPost2010PropOp57
 70
     1
  0
XRECORD
  5
2A0
102
{ACAD_REACTORS
330
29F
102
}
330
29F
100
AcDbXrecord
280
     1
102
RTVSPropertyOp0
 70
     1
102
RTVSPropertyOp1
 70
     1
102
RTVSPropertyOp2
 70
     1
102
RTVSPropertyOp3
 70
     1
102
RTVSPropertyOp4
 70
     1
102
RTVSPropertyOp5
 70
     1
102
RTVSPropertyOp6
 70
     1
102
RTVSPropertyOp7
 70
     1
102
RTVSPropertyOp8
 70
     1
102
RTVSPropertyOp9
 70
     1
102
RTVSPropertyOp10
 70
     1
102
RTVSPropertyOp11
 70
     1
102
RTVSPropertyOp12
 70
     1
102
RTVSPropertyOp13
 70
     1
102
RTVSPropertyOp14
 70
     1
102
RTVSPropertyOp15
 70
     1
102
RTVSPropertyOp16
 70
     1
102
RTVSPropertyOp17
 70
     1
102
RTVSPropertyOp18
 70
     1
102
RTVSPropertyOp19
 70
     1
102
RTVSPropertyOp20
 70
     1
102
RTVSPropertyOp21
 70
     1
102
RTVSPropertyOp22
 70
     1
102
RTVSPropertyOp23
 70
     1
102
RTVSPropertyOp24
 70
     1
102
RTVSPropertyOp25
 70
     1
102
RTVSPropertyOp26
 70
     1
102
RTVSPropertyOp27
 70
     1
102
RTVSPropertyOp28
 70
     1
102
RTVSPropertyOp29
 70
     1
102
RTVSPropertyOp30
 70
     1
102
RTVSPropertyOp31
 70
     1
102
RTVSPropertyOp32
 70
     1
102
RTVSPropertyOp33
 70
     1
102
RTVSPropertyOp34
 70
     1
102
RTVSPropertyOp35
 70
     1
102
RTVSPropertyOp36
 70
     1
102
RTVSPropertyOp37
 70
     1
102
RTVSPropertyOp38
 70
     1
102
RTVSPropertyOp39
 70
     1
102
RTVSPropertyOp40
 70
     1
102
RTVSPropertyOp41
 70
     1
102
RTVSPropertyOp42
 70
     1
102
RTVSPropertyOp43
 70
     1
102
RTVSPropertyOp44
 70
     1
102
RTVSPropertyOp45
 70
     1
102
RTVSPropertyOp46
 70
     1
102
RTVSPropertyOp47
 70
     1
102
RTVSPropertyOp48
 70
     1
102
RTVSPropertyOp49
 70
     1
102
RTVSPropertyOp50
 70
     1
102
RTVSPropertyOp51
 70
     0
102
RTVSPropertyOp52
 70
     0
102
RTVSPropertyOp53
 70
     1
102
RTVSPropertyOp54
 70
     1
102
RTVSPropertyOp55
 70
     1
102
RTVSPropertyOp56
 70
     1
102
RTVSPropertyOp57
 70
     1
102
RTVSPost2010Prop28
280
     0
102
RTVSPost2010PropOp28
 70
     1
102
RTVSPost2010Prop29
280
     1
102
RTVSPost2010PropOp29
 70
     1
102
RTVSPost2010Prop30
280
     1
102
RTVSPost2010PropOp30
 70
     1
102
RTVSPost2010Prop31
280
     0
102
RTVSPost2010PropOp31
 70
     1
102
RTVSPost2010Prop32
280
     0
102
RTVSPost2010PropOp32
 70
     1
102
RTVSPost2010Prop33
280
     0
102
RTVSPost2010PropOp33
 70
     1
102
RTVSPost2010Prop34
280
     0
102
RTVSPost2010PropOp34
 70
     1
102
RTVSPost2010Prop35
280
     0
102
RTVSPost2010PropOp35
 70
     1
102
RTVSPost2010Prop36
280
     0
102
RTVSPost2010PropOp36
 70
     1
102
RTVSPost2010Prop37
 90
       50
102
RTVSPost2010PropOp37
 70
     1
102
RTVSPost2010Prop38
140
0.0
102
RTVSPost2010PropOp38
 70
     1
102
RTVSPost2010Prop39
140
1.0
102
RTVSPost2010PropOp39
 70
     1
102
RTVSPost2010Prop40
 90
        0
102
RTVSPost2010PropOp40
 70
     1
102
RTVSPost2010Prop41ColorIndex
 90
       18
102
RTVSPost2010Prop41ColorRGB
 90
        0
102
RTVSPost2010PropOp41
 70
     1
102
RTVSPost2010Prop42
 90
       50
102
RTVSPost2010PropOp42
 70
     1
102
RTVSPost2010Prop43
 90
        3
102
RTVSPost2010PropOp43
 70
     1
102
RTVSPost2010Prop44ColorIndex
 90
        5
102
RTVSPost2010Prop44ColorRGB
 90
      255
102
RTVSPost2010PropOp44
 70
     1
102
RTVSPost2010Prop45
280
     0
102
RTVSPost2010PropOp45
 70
     1
102
RTVSPost2010Prop46
 90
       50
102
RTVSPost2010PropOp46
 70
     1
102
RTVSPost2010Prop47
 90
       50
102
RTVSPost2010PropOp47
 70
     1
102
RTVSPost2010Prop48
 90
       50
102
RTVSPost2010PropOp48
 70
     1
102
RTVSPost2010Prop49
280
     0
102
RTVSPost2010PropOp49
 70
     1
102
RTVSPost2010Prop50
 90
       50
102
RTVSPost2010PropOp50
 70
     1
102
RTVSPost2010Prop51ColorIndex
 90
      256
102
RTVSPost2010Prop51ColorRGB
 90
-16777216
102
RTVSPost2010PropOp51
 70
     0
102
RTVSPost2010Prop52
140
1.0
102
RTVSPost2010PropOp52
 70
     0
102
RTVSPost2010Prop53
 90
        2
102
RTVSPost2010PropOp53
 70
     1
102
RTVSPost2010Prop54
  1
strokes_ogs.tif
102
RTVSPost2010PropOp54
 70
     1
102
RTVSPost2010Prop55
280
     0
102
RTVSPost2010PropOp55
 70
     1
102
RTVSPost2010Prop56
140
1.0
102
RTVSPost2010PropOp56
 70
     1
102
RTVSPost2010Prop57
140
1.0
102
RTVSPost2010PropOp57
 70
     1
  0
XRECORD
  5
2A8
102
{ACAD_REACTORS
330
2A7
102
}
330
2A7
100
AcDbXrecord
280
     1
102
RTVSPropertyOp0
 70
     1
102
RTVSPropertyOp1
 70
     1
102
RTVSPropertyOp2
 70
     1
102
RTVSPropertyOp3
 70
     1
102
RTVSPropertyOp4
 70
     1
102
RTVSPropertyOp5
 70
     1
102
RTVSPropertyOp6
 70
     1
102
RTVSPropertyOp7
 70
     1
102
RTVSPropertyOp8
 70
     1
102
RTVSPropertyOp9
 70
     1
102
RTVSPropertyOp10
 70
     1
102
RTVSPropertyOp11
 70
     1
102
RTVSPropertyOp12
 70
     1
102
RTVSPropertyOp13
 70
     1
102
RTVSPropertyOp14
 70
     1
102
RTVSPropertyOp15
 70
     1
102
RTVSPropertyOp16
 70
     1
102
RTVSPropertyOp17
 70
     1
102
RTVSPropertyOp18
 70
     1
102
RTVSPropertyOp19
 70
     1
102
RTVSPropertyOp20
 70
     1
102
RTVSPropertyOp21
 70
     1
102
RTVSPropertyOp22
 70
     1
102
RTVSPropertyOp23
 70
     1
102
RTVSPropertyOp24
 70
     1
102
RTVSPropertyOp25
 70
     1
102
RTVSPropertyOp26
 70
     1
102
RTVSPropertyOp27
 70
     1
102
RTVSPropertyOp28
 70
     1
102
RTVSPropertyOp29
 70
     1
102
RTVSPropertyOp30
 70
     1
102
RTVSPropertyOp31
 70
     1
102
RTVSPropertyOp32
 70
     1
102
RTVSPropertyOp33
 70
     1
102
RTVSPropertyOp34
 70
     1
102
RTVSPropertyOp35
 70
     1
102
RTVSPropertyOp36
 70
     1
102
RTVSPropertyOp37
 70
     1
102
RTVSPropertyOp38
 70
     1
102
RTVSPropertyOp39
 70
     1
102
RTVSPropertyOp40
 70
     1
102
RTVSPropertyOp41
 70
     1
102
RTVSPropertyOp42
 70
     1
102
RTVSPropertyOp43
 70
     1
102
RTVSPropertyOp44
 70
     1
102
RTVSPropertyOp45
 70
     1
102
RTVSPropertyOp46
 70
     1
102
RTVSPropertyOp47
 70
     1
102
RTVSPropertyOp48
 70
     1
102
RTVSPropertyOp49
 70
     1
102
RTVSPropertyOp50
 70
     1
102
RTVSPropertyOp51
 70
     0
102
RTVSPropertyOp52
 70
     0
102
RTVSPropertyOp53
 70
     1
102
RTVSPropertyOp54
 70
     1
102
RTVSPropertyOp55
 70
     1
102
RTVSPropertyOp56
 70
     1
102
RTVSPropertyOp57
 70
     1
102
RTVSPost2010Prop28
280
     0
102
RTVSPost2010PropOp28
 70
     1
102
RTVSPost2010Prop29
280
     1
102
RTVSPost2010PropOp29
 70
     1
102
RTVSPost2010Prop30
280
     1
102
RTVSPost2010PropOp30
 70
     1
102
RTVSPost2010Prop31
280
     0
102
RTVSPost2010PropOp31
 70
     1
102
RTVSPost2010Prop32
280
     0
102
RTVSPost2010PropOp32
 70
     1
102
RTVSPost2010Prop33
280
     0
102
RTVSPost2010PropOp33
 70
     1
102
RTVSPost2010Prop34
280
     0
102
RTVSPost2010PropOp34
 70
     1
102
RTVSPost2010Prop35
280
     0
102
RTVSPost2010PropOp35
 70
     1
102
RTVSPost2010Prop36
280
     0
102
RTVSPost2010PropOp36
 70
     1
102
RTVSPost2010Prop37
 90
       50
102
RTVSPost2010PropOp37
 70
     1
102
RTVSPost2010Prop38
140
0.0
102
RTVSPost2010PropOp38
 70
     1
102
RTVSPost2010Prop39
140
1.0
102
RTVSPost2010PropOp39
 70
     1
102
RTVSPost2010Prop40
 90
        0
102
RTVSPost2010PropOp40
 70
     1
102
RTVSPost2010Prop41ColorIndex
 90
       18
102
RTVSPost2010Prop41ColorRGB
 90
        0
102
RTVSPost2010PropOp41
 70
     1
102
RTVSPost2010Prop42
 90
       50
102
RTVSPost2010PropOp42
 70
     1
102
RTVSPost2010Prop43
 90
        3
102
RTVSPost2010PropOp43
 70
     1
102
RTVSPost2010Prop44ColorIndex
 90
        5
102
RTVSPost2010Prop44ColorRGB
 90
      255
102
RTVSPost2010PropOp44
 70
     1
102
RTVSPost2010Prop45
280
     0
102
RTVSPost2010PropOp45
 70
     1
102
RTVSPost2010Prop46
 90
       50
102
RTVSPost2010PropOp46
 70
     1
102
RTVSPost2010Prop47
 90
       50
102
RTVSPost2010PropOp47
 70
     1
102
RTVSPost2010Prop48
 90
       50
102
RTVSPost2010PropOp48
 70
     1
102
RTVSPost2010Prop49
280
     0
102
RTVSPost2010PropOp49
 70
     1
102
RTVSPost2010Prop50
 90
       50
102
RTVSPost2010PropOp50
 70
     1
102
RTVSPost2010Prop51ColorIndex
 90
      256
102
RTVSPost2010Prop51ColorRGB
 90
-16777216
102
RTVSPost2010PropOp51
 70
     0
102
RTVSPost2010Prop52
140
1.0
102
RTVSPost2010PropOp52
 70
     0
102
RTVSPost2010Prop53
 90
        2
102
RTVSPost2010PropOp53
 70
     1
102
RTVSPost2010Prop54
  1
strokes_ogs.tif
102
RTVSPost2010PropOp54
 70
     1
102
RTVSPost2010Prop55
280
     0
102
RTVSPost2010PropOp55
 70
     1
102
RTVSPost2010Prop56
140
1.0
102
RTVSPost2010PropOp56
 70
     1
102
RTVSPost2010Prop57
140
1.0
102
RTVSPost2010PropOp57
 70
     1
  0
XRECORD
  5
29C
102
{ACAD_REACTORS
330
29B
102
}
330
29B
100
AcDbXrecord
280
     1
102
RTVSPropertyOp0
 70
     1
102
RTVSPropertyOp1
 70
     1
102
RTVSPropertyOp2
 70
     1
102
RTVSPropertyOp3
 70
     1
102
RTVSPropertyOp4
 70
     1
102
RTVSPropertyOp5
 70
     1
102
RTVSPropertyOp6
 70
     1
102
RTVSPropertyOp7
 70
     1
102
RTVSPropertyOp8
 70
     1
102
RTVSPropertyOp9
 70
     1
102
RTVSPropertyOp10
 70
     1
102
RTVSPropertyOp11
 70
     1
102
RTVSPropertyOp12
 70
     1
102
RTVSPropertyOp13
 70
     1
102
RTVSPropertyOp14
 70
     1
102
RTVSPropertyOp15
 70
     1
102
RTVSPropertyOp16
 70
     1
102
RTVSPropertyOp17
 70
     1
102
RTVSPropertyOp18
 70
     1
102
RTVSPropertyOp19
 70
     1
102
RTVSPropertyOp20
 70
     1
102
RTVSPropertyOp21
 70
     1
102
RTVSPropertyOp22
 70
     1
102
RTVSPropertyOp23
 70
     1
102
RTVSPropertyOp24
 70
     1
102
RTVSPropertyOp25
 70
     1
102
RTVSPropertyOp26
 70
     1
102
RTVSPropertyOp27
 70
     1
102
RTVSPropertyOp28
 70
     1
102
RTVSPropertyOp29
 70
     1
102
RTVSPropertyOp30
 70
     1
102
RTVSPropertyOp31
 70
     1
102
RTVSPropertyOp32
 70
     1
102
RTVSPropertyOp33
 70
     1
102
RTVSPropertyOp34
 70
     1
102
RTVSPropertyOp35
 70
     1
102
RTVSPropertyOp36
 70
     1
102
RTVSPropertyOp37
 70
     1
102
RTVSPropertyOp38
 70
     1
102
RTVSPropertyOp39
 70
     1
102
RTVSPropertyOp40
 70
     1
102
RTVSPropertyOp41
 70
     1
102
RTVSPropertyOp42
 70
     1
102
RTVSPropertyOp43
 70
     1
102
RTVSPropertyOp44
 70
     1
102
RTVSPropertyOp45
 70
     1
102
RTVSPropertyOp46
 70
     1
102
RTVSPropertyOp47
 70
     1
102
RTVSPropertyOp48
 70
     1
102
RTVSPropertyOp49
 70
     1
102
RTVSPropertyOp50
 70
     1
102
RTVSPropertyOp51
 70
     0
102
RTVSPropertyOp52
 70
     0
102
RTVSPropertyOp53
 70
     1
102
RTVSPropertyOp54
 70
     1
102
RTVSPropertyOp55
 70
     1
102
RTVSPropertyOp56
 70
     1
102
RTVSPropertyOp57
 70
     1
102
RTVSPost2010Prop28
280
     0
102
RTVSPost2010PropOp28
 70
     1
102
RTVSPost2010Prop29
280
     1
102
RTVSPost2010PropOp29
 70
     1
102
RTVSPost2010Prop30
280
     1
102
RTVSPost2010PropOp30
 70
     1
102
RTVSPost2010Prop31
280
     0
102
RTVSPost2010PropOp31
 70
     1
102
RTVSPost2010Prop32
280
     0
102
RTVSPost2010PropOp32
 70
     1
102
RTVSPost2010Prop33
280
     0
102
RTVSPost2010PropOp33
 70
     1
102
RTVSPost2010Prop34
280
     0
102
RTVSPost2010PropOp34
 70
     1
102
RTVSPost2010Prop35
280
     0
102
RTVSPost2010PropOp35
 70
     1
102
RTVSPost2010Prop36
280
     0
102
RTVSPost2010PropOp36
 70
     1
102
RTVSPost2010Prop37
 90
       50
102
RTVSPost2010PropOp37
 70
     1
102
RTVSPost2010Prop38
140
0.0
102
RTVSPost2010PropOp38
 70
     1
102
RTVSPost2010Prop39
140
1.0
102
RTVSPost2010PropOp39
 70
     1
102
RTVSPost2010Prop40
 90
        0
102
RTVSPost2010PropOp40
 70
     1
102
RTVSPost2010Prop41ColorIndex
 90
       18
102
RTVSPost2010Prop41ColorRGB
 90
        0
102
RTVSPost2010PropOp41
 70
     1
102
RTVSPost2010Prop42
 90
       50
102
RTVSPost2010PropOp42
 70
     1
102
RTVSPost2010Prop43
 90
        3
102
RTVSPost2010PropOp43
 70
     1
102
RTVSPost2010Prop44ColorIndex
 90
        5
102
RTVSPost2010Prop44ColorRGB
 90
      255
102
RTVSPost2010PropOp44
 70
     1
102
RTVSPost2010Prop45
280
     0
102
RTVSPost2010PropOp45
 70
     1
102
RTVSPost2010Prop46
 90
       50
102
RTVSPost2010PropOp46
 70
     1
102
RTVSPost2010Prop47
 90
       50
102
RTVSPost2010PropOp47
 70
     1
102
RTVSPost2010Prop48
 90
       50
102
RTVSPost2010PropOp48
 70
     1
102
RTVSPost2010Prop49
280
     0
102
RTVSPost2010PropOp49
 70
     1
102
RTVSPost2010Prop50
 90
       50
102
RTVSPost2010PropOp50
 70
     1
102
RTVSPost2010Prop51ColorIndex
 90
      256
102
RTVSPost2010Prop51ColorRGB
 90
-16777216
102
RTVSPost2010PropOp51
 70
     0
102
RTVSPost2010Prop52
140
1.0
102
RTVSPost2010PropOp52
 70
     0
102
RTVSPost2010Prop53
 90
        2
102
RTVSPost2010PropOp53
 70
     1
102
RTVSPost2010Prop54
  1
strokes_ogs.tif
102
RTVSPost2010PropOp54
 70
     1
102
RTVSPost2010Prop55
280
     0
102
RTVSPost2010PropOp55
 70
     1
102
RTVSPost2010Prop56
140
1.0
102
RTVSPost2010PropOp56
 70
     1
102
RTVSPost2010Prop57
140
1.0
102
RTVSPost2010PropOp57
 70
     1
  0
XRECORD
  5
29E
102
{ACAD_REACTORS
330
29D
102
}
330
29D
100
AcDbXrecord
280
     1
102
RTVSPropertyOp0
 70
     1
102
RTVSPropertyOp1
 70
     1
102
RTVSPropertyOp2
 70
     1
102
RTVSPropertyOp3
 70
     1
102
RTVSPropertyOp4
 70
     1
102
RTVSPropertyOp5
 70
     1
102
RTVSPropertyOp6
 70
     1
102
RTVSPropertyOp7
 70
     1
102
RTVSPropertyOp8
 70
     1
102
RTVSPropertyOp9
 70
     1
102
RTVSPropertyOp10
 70
     1
102
RTVSPropertyOp11
 70
     1
102
RTVSPropertyOp12
 70
     1
102
RTVSPropertyOp13
 70
     1
102
RTVSPropertyOp14
 70
     1
102
RTVSPropertyOp15
 70
     1
102
RTVSPropertyOp16
 70
     1
102
RTVSPropertyOp17
 70
     1
102
RTVSPropertyOp18
 70
     1
102
RTVSPropertyOp19
 70
     1
102
RTVSPropertyOp20
 70
     1
102
RTVSPropertyOp21
 70
     1
102
RTVSPropertyOp22
 70
     1
102
RTVSPropertyOp23
 70
     1
102
RTVSPropertyOp24
 70
     1
102
RTVSPropertyOp25
 70
     1
102
RTVSPropertyOp26
 70
     1
102
RTVSPropertyOp27
 70
     1
102
RTVSPropertyOp28
 70
     1
102
RTVSPropertyOp29
 70
     1
102
RTVSPropertyOp30
 70
     1
102
RTVSPropertyOp31
 70
     1
102
RTVSPropertyOp32
 70
     1
102
RTVSPropertyOp33
 70
     1
102
RTVSPropertyOp34
 70
     1
102
RTVSPropertyOp35
 70
     1
102
RTVSPropertyOp36
 70
     1
102
RTVSPropertyOp37
 70
     1
102
RTVSPropertyOp38
 70
     1
102
RTVSPropertyOp39
 70
     1
102
RTVSPropertyOp40
 70
     1
102
RTVSPropertyOp41
 70
     1
102
RTVSPropertyOp42
 70
     1
102
RTVSPropertyOp43
 70
     1
102
RTVSPropertyOp44
 70
     1
102
RTVSPropertyOp45
 70
     1
102
RTVSPropertyOp46
 70
     1
102
RTVSPropertyOp47
 70
     1
102
RTVSPropertyOp48
 70
     1
102
RTVSPropertyOp49
 70
     1
102
RTVSPropertyOp50
 70
     1
102
RTVSPropertyOp51
 70
     0
102
RTVSPropertyOp52
 70
     0
102
RTVSPropertyOp53
 70
     1
102
RTVSPropertyOp54
 70
     1
102
RTVSPropertyOp55
 70
     1
102
RTVSPropertyOp56
 70
     1
102
RTVSPropertyOp57
 70
     1
102
RTVSPost2010Prop28
280
     0
102
RTVSPost2010PropOp28
 70
     1
102
RTVSPost2010Prop29
280
     1
102
RTVSPost2010PropOp29
 70
     1
102
RTVSPost2010Prop30
280
     1
102
RTVSPost2010PropOp30
 70
     1
102
RTVSPost2010Prop31
280
     0
102
RTVSPost2010PropOp31
 70
     1
102
RTVSPost2010Prop32
280
     0
102
RTVSPost2010PropOp32
 70
     1
102
RTVSPost2010Prop33
280
     0
102
RTVSPost2010PropOp33
 70
     1
102
RTVSPost2010Prop34
280
     0
102
RTVSPost2010PropOp34
 70
     1
102
RTVSPost2010Prop35
280
     0
102
RTVSPost2010PropOp35
 70
     1
102
RTVSPost2010Prop36
280
     0
102
RTVSPost2010PropOp36
 70
     1
102
RTVSPost2010Prop37
 90
       50
102
RTVSPost2010PropOp37
 70
     1
102
RTVSPost2010Prop38
140
0.0
102
RTVSPost2010PropOp38
 70
     1
102
RTVSPost2010Prop39
140
1.0
102
RTVSPost2010PropOp39
 70
     1
102
RTVSPost2010Prop40
 90
        0
102
RTVSPost2010PropOp40
 70
     1
102
RTVSPost2010Prop41ColorIndex
 90
       18
102
RTVSPost2010Prop41ColorRGB
 90
        0
102
RTVSPost2010PropOp41
 70
     1
102
RTVSPost2010Prop42
 90
       50
102
RTVSPost2010PropOp42
 70
     1
102
RTVSPost2010Prop43
 90
        3
102
RTVSPost2010PropOp43
 70
     1
102
RTVSPost2010Prop44ColorIndex
 90
        5
102
RTVSPost2010Prop44ColorRGB
 90
      255
102
RTVSPost2010PropOp44
 70
     1
102
RTVSPost2010Prop45
280
     0
102
RTVSPost2010PropOp45
 70
     1
102
RTVSPost2010Prop46
 90
       50
102
RTVSPost2010PropOp46
 70
     1
102
RTVSPost2010Prop47
 90
       50
102
RTVSPost2010PropOp47
 70
     1
102
RTVSPost2010Prop48
 90
       50
102
RTVSPost2010PropOp48
 70
     1
102
RTVSPost2010Prop49
280
     0
102
RTVSPost2010PropOp49
 70
     1
102
RTVSPost2010Prop50
 90
       50
102
RTVSPost2010PropOp50
 70
     1
102
RTVSPost2010Prop51ColorIndex
 90
      256
102
RTVSPost2010Prop51ColorRGB
 90
-16777216
102
RTVSPost2010PropOp51
 70
     0
102
RTVSPost2010Prop52
140
1.0
102
RTVSPost2010PropOp52
 70
     0
102
RTVSPost2010Prop53
 90
        2
102
RTVSPost2010PropOp53
 70
     1
102
RTVSPost2010Prop54
  1
strokes_ogs.tif
102
RTVSPost2010PropOp54
 70
     1
102
RTVSPost2010Prop55
280
     0
102
RTVSPost2010PropOp55
 70
     1
102
RTVSPost2010Prop56
140
1.0
102
RTVSPost2010PropOp56
 70
     1
102
RTVSPost2010Prop57
140
1.0
102
RTVSPost2010PropOp57
 70
     1
  0
XRECORD
  5
2AE
102
{ACAD_REACTORS
330
2AD
102
}
330
2AD
100
AcDbXrecord
280
     1
102
RTVSPropertyOp0
 70
     0
102
RTVSPropertyOp1
 70
     0
102
RTVSPropertyOp2
 70
     0
102
RTVSPropertyOp3
 70
     0
102
RTVSPropertyOp4
 70
     0
102
RTVSPropertyOp5
 70
     0
102
RTVSPropertyOp6
 70
     0
102
RTVSPropertyOp7
 70
     0
102
RTVSPropertyOp8
 70
     0
102
RTVSPropertyOp9
 70
     0
102
RTVSPropertyOp10
 70
     0
102
RTVSPropertyOp11
 70
     0
102
RTVSPropertyOp12
 70
     0
102
RTVSPropertyOp13
 70
     0
102
RTVSPropertyOp14
 70
     2
102
RTVSPropertyOp15
 70
     0
102
RTVSPropertyOp16
 70
     0
102
RTVSPropertyOp17
 70
     0
102
RTVSPropertyOp18
 70
     0
102
RTVSPropertyOp19
 70
     0
102
RTVSPropertyOp20
 70
     0
102
RTVSPropertyOp21
 70
     0
102
RTVSPropertyOp22
 70
     0
102
RTVSPropertyOp23
 70
     0
102
RTVSPropertyOp24
 70
     0
102
RTVSPropertyOp25
 70
     0
102
RTVSPropertyOp26
 70
     0
102
RTVSPropertyOp27
 70
     0
102
RTVSPropertyOp28
 70
     0
102
RTVSPropertyOp29
 70
     0
102
RTVSPropertyOp30
 70
     0
102
RTVSPropertyOp31
 70
     0
102
RTVSPropertyOp32
 70
     0
102
RTVSPropertyOp33
 70
     0
102
RTVSPropertyOp34
 70
     0
102
RTVSPropertyOp35
 70
     0
102
RTVSPropertyOp36
 70
     0
102
RTVSPropertyOp37
 70
     0
102
RTVSPropertyOp38
 70
     0
102
RTVSPropertyOp39
 70
     0
102
RTVSPropertyOp40
 70
     0
102
RTVSPropertyOp41
 70
     0
102
RTVSPropertyOp42
 70
     0
102
RTVSPropertyOp43
 70
     0
102
RTVSPropertyOp44
 70
     0
102
RTVSPropertyOp45
 70
     0
102
RTVSPropertyOp46
 70
     0
102
RTVSPropertyOp47
 70
     0
102
RTVSPropertyOp48
 70
     0
102
RTVSPropertyOp49
 70
     0
102
RTVSPropertyOp50
 70
     0
102
RTVSPropertyOp51
 70
     0
102
RTVSPropertyOp52
 70
     0
102
RTVSPropertyOp53
 70
     0
102
RTVSPropertyOp54
 70
     0
102
RTVSPropertyOp55
 70
     0
102
RTVSPropertyOp56
 70
     0
102
RTVSPropertyOp57
 70
     0
102
RTVSPost2010Prop28
280
     0
102
RTVSPost2010PropOp28
 70
     0
102
RTVSPost2010Prop29
280
     1
102
RTVSPost2010PropOp29
 70
     0
102
RTVSPost2010Prop30
280
     1
102
RTVSPost2010PropOp30
 70
     0
102
RTVSPost2010Prop31
280
     0
102
RTVSPost2010PropOp31
 70
     0
102
RTVSPost2010Prop32
280
     0
102
RTVSPost2010PropOp32
 70
     0
102
RTVSPost2010Prop33
280
     0
102
RTVSPost2010PropOp33
 70
     0
102
RTVSPost2010Prop34
280
     0
102
RTVSPost2010PropOp34
 70
     0
102
RTVSPost2010Prop35
280
     0
102
RTVSPost2010PropOp35
 70
     0
102
RTVSPost2010Prop36
280
     0
102
RTVSPost2010PropOp36
 70
     0
102
RTVSPost2010Prop37
 90
       50
102
RTVSPost2010PropOp37
 70
     0
102
RTVSPost2010Prop38
140
0.0
102
RTVSPost2010PropOp38
 70
     0
102
RTVSPost2010Prop39
140
1.0
102
RTVSPost2010PropOp39
 70
     0
102
RTVSPost2010Prop40
 90
        0
102
RTVSPost2010PropOp40
 70
     0
102
RTVSPost2010Prop41ColorIndex
 90
       18
102
RTVSPost2010Prop41ColorRGB
 90
        0
102
RTVSPost2010PropOp41
 70
     0
102
RTVSPost2010Prop42
 90
       50
102
RTVSPost2010PropOp42
 70
     0
102
RTVSPost2010Prop43
 90
        3
102
RTVSPost2010PropOp43
 70
     0
102
RTVSPost2010Prop44ColorIndex
 90
        5
102
RTVSPost2010Prop44ColorRGB
 90
      255
102
RTVSPost2010PropOp44
 70
     0
102
RTVSPost2010Prop45
280
     0
102
RTVSPost2010PropOp45
 70
     0
102
RTVSPost2010Prop46
 90
       50
102
RTVSPost2010PropOp46
 70
     0
102
RTVSPost2010Prop47
 90
       50
102
RTVSPost2010PropOp47
 70
     0
102
RTVSPost2010Prop48
 90
       50
102
RTVSPost2010PropOp48
 70
     0
102
RTVSPost2010Prop49
280
     0
102
RTVSPost2010PropOp49
 70
     0
102
RTVSPost2010Prop50
 90
       50
102
RTVSPost2010PropOp50
 70
     0
102
RTVSPost2010Prop51ColorIndex
 90
      256
102
RTVSPost2010Prop51ColorRGB
 90
-16777216
102
RTVSPost2010PropOp51
 70
     0
102
RTVSPost2010Prop52
140
1.0
102
RTVSPost2010PropOp52
 70
     0
102
RTVSPost2010Prop53
 90
        2
102
RTVSPost2010PropOp53
 70
     0
102
RTVSPost2010Prop54
  1
strokes_ogs.tif
102
RTVSPost2010PropOp54
 70
     0
102
RTVSPost2010Prop55
280
     0
102
RTVSPost2010PropOp55
 70
     0
102
RTVSPost2010Prop56
140
1.0
102
RTVSPost2010PropOp56
 70
     0
102
RTVSPost2010Prop57
140
1.0
102
RTVSPost2010PropOp57
 70
     0
  0
XRECORD
  5
2A6
102
{ACAD_REACTORS
330
2A5
102
}
330
2A5
100
AcDbXrecord
280
     1
102
RTVSPropertyOp0
 70
     1
102
RTVSPropertyOp1
 70
     1
102
RTVSPropertyOp2
 70
     1
102
RTVSPropertyOp3
 70
     1
102
RTVSPropertyOp4
 70
     1
102
RTVSPropertyOp5
 70
     1
102
RTVSPropertyOp6
 70
     1
102
RTVSPropertyOp7
 70
     1
102
RTVSPropertyOp8
 70
     1
102
RTVSPropertyOp9
 70
     1
102
RTVSPropertyOp10
 70
     1
102
RTVSPropertyOp11
 70
     1
102
RTVSPropertyOp12
 70
     1
102
RTVSPropertyOp13
 70
     1
102
RTVSPropertyOp14
 70
     1
102
RTVSPropertyOp15
 70
     1
102
RTVSPropertyOp16
 70
     1
102
RTVSPropertyOp17
 70
     1
102
RTVSPropertyOp18
 70
     1
102
RTVSPropertyOp19
 70
     1
102
RTVSPropertyOp20
 70
     1
102
RTVSPropertyOp21
 70
     1
102
RTVSPropertyOp22
 70
     1
102
RTVSPropertyOp23
 70
     1
102
RTVSPropertyOp24
 70
     1
102
RTVSPropertyOp25
 70
     1
102
RTVSPropertyOp26
 70
     1
102
RTVSPropertyOp27
 70
     1
102
RTVSPropertyOp28
 70
     1
102
RTVSPropertyOp29
 70
     1
102
RTVSPropertyOp30
 70
     1
102
RTVSPropertyOp31
 70
     1
102
RTVSPropertyOp32
 70
     1
102
RTVSPropertyOp33
 70
     1
102
RTVSPropertyOp34
 70
     1
102
RTVSPropertyOp35
 70
     1
102
RTVSPropertyOp36
 70
     1
102
RTVSPropertyOp37
 70
     1
102
RTVSPropertyOp38
 70
     1
102
RTVSPropertyOp39
 70
     1
102
RTVSPropertyOp40
 70
     1
102
RTVSPropertyOp41
 70
     1
102
RTVSPropertyOp42
 70
     1
102
RTVSPropertyOp43
 70
     1
102
RTVSPropertyOp44
 70
     1
102
RTVSPropertyOp45
 70
     1
102
RTVSPropertyOp46
 70
     1
102
RTVSPropertyOp47
 70
     1
102
RTVSPropertyOp48
 70
     1
102
RTVSPropertyOp49
 70
     1
102
RTVSPropertyOp50
 70
     1
102
RTVSPropertyOp51
 70
     0
102
RTVSPropertyOp52
 70
     0
102
RTVSPropertyOp53
 70
     1
102
RTVSPropertyOp54
 70
     1
102
RTVSPropertyOp55
 70
     1
102
RTVSPropertyOp56
 70
     1
102
RTVSPropertyOp57
 70
     1
102
RTVSPost2010Prop28
280
     0
102
RTVSPost2010PropOp28
 70
     1
102
RTVSPost2010Prop29
280
     1
102
RTVSPost2010PropOp29
 70
     1
102
RTVSPost2010Prop30
280
     1
102
RTVSPost2010PropOp30
 70
     1
102
RTVSPost2010Prop31
280
     0
102
RTVSPost2010PropOp31
 70
     1
102
RTVSPost2010Prop32
280
     0
102
RTVSPost2010PropOp32
 70
     1
102
RTVSPost2010Prop33
280
     0
102
RTVSPost2010PropOp33
 70
     1
102
RTVSPost2010Prop34
280
     0
102
RTVSPost2010PropOp34
 70
     1
102
RTVSPost2010Prop35
280
     0
102
RTVSPost2010PropOp35
 70
     1
102
RTVSPost2010Prop36
280
     0
102
RTVSPost2010PropOp36
 70
     1
102
RTVSPost2010Prop37
 90
       50
102
RTVSPost2010PropOp37
 70
     1
102
RTVSPost2010Prop38
140
0.0
102
RTVSPost2010PropOp38
 70
     1
102
RTVSPost2010Prop39
140
1.0
102
RTVSPost2010PropOp39
 70
     1
102
RTVSPost2010Prop40
 90
        0
102
RTVSPost2010PropOp40
 70
     1
102
RTVSPost2010Prop41ColorIndex
 90
       18
102
RTVSPost2010Prop41ColorRGB
 90
        0
102
RTVSPost2010PropOp41
 70
     1
102
RTVSPost2010Prop42
 90
       50
102
RTVSPost2010PropOp42
 70
     1
102
RTVSPost2010Prop43
 90
        3
102
RTVSPost2010PropOp43
 70
     1
102
RTVSPost2010Prop44ColorIndex
 90
        5
102
RTVSPost2010Prop44ColorRGB
 90
      255
102
RTVSPost2010PropOp44
 70
     1
102
RTVSPost2010Prop45
280
     0
102
RTVSPost2010PropOp45
 70
     1
102
RTVSPost2010Prop46
 90
       50
102
RTVSPost2010PropOp46
 70
     1
102
RTVSPost2010Prop47
 90
       50
102
RTVSPost2010PropOp47
 70
     1
102
RTVSPost2010Prop48
 90
       50
102
RTVSPost2010PropOp48
 70
     1
102
RTVSPost2010Prop49
280
     0
102
RTVSPost2010PropOp49
 70
     1
102
RTVSPost2010Prop50
 90
       50
102
RTVSPost2010PropOp50
 70
     1
102
RTVSPost2010Prop51ColorIndex
 90
      256
102
RTVSPost2010Prop51ColorRGB
 90
-16777216
102
RTVSPost2010PropOp51
 70
     0
102
RTVSPost2010Prop52
140
1.0
102
RTVSPost2010PropOp52
 70
     0
102
RTVSPost2010Prop53
 90
        2
102
RTVSPost2010PropOp53
 70
     1
102
RTVSPost2010Prop54
  1
strokes_ogs.tif
102
RTVSPost2010PropOp54
 70
     1
102
RTVSPost2010Prop55
280
     0
102
RTVSPost2010PropOp55
 70
     1
102
RTVSPost2010Prop56
140
1.0
102
RTVSPost2010PropOp56
 70
     1
102
RTVSPost2010Prop57
140
1.0
102
RTVSPost2010PropOp57
 70
     1
  0
XRECORD
  5
28A
102
{ACAD_REACTORS
330
289
102
}
330
289
100
AcDbXrecord
280
     1
102
RTVSPropertyOp0
 70
     1
102
RTVSPropertyOp1
 70
     1
102
RTVSPropertyOp2
 70
     1
102
RTVSPropertyOp3
 70
     1
102
RTVSPropertyOp4
 70
     1
102
RTVSPropertyOp5
 70
     1
102
RTVSPropertyOp6
 70
     1
102
RTVSPropertyOp7
 70
     1
102
RTVSPropertyOp8
 70
     1
102
RTVSPropertyOp9
 70
     1
102
RTVSPropertyOp10
 70
     1
102
RTVSPropertyOp11
 70
     1
102
RTVSPropertyOp12
 70
     1
102
RTVSPropertyOp13
 70
     1
102
RTVSPropertyOp14
 70
     1
102
RTVSPropertyOp15
 70
     1
102
RTVSPropertyOp16
 70
     1
102
RTVSPropertyOp17
 70
     1
102
RTVSPropertyOp18
 70
     1
102
RTVSPropertyOp19
 70
     1
102
RTVSPropertyOp20
 70
     1
102
RTVSPropertyOp21
 70
     1
102
RTVSPropertyOp22
 70
     1
102
RTVSPropertyOp23
 70
     1
102
RTVSPropertyOp24
 70
     1
102
RTVSPropertyOp25
 70
     1
102
RTVSPropertyOp26
 70
     1
102
RTVSPropertyOp27
 70
     1
102
RTVSPropertyOp28
 70
     1
102
RTVSPropertyOp29
 70
     1
102
RTVSPropertyOp30
 70
     1
102
RTVSPropertyOp31
 70
     1
102
RTVSPropertyOp32
 70
     1
102
RTVSPropertyOp33
 70
     1
102
RTVSPropertyOp34
 70
     1
102
RTVSPropertyOp35
 70
     1
102
RTVSPropertyOp36
 70
     1
102
RTVSPropertyOp37
 70
     1
102
RTVSPropertyOp38
 70
     1
102
RTVSPropertyOp39
 70
     1
102
RTVSPropertyOp40
 70
     1
102
RTVSPropertyOp41
 70
     1
102
RTVSPropertyOp42
 70
     1
102
RTVSPropertyOp43
 70
     1
102
RTVSPropertyOp44
 70
     1
102
RTVSPropertyOp45
 70
     1
102
RTVSPropertyOp46
 70
     1
102
RTVSPropertyOp47
 70
     1
102
RTVSPropertyOp48
 70
     1
102
RTVSPropertyOp49
 70
     1
102
RTVSPropertyOp50
 70
     1
102
RTVSPropertyOp51
 70
     0
102
RTVSPropertyOp52
 70
     0
102
RTVSPropertyOp53
 70
     1
102
RTVSPropertyOp54
 70
     1
102
RTVSPropertyOp55
 70
     1
102
RTVSPropertyOp56
 70
     1
102
RTVSPropertyOp57
 70
     1
102
RTVSPost2010Prop28
280
     0
102
RTVSPost2010PropOp28
 70
     1
102
RTVSPost2010Prop29
280
     1
102
RTVSPost2010PropOp29
 70
     1
102
RTVSPost2010Prop30
280
     1
102
RTVSPost2010PropOp30
 70
     1
102
RTVSPost2010Prop31
280
     0
102
RTVSPost2010PropOp31
 70
     1
102
RTVSPost2010Prop32
280
     0
102
RTVSPost2010PropOp32
 70
     1
102
RTVSPost2010Prop33
280
     0
102
RTVSPost2010PropOp33
 70
     1
102
RTVSPost2010Prop34
280
     0
102
RTVSPost2010PropOp34
 70
     1
102
RTVSPost2010Prop35
280
     0
102
RTVSPost2010PropOp35
 70
     1
102
RTVSPost2010Prop36
280
     0
102
RTVSPost2010PropOp36
 70
     1
102
RTVSPost2010Prop37
 90
       50
102
RTVSPost2010PropOp37
 70
     1
102
RTVSPost2010Prop38
140
0.0
102
RTVSPost2010PropOp38
 70
     1
102
RTVSPost2010Prop39
140
1.0
102
RTVSPost2010PropOp39
 70
     1
102
RTVSPost2010Prop40
 90
        0
102
RTVSPost2010PropOp40
 70
     1
102
RTVSPost2010Prop41ColorIndex
 90
       18
102
RTVSPost2010Prop41ColorRGB
 90
        0
102
RTVSPost2010PropOp41
 70
     1
102
RTVSPost2010Prop42
 90
       50
102
RTVSPost2010PropOp42
 70
     1
102
RTVSPost2010Prop43
 90
        3
102
RTVSPost2010PropOp43
 70
     1
102
RTVSPost2010Prop44ColorIndex
 90
        5
102
RTVSPost2010Prop44ColorRGB
 90
      255
102
RTVSPost2010PropOp44
 70
     1
102
RTVSPost2010Prop45
280
     0
102
RTVSPost2010PropOp45
 70
     1
102
RTVSPost2010Prop46
 90
       50
102
RTVSPost2010PropOp46
 70
     1
102
RTVSPost2010Prop47
 90
       50
102
RTVSPost2010PropOp47
 70
     1
102
RTVSPost2010Prop48
 90
       50
102
RTVSPost2010PropOp48
 70
     1
102
RTVSPost2010Prop49
280
     0
102
RTVSPost2010PropOp49
 70
     1
102
RTVSPost2010Prop50
 90
       50
102
RTVSPost2010PropOp50
 70
     1
102
RTVSPost2010Prop51ColorIndex
 90
      256
102
RTVSPost2010Prop51ColorRGB
 90
-16777216
102
RTVSPost2010PropOp51
 70
     0
102
RTVSPost2010Prop52
140
1.0
102
RTVSPost2010PropOp52
 70
     0
102
RTVSPost2010Prop53
 90
        2
102
RTVSPost2010PropOp53
 70
     1
102
RTVSPost2010Prop54
  1
strokes_ogs.tif
102
RTVSPost2010PropOp54
 70
     1
102
RTVSPost2010Prop55
280
     0
102
RTVSPost2010PropOp55
 70
     1
102
RTVSPost2010Prop56
140
1.0
102
RTVSPost2010PropOp56
 70
     1
102
RTVSPost2010Prop57
140
1.0
102
RTVSPost2010PropOp57
 70
     1
  0
XRECORD
  5
28C
102
{ACAD_REACTORS
330
28B
102
}
330
28B
100
AcDbXrecord
280
     1
102
RTVSPropertyOp0
 70
     1
102
RTVSPropertyOp1
 70
     1
102
RTVSPropertyOp2
 70
     1
102
RTVSPropertyOp3
 70
     1
102
RTVSPropertyOp4
 70
     1
102
RTVSPropertyOp5
 70
     1
102
RTVSPropertyOp6
 70
     1
102
RTVSPropertyOp7
 70
     1
102
RTVSPropertyOp8
 70
     1
102
RTVSPropertyOp9
 70
     1
102
RTVSPropertyOp10
 70
     1
102
RTVSPropertyOp11
 70
     1
102
RTVSPropertyOp12
 70
     1
102
RTVSPropertyOp13
 70
     1
102
RTVSPropertyOp14
 70
     1
102
RTVSPropertyOp15
 70
     1
102
RTVSPropertyOp16
 70
     1
102
RTVSPropertyOp17
 70
     1
102
RTVSPropertyOp18
 70
     1
102
RTVSPropertyOp19
 70
     1
102
RTVSPropertyOp20
 70
     1
102
RTVSPropertyOp21
 70
     1
102
RTVSPropertyOp22
 70
     1
102
RTVSPropertyOp23
 70
     1
102
RTVSPropertyOp24
 70
     1
102
RTVSPropertyOp25
 70
     1
102
RTVSPropertyOp26
 70
     1
102
RTVSPropertyOp27
 70
     1
102
RTVSPropertyOp28
 70
     1
102
RTVSPropertyOp29
 70
     1
102
RTVSPropertyOp30
 70
     1
102
RTVSPropertyOp31
 70
     1
102
RTVSPropertyOp32
 70
     1
102
RTVSPropertyOp33
 70
     1
102
RTVSPropertyOp34
 70
     1
102
RTVSPropertyOp35
 70
     1
102
RTVSPropertyOp36
 70
     1
102
RTVSPropertyOp37
 70
     1
102
RTVSPropertyOp38
 70
     1
102
RTVSPropertyOp39
 70
     1
102
RTVSPropertyOp40
 70
     1
102
RTVSPropertyOp41
 70
     1
102
RTVSPropertyOp42
 70
     1
102
RTVSPropertyOp43
 70
     1
102
RTVSPropertyOp44
 70
     1
102
RTVSPropertyOp45
 70
     1
102
RTVSPropertyOp46
 70
     1
102
RTVSPropertyOp47
 70
     1
102
RTVSPropertyOp48
 70
     1
102
RTVSPropertyOp49
 70
     1
102
RTVSPropertyOp50
 70
     1
102
RTVSPropertyOp51
 70
     0
102
RTVSPropertyOp52
 70
     0
102
RTVSPropertyOp53
 70
     1
102
RTVSPropertyOp54
 70
     1
102
RTVSPropertyOp55
 70
     1
102
RTVSPropertyOp56
 70
     1
102
RTVSPropertyOp57
 70
     1
102
RTVSPost2010Prop28
280
     0
102
RTVSPost2010PropOp28
 70
     1
102
RTVSPost2010Prop29
280
     1
102
RTVSPost2010PropOp29
 70
     1
102
RTVSPost2010Prop30
280
     1
102
RTVSPost2010PropOp30
 70
     1
102
RTVSPost2010Prop31
280
     0
102
RTVSPost2010PropOp31
 70
     1
102
RTVSPost2010Prop32
280
     0
102
RTVSPost2010PropOp32
 70
     1
102
RTVSPost2010Prop33
280
     0
102
RTVSPost2010PropOp33
 70
     1
102
RTVSPost2010Prop34
280
     0
102
RTVSPost2010PropOp34
 70
     1
102
RTVSPost2010Prop35
280
     0
102
RTVSPost2010PropOp35
 70
     1
102
RTVSPost2010Prop36
280
     0
102
RTVSPost2010PropOp36
 70
     1
102
RTVSPost2010Prop37
 90
       50
102
RTVSPost2010PropOp37
 70
     1
102
RTVSPost2010Prop38
140
0.0
102
RTVSPost2010PropOp38
 70
     1
102
RTVSPost2010Prop39
140
1.0
102
RTVSPost2010PropOp39
 70
     1
102
RTVSPost2010Prop40
 90
        0
102
RTVSPost2010PropOp40
 70
     1
102
RTVSPost2010Prop41ColorIndex
 90
       18
102
RTVSPost2010Prop41ColorRGB
 90
        0
102
RTVSPost2010PropOp41
 70
     1
102
RTVSPost2010Prop42
 90
       50
102
RTVSPost2010PropOp42
 70
     1
102
RTVSPost2010Prop43
 90
        3
102
RTVSPost2010PropOp43
 70
     1
102
RTVSPost2010Prop44ColorIndex
 90
        5
102
RTVSPost2010Prop44ColorRGB
 90
      255
102
RTVSPost2010PropOp44
 70
     1
102
RTVSPost2010Prop45
280
     0
102
RTVSPost2010PropOp45
 70
     1
102
RTVSPost2010Prop46
 90
       50
102
RTVSPost2010PropOp46
 70
     1
102
RTVSPost2010Prop47
 90
       50
102
RTVSPost2010PropOp47
 70
     1
102
RTVSPost2010Prop48
 90
       50
102
RTVSPost2010PropOp48
 70
     1
102
RTVSPost2010Prop49
280
     0
102
RTVSPost2010PropOp49
 70
     1
102
RTVSPost2010Prop50
 90
       50
102
RTVSPost2010PropOp50
 70
     1
102
RTVSPost2010Prop51ColorIndex
 90
      256
102
RTVSPost2010Prop51ColorRGB
 90
-16777216
102
RTVSPost2010PropOp51
 70
     0
102
RTVSPost2010Prop52
140
1.0
102
RTVSPost2010PropOp52
 70
     0
102
RTVSPost2010Prop53
 90
        2
102
RTVSPost2010PropOp53
 70
     1
102
RTVSPost2010Prop54
  1
strokes_ogs.tif
102
RTVSPost2010PropOp54
 70
     1
102
RTVSPost2010Prop55
280
     0
102
RTVSPost2010PropOp55
 70
     1
102
RTVSPost2010Prop56
140
1.0
102
RTVSPost2010PropOp56
 70
     1
102
RTVSPost2010Prop57
140
1.0
102
RTVSPost2010PropOp57
 70
     1
  0
XRECORD
  5
28E
102
{ACAD_REACTORS
330
28D
102
}
330
28D
100
AcDbXrecord
280
     1
102
RTVSPropertyOp0
 70
     1
102
RTVSPropertyOp1
 70
     1
102
RTVSPropertyOp2
 70
     1
102
RTVSPropertyOp3
 70
     1
102
RTVSPropertyOp4
 70
     1
102
RTVSPropertyOp5
 70
     1
102
RTVSPropertyOp6
 70
     1
102
RTVSPropertyOp7
 70
     1
102
RTVSPropertyOp8
 70
     1
102
RTVSPropertyOp9
 70
     1
102
RTVSPropertyOp10
 70
     1
102
RTVSPropertyOp11
 70
     1
102
RTVSPropertyOp12
 70
     1
102
RTVSPropertyOp13
 70
     1
102
RTVSPropertyOp14
 70
     1
102
RTVSPropertyOp15
 70
     1
102
RTVSPropertyOp16
 70
     1
102
RTVSPropertyOp17
 70
     1
102
RTVSPropertyOp18
 70
     1
102
RTVSPropertyOp19
 70
     1
102
RTVSPropertyOp20
 70
     1
102
RTVSPropertyOp21
 70
     1
102
RTVSPropertyOp22
 70
     1
102
RTVSPropertyOp23
 70
     1
102
RTVSPropertyOp24
 70
     1
102
RTVSPropertyOp25
 70
     1
102
RTVSPropertyOp26
 70
     1
102
RTVSPropertyOp27
 70
     1
102
RTVSPropertyOp28
 70
     1
102
RTVSPropertyOp29
 70
     1
102
RTVSPropertyOp30
 70
     1
102
RTVSPropertyOp31
 70
     1
102
RTVSPropertyOp32
 70
     1
102
RTVSPropertyOp33
 70
     1
102
RTVSPropertyOp34
 70
     1
102
RTVSPropertyOp35
 70
     1
102
RTVSPropertyOp36
 70
     1
102
RTVSPropertyOp37
 70
     1
102
RTVSPropertyOp38
 70
     1
102
RTVSPropertyOp39
 70
     1
102
RTVSPropertyOp40
 70
     1
102
RTVSPropertyOp41
 70
     1
102
RTVSPropertyOp42
 70
     1
102
RTVSPropertyOp43
 70
     1
102
RTVSPropertyOp44
 70
     1
102
RTVSPropertyOp45
 70
     1
102
RTVSPropertyOp46
 70
     1
102
RTVSPropertyOp47
 70
     1
102
RTVSPropertyOp48
 70
     1
102
RTVSPropertyOp49
 70
     1
102
RTVSPropertyOp50
 70
     1
102
RTVSPropertyOp51
 70
     0
102
RTVSPropertyOp52
 70
     0
102
RTVSPropertyOp53
 70
     1
102
RTVSPropertyOp54
 70
     1
102
RTVSPropertyOp55
 70
     1
102
RTVSPropertyOp56
 70
     1
102
RTVSPropertyOp57
 70
     1
102
RTVSPost2010Prop28
280
     0
102
RTVSPost2010PropOp28
 70
     1
102
RTVSPost2010Prop29
280
     1
102
RTVSPost2010PropOp29
 70
     1
102
RTVSPost2010Prop30
280
     1
102
RTVSPost2010PropOp30
 70
     1
102
RTVSPost2010Prop31
280
     0
102
RTVSPost2010PropOp31
 70
     1
102
RTVSPost2010Prop32
280
     0
102
RTVSPost2010PropOp32
 70
     1
102
RTVSPost2010Prop33
280
     0
102
RTVSPost2010PropOp33
 70
     1
102
RTVSPost2010Prop34
280
     0
102
RTVSPost2010PropOp34
 70
     1
102
RTVSPost2010Prop35
280
     0
102
RTVSPost2010PropOp35
 70
     1
102
RTVSPost2010Prop36
280
     0
102
RTVSPost2010PropOp36
 70
     1
102
RTVSPost2010Prop37
 90
       50
102
RTVSPost2010PropOp37
 70
     1
102
RTVSPost2010Prop38
140
0.0
102
RTVSPost2010PropOp38
 70
     1
102
RTVSPost2010Prop39
140
1.0
102
RTVSPost2010PropOp39
 70
     1
102
RTVSPost2010Prop40
 90
        0
102
RTVSPost2010PropOp40
 70
     1
102
RTVSPost2010Prop41ColorIndex
 90
       18
102
RTVSPost2010Prop41ColorRGB
 90
        0
102
RTVSPost2010PropOp41
 70
     1
102
RTVSPost2010Prop42
 90
       50
102
RTVSPost2010PropOp42
 70
     1
102
RTVSPost2010Prop43
 90
        3
102
RTVSPost2010PropOp43
 70
     1
102
RTVSPost2010Prop44ColorIndex
 90
        5
102
RTVSPost2010Prop44ColorRGB
 90
      255
102
RTVSPost2010PropOp44
 70
     1
102
RTVSPost2010Prop45
280
     0
102
RTVSPost2010PropOp45
 70
     1
102
RTVSPost2010Prop46
 90
       50
102
RTVSPost2010PropOp46
 70
     1
102
RTVSPost2010Prop47
 90
       50
102
RTVSPost2010PropOp47
 70
     1
102
RTVSPost2010Prop48
 90
       50
102
RTVSPost2010PropOp48
 70
     1
102
RTVSPost2010Prop49
280
     0
102
RTVSPost2010PropOp49
 70
     1
102
RTVSPost2010Prop50
 90
       50
102
RTVSPost2010PropOp50
 70
     1
102
RTVSPost2010Prop51ColorIndex
 90
      256
102
RTVSPost2010Prop51ColorRGB
 90
-16777216
102
RTVSPost2010PropOp51
 70
     0
102
RTVSPost2010Prop52
140
1.0
102
RTVSPost2010PropOp52
 70
     0
102
RTVSPost2010Prop53
 90
        2
102
RTVSPost2010PropOp53
 70
     1
102
RTVSPost2010Prop54
  1
strokes_ogs.tif
102
RTVSPost2010PropOp54
 70
     1
102
RTVSPost2010Prop55
280
     0
102
RTVSPost2010PropOp55
 70
     1
102
RTVSPost2010Prop56
140
1.0
102
RTVSPost2010PropOp56
 70
     1
102
RTVSPost2010Prop57
140
1.0
102
RTVSPost2010PropOp57
 70
     1
  0
XRECORD
  5
290
102
{ACAD_REACTORS
330
28F
102
}
330
28F
100
AcDbXrecord
280
     1
102
RTVSPropertyOp0
 70
     1
102
RTVSPropertyOp1
 70
     1
102
RTVSPropertyOp2
 70
     1
102
RTVSPropertyOp3
 70
     1
102
RTVSPropertyOp4
 70
     1
102
RTVSPropertyOp5
 70
     1
102
RTVSPropertyOp6
 70
     1
102
RTVSPropertyOp7
 70
     1
102
RTVSPropertyOp8
 70
     1
102
RTVSPropertyOp9
 70
     1
102
RTVSPropertyOp10
 70
     1
102
RTVSPropertyOp11
 70
     1
102
RTVSPropertyOp12
 70
     1
102
RTVSPropertyOp13
 70
     1
102
RTVSPropertyOp14
 70
     1
102
RTVSPropertyOp15
 70
     1
102
RTVSPropertyOp16
 70
     1
102
RTVSPropertyOp17
 70
     1
102
RTVSPropertyOp18
 70
     1
102
RTVSPropertyOp19
 70
     1
102
RTVSPropertyOp20
 70
     1
102
RTVSPropertyOp21
 70
     1
102
RTVSPropertyOp22
 70
     1
102
RTVSPropertyOp23
 70
     1
102
RTVSPropertyOp24
 70
     1
102
RTVSPropertyOp25
 70
     1
102
RTVSPropertyOp26
 70
     1
102
RTVSPropertyOp27
 70
     1
102
RTVSPropertyOp28
 70
     1
102
RTVSPropertyOp29
 70
     1
102
RTVSPropertyOp30
 70
     1
102
RTVSPropertyOp31
 70
     1
102
RTVSPropertyOp32
 70
     1
102
RTVSPropertyOp33
 70
     1
102
RTVSPropertyOp34
 70
     1
102
RTVSPropertyOp35
 70
     1
102
RTVSPropertyOp36
 70
     1
102
RTVSPropertyOp37
 70
     1
102
RTVSPropertyOp38
 70
     1
102
RTVSPropertyOp39
 70
     1
102
RTVSPropertyOp40
 70
     1
102
RTVSPropertyOp41
 70
     1
102
RTVSPropertyOp42
 70
     1
102
RTVSPropertyOp43
 70
     1
102
RTVSPropertyOp44
 70
     1
102
RTVSPropertyOp45
 70
     1
102
RTVSPropertyOp46
 70
     1
102
RTVSPropertyOp47
 70
     1
102
RTVSPropertyOp48
 70
     1
102
RTVSPropertyOp49
 70
     1
102
RTVSPropertyOp50
 70
     1
102
RTVSPropertyOp51
 70
     0
102
RTVSPropertyOp52
 70
     0
102
RTVSPropertyOp53
 70
     1
102
RTVSPropertyOp54
 70
     1
102
RTVSPropertyOp55
 70
     1
102
RTVSPropertyOp56
 70
     1
102
RTVSPropertyOp57
 70
     1
102
RTVSPost2010Prop28
280
     0
102
RTVSPost2010PropOp28
 70
     1
102
RTVSPost2010Prop29
280
     1
102
RTVSPost2010PropOp29
 70
     1
102
RTVSPost2010Prop30
280
     1
102
RTVSPost2010PropOp30
 70
     1
102
RTVSPost2010Prop31
280
     0
102
RTVSPost2010PropOp31
 70
     1
102
RTVSPost2010Prop32
280
     0
102
RTVSPost2010PropOp32
 70
     1
102
RTVSPost2010Prop33
280
     0
102
RTVSPost2010PropOp33
 70
     1
102
RTVSPost2010Prop34
280
     0
102
RTVSPost2010PropOp34
 70
     1
102
RTVSPost2010Prop35
280
     0
102
RTVSPost2010PropOp35
 70
     1
102
RTVSPost2010Prop36
280
     0
102
RTVSPost2010PropOp36
 70
     1
102
RTVSPost2010Prop37
 90
       50
102
RTVSPost2010PropOp37
 70
     1
102
RTVSPost2010Prop38
140
0.0
102
RTVSPost2010PropOp38
 70
     1
102
RTVSPost2010Prop39
140
1.0
102
RTVSPost2010PropOp39
 70
     1
102
RTVSPost2010Prop40
 90
        0
102
RTVSPost2010PropOp40
 70
     1
102
RTVSPost2010Prop41ColorIndex
 90
       18
102
RTVSPost2010Prop41ColorRGB
 90
        0
102
RTVSPost2010PropOp41
 70
     1
102
RTVSPost2010Prop42
 90
       50
102
RTVSPost2010PropOp42
 70
     1
102
RTVSPost2010Prop43
 90
        3
102
RTVSPost2010PropOp43
 70
     1
102
RTVSPost2010Prop44ColorIndex
 90
        5
102
RTVSPost2010Prop44ColorRGB
 90
      255
102
RTVSPost2010PropOp44
 70
     1
102
RTVSPost2010Prop45
280
     0
102
RTVSPost2010PropOp45
 70
     1
102
RTVSPost2010Prop46
 90
       50
102
RTVSPost2010PropOp46
 70
     1
102
RTVSPost2010Prop47
 90
       50
102
RTVSPost2010PropOp47
 70
     1
102
RTVSPost2010Prop48
 90
       50
102
RTVSPost2010PropOp48
 70
     1
102
RTVSPost2010Prop49
280
     0
102
RTVSPost2010PropOp49
 70
     1
102
RTVSPost2010Prop50
 90
       50
102
RTVSPost2010PropOp50
 70
     1
102
RTVSPost2010Prop51ColorIndex
 90
      256
102
RTVSPost2010Prop51ColorRGB
 90
-16777216
102
RTVSPost2010PropOp51
 70
     0
102
RTVSPost2010Prop52
140
1.0
102
RTVSPost2010PropOp52
 70
     0
102
RTVSPost2010Prop53
 90
        2
102
RTVSPost2010PropOp53
 70
     1
102
RTVSPost2010Prop54
  1
strokes_ogs.tif
102
RTVSPost2010PropOp54
 70
     1
102
RTVSPost2010Prop55
280
     0
102
RTVSPost2010PropOp55
 70
     1
102
RTVSPost2010Prop56
140
1.0
102
RTVSPost2010PropOp56
 70
     1
102
RTVSPost2010Prop57
140
1.0
102
RTVSPost2010PropOp57
 70
     1
  0
XRECORD
  5
296
102
{ACAD_REACTORS
330
295
102
}
330
295
100
AcDbXrecord
280
     1
102
RTVSPropertyOp0
 70
     1
102
RTVSPropertyOp1
 70
     1
102
RTVSPropertyOp2
 70
     1
102
RTVSPropertyOp3
 70
     1
102
RTVSPropertyOp4
 70
     1
102
RTVSPropertyOp5
 70
     1
102
RTVSPropertyOp6
 70
     1
102
RTVSPropertyOp7
 70
     1
102
RTVSPropertyOp8
 70
     1
102
RTVSPropertyOp9
 70
     1
102
RTVSPropertyOp10
 70
     1
102
RTVSPropertyOp11
 70
     1
102
RTVSPropertyOp12
 70
     1
102
RTVSPropertyOp13
 70
     1
102
RTVSPropertyOp14
 70
     1
102
RTVSPropertyOp15
 70
     1
102
RTVSPropertyOp16
 70
     1
102
RTVSPropertyOp17
 70
     1
102
RTVSPropertyOp18
 70
     1
102
RTVSPropertyOp19
 70
     1
102
RTVSPropertyOp20
 70
     1
102
RTVSPropertyOp21
 70
     1
102
RTVSPropertyOp22
 70
     1
102
RTVSPropertyOp23
 70
     1
102
RTVSPropertyOp24
 70
     1
102
RTVSPropertyOp25
 70
     1
102
RTVSPropertyOp26
 70
     1
102
RTVSPropertyOp27
 70
     1
102
RTVSPropertyOp28
 70
     1
102
RTVSPropertyOp29
 70
     1
102
RTVSPropertyOp30
 70
     1
102
RTVSPropertyOp31
 70
     1
102
RTVSPropertyOp32
 70
     1
102
RTVSPropertyOp33
 70
     1
102
RTVSPropertyOp34
 70
     1
102
RTVSPropertyOp35
 70
     1
102
RTVSPropertyOp36
 70
     1
102
RTVSPropertyOp37
 70
     1
102
RTVSPropertyOp38
 70
     1
102
RTVSPropertyOp39
 70
     1
102
RTVSPropertyOp40
 70
     1
102
RTVSPropertyOp41
 70
     1
102
RTVSPropertyOp42
 70
     1
102
RTVSPropertyOp43
 70
     1
102
RTVSPropertyOp44
 70
     1
102
RTVSPropertyOp45
 70
     1
102
RTVSPropertyOp46
 70
     1
102
RTVSPropertyOp47
 70
     1
102
RTVSPropertyOp48
 70
     1
102
RTVSPropertyOp49
 70
     1
102
RTVSPropertyOp50
 70
     1
102
RTVSPropertyOp51
 70
     0
102
RTVSPropertyOp52
 70
     0
102
RTVSPropertyOp53
 70
     1
102
RTVSPropertyOp54
 70
     1
102
RTVSPropertyOp55
 70
     1
102
RTVSPropertyOp56
 70
     1
102
RTVSPropertyOp57
 70
     1
102
RTVSPost2010Prop28
280
     0
102
RTVSPost2010PropOp28
 70
     1
102
RTVSPost2010Prop29
280
     1
102
RTVSPost2010PropOp29
 70
     1
102
RTVSPost2010Prop30
280
     1
102
RTVSPost2010PropOp30
 70
     1
102
RTVSPost2010Prop31
280
     0
102
RTVSPost2010PropOp31
 70
     1
102
RTVSPost2010Prop32
280
     0
102
RTVSPost2010PropOp32
 70
     1
102
RTVSPost2010Prop33
280
     0
102
RTVSPost2010PropOp33
 70
     1
102
RTVSPost2010Prop34
280
     0
102
RTVSPost2010PropOp34
 70
     1
102
RTVSPost2010Prop35
280
     0
102
RTVSPost2010PropOp35
 70
     1
102
RTVSPost2010Prop36
280
     0
102
RTVSPost2010PropOp36
 70
     1
102
RTVSPost2010Prop37
 90
       50
102
RTVSPost2010PropOp37
 70
     1
102
RTVSPost2010Prop38
140
0.0
102
RTVSPost2010PropOp38
 70
     1
102
RTVSPost2010Prop39
140
1.0
102
RTVSPost2010PropOp39
 70
     1
102
RTVSPost2010Prop40
 90
        0
102
RTVSPost2010PropOp40
 70
     1
102
RTVSPost2010Prop41ColorIndex
 90
       18
102
RTVSPost2010Prop41ColorRGB
 90
        0
102
RTVSPost2010PropOp41
 70
     1
102
RTVSPost2010Prop42
 90
       50
102
RTVSPost2010PropOp42
 70
     1
102
RTVSPost2010Prop43
 90
        3
102
RTVSPost2010PropOp43
 70
     1
102
RTVSPost2010Prop44ColorIndex
 90
        5
102
RTVSPost2010Prop44ColorRGB
 90
      255
102
RTVSPost2010PropOp44
 70
     1
102
RTVSPost2010Prop45
280
     0
102
RTVSPost2010PropOp45
 70
     1
102
RTVSPost2010Prop46
 90
       50
102
RTVSPost2010PropOp46
 70
     1
102
RTVSPost2010Prop47
 90
       50
102
RTVSPost2010PropOp47
 70
     1
102
RTVSPost2010Prop48
 90
       50
102
RTVSPost2010PropOp48
 70
     1
102
RTVSPost2010Prop49
280
     0
102
RTVSPost2010PropOp49
 70
     1
102
RTVSPost2010Prop50
 90
       50
102
RTVSPost2010PropOp50
 70
     1
102
RTVSPost2010Prop51ColorIndex
 90
      256
102
RTVSPost2010Prop51ColorRGB
 90
-16777216
102
RTVSPost2010PropOp51
 70
     0
102
RTVSPost2010Prop52
140
1.0
102
RTVSPost2010PropOp52
 70
     0
102
RTVSPost2010Prop53
 90
        2
102
RTVSPost2010PropOp53
 70
     1
102
RTVSPost2010Prop54
  1
strokes_ogs.tif
102
RTVSPost2010PropOp54
 70
     1
102
RTVSPost2010Prop55
280
     0
102
RTVSPost2010PropOp55
 70
     1
102
RTVSPost2010Prop56
140
1.0
102
RTVSPost2010PropOp56
 70
     1
102
RTVSPost2010Prop57
140
1.0
102
RTVSPost2010PropOp57
 70
     1
  0
XRECORD
  5
2AA
102
{ACAD_REACTORS
330
2A9
102
}
330
2A9
100
AcDbXrecord
280
     1
102
RTVSPropertyOp0
 70
     0
102
RTVSPropertyOp1
 70
     0
102
RTVSPropertyOp2
 70
     0
102
RTVSPropertyOp3
 70
     0
102
RTVSPropertyOp4
 70
     0
102
RTVSPropertyOp5
 70
     0
102
RTVSPropertyOp6
 70
     0
102
RTVSPropertyOp7
 70
     0
102
RTVSPropertyOp8
 70
     0
102
RTVSPropertyOp9
 70
     0
102
RTVSPropertyOp10
 70
     0
102
RTVSPropertyOp11
 70
     0
102
RTVSPropertyOp12
 70
     0
102
RTVSPropertyOp13
 70
     0
102
RTVSPropertyOp14
 70
     2
102
RTVSPropertyOp15
 70
     0
102
RTVSPropertyOp16
 70
     0
102
RTVSPropertyOp17
 70
     0
102
RTVSPropertyOp18
 70
     0
102
RTVSPropertyOp19
 70
     0
102
RTVSPropertyOp20
 70
     0
102
RTVSPropertyOp21
 70
     0
102
RTVSPropertyOp22
 70
     0
102
RTVSPropertyOp23
 70
     0
102
RTVSPropertyOp24
 70
     0
102
RTVSPropertyOp25
 70
     0
102
RTVSPropertyOp26
 70
     0
102
RTVSPropertyOp27
 70
     0
102
RTVSPropertyOp28
 70
     0
102
RTVSPropertyOp29
 70
     0
102
RTVSPropertyOp30
 70
     0
102
RTVSPropertyOp31
 70
     0
102
RTVSPropertyOp32
 70
     0
102
RTVSPropertyOp33
 70
     0
102
RTVSPropertyOp34
 70
     0
102
RTVSPropertyOp35
 70
     0
102
RTVSPropertyOp36
 70
     0
102
RTVSPropertyOp37
 70
     0
102
RTVSPropertyOp38
 70
     0
102
RTVSPropertyOp39
 70
     0
102
RTVSPropertyOp40
 70
     0
102
RTVSPropertyOp41
 70
     0
102
RTVSPropertyOp42
 70
     0
102
RTVSPropertyOp43
 70
     0
102
RTVSPropertyOp44
 70
     0
102
RTVSPropertyOp45
 70
     0
102
RTVSPropertyOp46
 70
     0
102
RTVSPropertyOp47
 70
     0
102
RTVSPropertyOp48
 70
     0
102
RTVSPropertyOp49
 70
     0
102
RTVSPropertyOp50
 70
     0
102
RTVSPropertyOp51
 70
     0
102
RTVSPropertyOp52
 70
     0
102
RTVSPropertyOp53
 70
     0
102
RTVSPropertyOp54
 70
     0
102
RTVSPropertyOp55
 70
     0
102
RTVSPropertyOp56
 70
     0
102
RTVSPropertyOp57
 70
     0
102
RTVSPost2010Prop28
280
     0
102
RTVSPost2010PropOp28
 70
     0
102
RTVSPost2010Prop29
280
     1
102
RTVSPost2010PropOp29
 70
     0
102
RTVSPost2010Prop30
280
     1
102
RTVSPost2010PropOp30
 70
     0
102
RTVSPost2010Prop31
280
     0
102
RTVSPost2010PropOp31
 70
     0
102
RTVSPost2010Prop32
280
     0
102
RTVSPost2010PropOp32
 70
     0
102
RTVSPost2010Prop33
280
     0
102
RTVSPost2010PropOp33
 70
     0
102
RTVSPost2010Prop34
280
     0
102
RTVSPost2010PropOp34
 70
     0
102
RTVSPost2010Prop35
280
     0
102
RTVSPost2010PropOp35
 70
     0
102
RTVSPost2010Prop36
280
     0
102
RTVSPost2010PropOp36
 70
     0
102
RTVSPost2010Prop37
 90
       50
102
RTVSPost2010PropOp37
 70
     0
102
RTVSPost2010Prop38
140
0.0
102
RTVSPost2010PropOp38
 70
     0
102
RTVSPost2010Prop39
140
1.0
102
RTVSPost2010PropOp39
 70
     0
102
RTVSPost2010Prop40
 90
        0
102
RTVSPost2010PropOp40
 70
     0
102
RTVSPost2010Prop41ColorIndex
 90
       18
102
RTVSPost2010Prop41ColorRGB
 90
        0
102
RTVSPost2010PropOp41
 70
     0
102
RTVSPost2010Prop42
 90
       50
102
RTVSPost2010PropOp42
 70
     0
102
RTVSPost2010Prop43
 90
        3
102
RTVSPost2010PropOp43
 70
     0
102
RTVSPost2010Prop44ColorIndex
 90
        5
102
RTVSPost2010Prop44ColorRGB
 90
      255
102
RTVSPost2010PropOp44
 70
     0
102
RTVSPost2010Prop45
280
     0
102
RTVSPost2010PropOp45
 70
     0
102
RTVSPost2010Prop46
 90
       50
102
RTVSPost2010PropOp46
 70
     0
102
RTVSPost2010Prop47
 90
       50
102
RTVSPost2010PropOp47
 70
     0
102
RTVSPost2010Prop48
 90
       50
102
RTVSPost2010PropOp48
 70
     0
102
RTVSPost2010Prop49
280
     0
102
RTVSPost2010PropOp49
 70
     0
102
RTVSPost2010Prop50
 90
       50
102
RTVSPost2010PropOp50
 70
     0
102
RTVSPost2010Prop51ColorIndex
 90
      256
102
RTVSPost2010Prop51ColorRGB
 90
-16777216
102
RTVSPost2010PropOp51
 70
     0
102
RTVSPost2010Prop52
140
1.0
102
RTVSPost2010PropOp52
 70
     0
102
RTVSPost2010Prop53
 90
        2
102
RTVSPost2010PropOp53
 70
     0
102
RTVSPost2010Prop54
  1
strokes_ogs.tif
102
RTVSPost2010PropOp54
 70
     0
102
RTVSPost2010Prop55
280
     0
102
RTVSPost2010PropOp55
 70
     0
102
RTVSPost2010Prop56
140
1.0
102
RTVSPost2010PropOp56
 70
     0
102
RTVSPost2010Prop57
140
1.0
102
RTVSPost2010PropOp57
 70
     0
  0
XRECORD
  5
2A4
102
{ACAD_REACTORS
330
2A3
102
}
330
2A3
100
AcDbXrecord
280
     1
102
RTVSPropertyOp0
 70
     1
102
RTVSPropertyOp1
 70
     1
102
RTVSPropertyOp2
 70
     1
102
RTVSPropertyOp3
 70
     1
102
RTVSPropertyOp4
 70
     1
102
RTVSPropertyOp5
 70
     1
102
RTVSPropertyOp6
 70
     1
102
RTVSPropertyOp7
 70
     1
102
RTVSPropertyOp8
 70
     1
102
RTVSPropertyOp9
 70
     1
102
RTVSPropertyOp10
 70
     1
102
RTVSPropertyOp11
 70
     1
102
RTVSPropertyOp12
 70
     1
102
RTVSPropertyOp13
 70
     1
102
RTVSPropertyOp14
 70
     1
102
RTVSPropertyOp15
 70
     1
102
RTVSPropertyOp16
 70
     1
102
RTVSPropertyOp17
 70
     1
102
RTVSPropertyOp18
 70
     1
102
RTVSPropertyOp19
 70
     1
102
RTVSPropertyOp20
 70
     1
102
RTVSPropertyOp21
 70
     1
102
RTVSPropertyOp22
 70
     1
102
RTVSPropertyOp23
 70
     1
102
RTVSPropertyOp24
 70
     1
102
RTVSPropertyOp25
 70
     1
102
RTVSPropertyOp26
 70
     1
102
RTVSPropertyOp27
 70
     1
102
RTVSPropertyOp28
 70
     1
102
RTVSPropertyOp29
 70
     1
102
RTVSPropertyOp30
 70
     1
102
RTVSPropertyOp31
 70
     1
102
RTVSPropertyOp32
 70
     1
102
RTVSPropertyOp33
 70
     1
102
RTVSPropertyOp34
 70
     1
102
RTVSPropertyOp35
 70
     1
102
RTVSPropertyOp36
 70
     1
102
RTVSPropertyOp37
 70
     1
102
RTVSPropertyOp38
 70
     1
102
RTVSPropertyOp39
 70
     1
102
RTVSPropertyOp40
 70
     1
102
RTVSPropertyOp41
 70
     1
102
RTVSPropertyOp42
 70
     1
102
RTVSPropertyOp43
 70
     1
102
RTVSPropertyOp44
 70
     1
102
RTVSPropertyOp45
 70
     1
102
RTVSPropertyOp46
 70
     1
102
RTVSPropertyOp47
 70
     1
102
RTVSPropertyOp48
 70
     1
102
RTVSPropertyOp49
 70
     1
102
RTVSPropertyOp50
 70
     1
102
RTVSPropertyOp51
 70
     0
102
RTVSPropertyOp52
 70
     0
102
RTVSPropertyOp53
 70
     1
102
RTVSPropertyOp54
 70
     1
102
RTVSPropertyOp55
 70
     1
102
RTVSPropertyOp56
 70
     1
102
RTVSPropertyOp57
 70
     1
102
RTVSPost2010Prop28
280
     0
102
RTVSPost2010PropOp28
 70
     1
102
RTVSPost2010Prop29
280
     1
102
RTVSPost2010PropOp29
 70
     1
102
RTVSPost2010Prop30
280
     1
102
RTVSPost2010PropOp30
 70
     1
102
RTVSPost2010Prop31
280
     0
102
RTVSPost2010PropOp31
 70
     1
102
RTVSPost2010Prop32
280
     0
102
RTVSPost2010PropOp32
 70
     1
102
RTVSPost2010Prop33
280
     0
102
RTVSPost2010PropOp33
 70
     1
102
RTVSPost2010Prop34
280
     0
102
RTVSPost2010PropOp34
 70
     1
102
RTVSPost2010Prop35
280
     0
102
RTVSPost2010PropOp35
 70
     1
102
RTVSPost2010Prop36
280
     0
102
RTVSPost2010PropOp36
 70
     1
102
RTVSPost2010Prop37
 90
       50
102
RTVSPost2010PropOp37
 70
     1
102
RTVSPost2010Prop38
140
0.0
102
RTVSPost2010PropOp38
 70
     1
102
RTVSPost2010Prop39
140
1.0
102
RTVSPost2010PropOp39
 70
     1
102
RTVSPost2010Prop40
 90
        0
102
RTVSPost2010PropOp40
 70
     1
102
RTVSPost2010Prop41ColorIndex
 90
       18
102
RTVSPost2010Prop41ColorRGB
 90
        0
102
RTVSPost2010PropOp41
 70
     1
102
RTVSPost2010Prop42
 90
       50
102
RTVSPost2010PropOp42
 70
     1
102
RTVSPost2010Prop43
 90
        3
102
RTVSPost2010PropOp43
 70
     1
102
RTVSPost2010Prop44ColorIndex
 90
        5
102
RTVSPost2010Prop44ColorRGB
 90
      255
102
RTVSPost2010PropOp44
 70
     1
102
RTVSPost2010Prop45
280
     0
102
RTVSPost2010PropOp45
 70
     1
102
RTVSPost2010Prop46
 90
       50
102
RTVSPost2010PropOp46
 70
     1
102
RTVSPost2010Prop47
 90
       50
102
RTVSPost2010PropOp47
 70
     1
102
RTVSPost2010Prop48
 90
       50
102
RTVSPost2010PropOp48
 70
     1
102
RTVSPost2010Prop49
280
     0
102
RTVSPost2010PropOp49
 70
     1
102
RTVSPost2010Prop50
 90
       50
102
RTVSPost2010PropOp50
 70
     1
102
RTVSPost2010Prop51ColorIndex
 90
      256
102
RTVSPost2010Prop51ColorRGB
 90
-16777216
102
RTVSPost2010PropOp51
 70
     0
102
RTVSPost2010Prop52
140
1.0
102
RTVSPost2010PropOp52
 70
     0
102
RTVSPost2010Prop53
 90
        2
102
RTVSPost2010PropOp53
 70
     1
102
RTVSPost2010Prop54
  1
strokes_ogs.tif
102
RTVSPost2010PropOp54
 70
     1
102
RTVSPost2010Prop55
280
     0
102
RTVSPost2010PropOp55
 70
     1
102
RTVSPost2010Prop56
140
1.0
102
RTVSPost2010PropOp56
 70
     1
102
RTVSPost2010Prop57
140
1.0
102
RTVSPost2010PropOp57
 70
     1
  0
XRECORD
  5
2AC
102
{ACAD_REACTORS
330
2AB
102
}
330
2AB
100
AcDbXrecord
280
     1
102
RTVSPropertyOp0
 70
     0
102
RTVSPropertyOp1
 70
     0
102
RTVSPropertyOp2
 70
     0
102
RTVSPropertyOp3
 70
     0
102
RTVSPropertyOp4
 70
     0
102
RTVSPropertyOp5
 70
     0
102
RTVSPropertyOp6
 70
     0
102
RTVSPropertyOp7
 70
     0
102
RTVSPropertyOp8
 70
     0
102
RTVSPropertyOp9
 70
     0
102
RTVSPropertyOp10
 70
     0
102
RTVSPropertyOp11
 70
     0
102
RTVSPropertyOp12
 70
     0
102
RTVSPropertyOp13
 70
     0
102
RTVSPropertyOp14
 70
     2
102
RTVSPropertyOp15
 70
     0
102
RTVSPropertyOp16
 70
     0
102
RTVSPropertyOp17
 70
     0
102
RTVSPropertyOp18
 70
     0
102
RTVSPropertyOp19
 70
     0
102
RTVSPropertyOp20
 70
     0
102
RTVSPropertyOp21
 70
     0
102
RTVSPropertyOp22
 70
     0
102
RTVSPropertyOp23
 70
     0
102
RTVSPropertyOp24
 70
     0
102
RTVSPropertyOp25
 70
     0
102
RTVSPropertyOp26
 70
     0
102
RTVSPropertyOp27
 70
     0
102
RTVSPropertyOp28
 70
     0
102
RTVSPropertyOp29
 70
     0
102
RTVSPropertyOp30
 70
     0
102
RTVSPropertyOp31
 70
     0
102
RTVSPropertyOp32
 70
     0
102
RTVSPropertyOp33
 70
     0
102
RTVSPropertyOp34
 70
     0
102
RTVSPropertyOp35
 70
     0
102
RTVSPropertyOp36
 70
     0
102
RTVSPropertyOp37
 70
     0
102
RTVSPropertyOp38
 70
     0
102
RTVSPropertyOp39
 70
     0
102
RTVSPropertyOp40
 70
     0
102
RTVSPropertyOp41
 70
     0
102
RTVSPropertyOp42
 70
     0
102
RTVSPropertyOp43
 70
     0
102
RTVSPropertyOp44
 70
     0
102
RTVSPropertyOp45
 70
     0
102
RTVSPropertyOp46
 70
     0
102
RTVSPropertyOp47
 70
     0
102
RTVSPropertyOp48
 70
     0
102
RTVSPropertyOp49
 70
     0
102
RTVSPropertyOp50
 70
     0
102
RTVSPropertyOp51
 70
     0
102
RTVSPropertyOp52
 70
     0
102
RTVSPropertyOp53
 70
     0
102
RTVSPropertyOp54
 70
     0
102
RTVSPropertyOp55
 70
     0
102
RTVSPropertyOp56
 70
     0
102
RTVSPropertyOp57
 70
     0
102
RTVSPost2010Prop28
280
     0
102
RTVSPost2010PropOp28
 70
     0
102
RTVSPost2010Prop29
280
     1
102
RTVSPost2010PropOp29
 70
     0
102
RTVSPost2010Prop30
280
     1
102
RTVSPost2010PropOp30
 70
     0
102
RTVSPost2010Prop31
280
     0
102
RTVSPost2010PropOp31
 70
     0
102
RTVSPost2010Prop32
280
     0
102
RTVSPost2010PropOp32
 70
     0
102
RTVSPost2010Prop33
280
     0
102
RTVSPost2010PropOp33
 70
     0
102
RTVSPost2010Prop34
280
     0
102
RTVSPost2010PropOp34
 70
     0
102
RTVSPost2010Prop35
280
     0
102
RTVSPost2010PropOp35
 70
     0
102
RTVSPost2010Prop36
280
     0
102
RTVSPost2010PropOp36
 70
     0
102
RTVSPost2010Prop37
 90
       50
102
RTVSPost2010PropOp37
 70
     0
102
RTVSPost2010Prop38
140
0.0
102
RTVSPost2010PropOp38
 70
     0
102
RTVSPost2010Prop39
140
1.0
102
RTVSPost2010PropOp39
 70
     0
102
RTVSPost2010Prop40
 90
        0
102
RTVSPost2010PropOp40
 70
     0
102
RTVSPost2010Prop41ColorIndex
 90
       18
102
RTVSPost2010Prop41ColorRGB
 90
        0
102
RTVSPost2010PropOp41
 70
     0
102
RTVSPost2010Prop42
 90
       50
102
RTVSPost2010PropOp42
 70
     0
102
RTVSPost2010Prop43
 90
        3
102
RTVSPost2010PropOp43
 70
     0
102
RTVSPost2010Prop44ColorIndex
 90
        5
102
RTVSPost2010Prop44ColorRGB
 90
      255
102
RTVSPost2010PropOp44
 70
     0
102
RTVSPost2010Prop45
280
     0
102
RTVSPost2010PropOp45
 70
     0
102
RTVSPost2010Prop46
 90
       50
102
RTVSPost2010PropOp46
 70
     0
102
RTVSPost2010Prop47
 90
       50
102
RTVSPost2010PropOp47
 70
     0
102
RTVSPost2010Prop48
 90
       50
102
RTVSPost2010PropOp48
 70
     0
102
RTVSPost2010Prop49
280
     0
102
RTVSPost2010PropOp49
 70
     0
102
RTVSPost2010Prop50
 90
       50
102
RTVSPost2010PropOp50
 70
     0
102
RTVSPost2010Prop51ColorIndex
 90
      256
102
RTVSPost2010Prop51ColorRGB
 90
-16777216
102
RTVSPost2010PropOp51
 70
     0
102
RTVSPost2010Prop52
140
1.0
102
RTVSPost2010PropOp52
 70
     0
102
RTVSPost2010Prop53
 90
        2
102
RTVSPost2010PropOp53
 70
     0
102
RTVSPost2010Prop54
  1
strokes_ogs.tif
102
RTVSPost2010PropOp54
 70
     0
102
RTVSPost2010Prop55
280
     0
102
RTVSPost2010PropOp55
 70
     0
102
RTVSPost2010Prop56
140
1.0
102
RTVSPost2010PropOp56
 70
     0
102
RTVSPost2010Prop57
140
1.0
102
RTVSPost2010PropOp57
 70
     0
  0
XRECORD
  5
29A
102
{ACAD_REACTORS
330
299
102
}
330
299
100
AcDbXrecord
280
     1
102
RTVSPropertyOp0
 70
     1
102
RTVSPropertyOp1
 70
     1
102
RTVSPropertyOp2
 70
     1
102
RTVSPropertyOp3
 70
     1
102
RTVSPropertyOp4
 70
     1
102
RTVSPropertyOp5
 70
     1
102
RTVSPropertyOp6
 70
     1
102
RTVSPropertyOp7
 70
     1
102
RTVSPropertyOp8
 70
     1
102
RTVSPropertyOp9
 70
     1
102
RTVSPropertyOp10
 70
     1
102
RTVSPropertyOp11
 70
     1
102
RTVSPropertyOp12
 70
     1
102
RTVSPropertyOp13
 70
     1
102
RTVSPropertyOp14
 70
     1
102
RTVSPropertyOp15
 70
     1
102
RTVSPropertyOp16
 70
     1
102
RTVSPropertyOp17
 70
     1
102
RTVSPropertyOp18
 70
     1
102
RTVSPropertyOp19
 70
     1
102
RTVSPropertyOp20
 70
     1
102
RTVSPropertyOp21
 70
     1
102
RTVSPropertyOp22
 70
     1
102
RTVSPropertyOp23
 70
     1
102
RTVSPropertyOp24
 70
     1
102
RTVSPropertyOp25
 70
     1
102
RTVSPropertyOp26
 70
     1
102
RTVSPropertyOp27
 70
     1
102
RTVSPropertyOp28
 70
     1
102
RTVSPropertyOp29
 70
     1
102
RTVSPropertyOp30
 70
     1
102
RTVSPropertyOp31
 70
     1
102
RTVSPropertyOp32
 70
     1
102
RTVSPropertyOp33
 70
     1
102
RTVSPropertyOp34
 70
     1
102
RTVSPropertyOp35
 70
     1
102
RTVSPropertyOp36
 70
     1
102
RTVSPropertyOp37
 70
     1
102
RTVSPropertyOp38
 70
     1
102
RTVSPropertyOp39
 70
     1
102
RTVSPropertyOp40
 70
     1
102
RTVSPropertyOp41
 70
     1
102
RTVSPropertyOp42
 70
     1
102
RTVSPropertyOp43
 70
     1
102
RTVSPropertyOp44
 70
     1
102
RTVSPropertyOp45
 70
     1
102
RTVSPropertyOp46
 70
     1
102
RTVSPropertyOp47
 70
     1
102
RTVSPropertyOp48
 70
     1
102
RTVSPropertyOp49
 70
     1
102
RTVSPropertyOp50
 70
     1
102
RTVSPropertyOp51
 70
     0
102
RTVSPropertyOp52
 70
     0
102
RTVSPropertyOp53
 70
     1
102
RTVSPropertyOp54
 70
     1
102
RTVSPropertyOp55
 70
     1
102
RTVSPropertyOp56
 70
     1
102
RTVSPropertyOp57
 70
     1
102
RTVSPost2010Prop28
280
     0
102
RTVSPost2010PropOp28
 70
     1
102
RTVSPost2010Prop29
280
     1
102
RTVSPost2010PropOp29
 70
     1
102
RTVSPost2010Prop30
280
     1
102
RTVSPost2010PropOp30
 70
     1
102
RTVSPost2010Prop31
280
     0
102
RTVSPost2010PropOp31
 70
     1
102
RTVSPost2010Prop32
280
     0
102
RTVSPost2010PropOp32
 70
     1
102
RTVSPost2010Prop33
280
     0
102
RTVSPost2010PropOp33
 70
     1
102
RTVSPost2010Prop34
280
     0
102
RTVSPost2010PropOp34
 70
     1
102
RTVSPost2010Prop35
280
     0
102
RTVSPost2010PropOp35
 70
     1
102
RTVSPost2010Prop36
280
     0
102
RTVSPost2010PropOp36
 70
     1
102
RTVSPost2010Prop37
 90
       50
102
RTVSPost2010PropOp37
 70
     1
102
RTVSPost2010Prop38
140
0.0
102
RTVSPost2010PropOp38
 70
     1
102
RTVSPost2010Prop39
140
1.0
102
RTVSPost2010PropOp39
 70
     1
102
RTVSPost2010Prop40
 90
        0
102
RTVSPost2010PropOp40
 70
     1
102
RTVSPost2010Prop41ColorIndex
 90
       18
102
RTVSPost2010Prop41ColorRGB
 90
        0
102
RTVSPost2010PropOp41
 70
     1
102
RTVSPost2010Prop42
 90
       50
102
RTVSPost2010PropOp42
 70
     1
102
RTVSPost2010Prop43
 90
        3
102
RTVSPost2010PropOp43
 70
     1
102
RTVSPost2010Prop44ColorIndex
 90
        5
102
RTVSPost2010Prop44ColorRGB
 90
      255
102
RTVSPost2010PropOp44
 70
     1
102
RTVSPost2010Prop45
280
     0
102
RTVSPost2010PropOp45
 70
     1
102
RTVSPost2010Prop46
 90
       50
102
RTVSPost2010PropOp46
 70
     1
102
RTVSPost2010Prop47
 90
       50
102
RTVSPost2010PropOp47
 70
     1
102
RTVSPost2010Prop48
 90
       50
102
RTVSPost2010PropOp48
 70
     1
102
RTVSPost2010Prop49
280
     0
102
RTVSPost2010PropOp49
 70
     1
102
RTVSPost2010Prop50
 90
       50
102
RTVSPost2010PropOp50
 70
     1
102
RTVSPost2010Prop51ColorIndex
 90
      256
102
RTVSPost2010Prop51ColorRGB
 90
-16777216
102
RTVSPost2010PropOp51
 70
     0
102
RTVSPost2010Prop52
140
1.0
102
RTVSPost2010PropOp52
 70
     0
102
RTVSPost2010Prop53
 90
        2
102
RTVSPost2010PropOp53
 70
     1
102
RTVSPost2010Prop54
  1
strokes_ogs.tif
102
RTVSPost2010PropOp54
 70
     1
102
RTVSPost2010Prop55
280
     0
102
RTVSPost2010PropOp55
 70
     1
102
RTVSPost2010Prop56
140
1.0
102
RTVSPost2010PropOp56
 70
     1
102
RTVSPost2010Prop57
140
1.0
102
RTVSPost2010PropOp57
 70
     1
  0
XRECORD
  5
2B8
102
{ACAD_REACTORS
330
2B7
102
}
330
2B7
100
AcDbXrecord
280
     1
102
RTVSPropertyOp0
 70
     1
102
RTVSPropertyOp1
 70
     1
102
RTVSPropertyOp2
 70
     1
102
RTVSPropertyOp3
 70
     1
102
RTVSPropertyOp4
 70
     1
102
RTVSPropertyOp5
 70
     1
102
RTVSPropertyOp6
 70
     1
102
RTVSPropertyOp7
 70
     1
102
RTVSPropertyOp8
 70
     1
102
RTVSPropertyOp9
 70
     1
102
RTVSPropertyOp10
 70
     1
102
RTVSPropertyOp11
 70
     1
102
RTVSPropertyOp12
 70
     1
102
RTVSPropertyOp13
 70
     1
102
RTVSPropertyOp14
 70
     1
102
RTVSPropertyOp15
 70
     1
102
RTVSPropertyOp16
 70
     1
102
RTVSPropertyOp17
 70
     1
102
RTVSPropertyOp18
 70
     1
102
RTVSPropertyOp19
 70
     1
102
RTVSPropertyOp20
 70
     1
102
RTVSPropertyOp21
 70
     1
102
RTVSPropertyOp22
 70
     1
102
RTVSPropertyOp23
 70
     1
102
RTVSPropertyOp24
 70
     1
102
RTVSPropertyOp25
 70
     1
102
RTVSPropertyOp26
 70
     1
102
RTVSPropertyOp27
 70
     1
102
RTVSPropertyOp28
 70
     1
102
RTVSPropertyOp29
 70
     1
102
RTVSPropertyOp30
 70
     1
102
RTVSPropertyOp31
 70
     1
102
RTVSPropertyOp32
 70
     1
102
RTVSPropertyOp33
 70
     1
102
RTVSPropertyOp34
 70
     1
102
RTVSPropertyOp35
 70
     1
102
RTVSPropertyOp36
 70
     1
102
RTVSPropertyOp37
 70
     1
102
RTVSPropertyOp38
 70
     1
102
RTVSPropertyOp39
 70
     1
102
RTVSPropertyOp40
 70
     1
102
RTVSPropertyOp41
 70
     1
102
RTVSPropertyOp42
 70
     1
102
RTVSPropertyOp43
 70
     1
102
RTVSPropertyOp44
 70
     1
102
RTVSPropertyOp45
 70
     1
102
RTVSPropertyOp46
 70
     1
102
RTVSPropertyOp47
 70
     1
102
RTVSPropertyOp48
 70
     1
102
RTVSPropertyOp49
 70
     1
102
RTVSPropertyOp50
 70
     1
102
RTVSPropertyOp51
 70
     0
102
RTVSPropertyOp52
 70
     0
102
RTVSPropertyOp53
 70
     1
102
RTVSPropertyOp54
 70
     1
102
RTVSPropertyOp55
 70
     1
102
RTVSPropertyOp56
 70
     1
102
RTVSPropertyOp57
 70
     1
102
RTVSPost2010Prop28
280
     0
102
RTVSPost2010PropOp28
 70
     1
102
RTVSPost2010Prop29
280
     1
102
RTVSPost2010PropOp29
 70
     1
102
RTVSPost2010Prop30
280
     1
102
RTVSPost2010PropOp30
 70
     1
102
RTVSPost2010Prop31
280
     0
102
RTVSPost2010PropOp31
 70
     1
102
RTVSPost2010Prop32
280
     0
102
RTVSPost2010PropOp32
 70
     1
102
RTVSPost2010Prop33
280
     0
102
RTVSPost2010PropOp33
 70
     1
102
RTVSPost2010Prop34
280
     0
102
RTVSPost2010PropOp34
 70
     1
102
RTVSPost2010Prop35
280
     0
102
RTVSPost2010PropOp35
 70
     1
102
RTVSPost2010Prop36
280
     0
102
RTVSPost2010PropOp36
 70
     1
102
RTVSPost2010Prop37
 90
       50
102
RTVSPost2010PropOp37
 70
     1
102
RTVSPost2010Prop38
140
0.0
102
RTVSPost2010PropOp38
 70
     1
102
RTVSPost2010Prop39
140
1.0
102
RTVSPost2010PropOp39
 70
     1
102
RTVSPost2010Prop40
 90
        0
102
RTVSPost2010PropOp40
 70
     1
102
RTVSPost2010Prop41ColorIndex
 90
       18
102
RTVSPost2010Prop41ColorRGB
 90
        0
102
RTVSPost2010PropOp41
 70
     1
102
RTVSPost2010Prop42
 90
       50
102
RTVSPost2010PropOp42
 70
     1
102
RTVSPost2010Prop43
 90
        3
102
RTVSPost2010PropOp43
 70
     1
102
RTVSPost2010Prop44ColorIndex
 90
        5
102
RTVSPost2010Prop44ColorRGB
 90
      255
102
RTVSPost2010PropOp44
 70
     1
102
RTVSPost2010Prop45
280
     0
102
RTVSPost2010PropOp45
 70
     1
102
RTVSPost2010Prop46
 90
       50
102
RTVSPost2010PropOp46
 70
     1
102
RTVSPost2010Prop47
 90
       50
102
RTVSPost2010PropOp47
 70
     1
102
RTVSPost2010Prop48
 90
       50
102
RTVSPost2010PropOp48
 70
     1
102
RTVSPost2010Prop49
280
     0
102
RTVSPost2010PropOp49
 70
     1
102
RTVSPost2010Prop50
 90
       50
102
RTVSPost2010PropOp50
 70
     1
102
RTVSPost2010Prop51ColorIndex
 90
      256
102
RTVSPost2010Prop51ColorRGB
 90
-16777216
102
RTVSPost2010PropOp51
 70
     0
102
RTVSPost2010Prop52
140
1.0
102
RTVSPost2010PropOp52
 70
     0
102
RTVSPost2010Prop53
 90
        2
102
RTVSPost2010PropOp53
 70
     1
102
RTVSPost2010Prop54
  1
strokes_ogs.tif
102
RTVSPost2010PropOp54
 70
     1
102
RTVSPost2010Prop55
280
     0
102
RTVSPost2010PropOp55
 70
     1
102
RTVSPost2010Prop56
140
1.0
102
RTVSPost2010PropOp56
 70
     1
102
RTVSPost2010Prop57
140
1.0
102
RTVSPost2010PropOp57
 70
     1
  0
XRECORD
  5
2B6
102
{ACAD_REACTORS
330
2B5
102
}
330
2B5
100
AcDbXrecord
280
     1
102
RTVSPropertyOp0
 70
     1
102
RTVSPropertyOp1
 70
     1
102
RTVSPropertyOp2
 70
     1
102
RTVSPropertyOp3
 70
     1
102
RTVSPropertyOp4
 70
     1
102
RTVSPropertyOp5
 70
     1
102
RTVSPropertyOp6
 70
     1
102
RTVSPropertyOp7
 70
     1
102
RTVSPropertyOp8
 70
     1
102
RTVSPropertyOp9
 70
     1
102
RTVSPropertyOp10
 70
     1
102
RTVSPropertyOp11
 70
     1
102
RTVSPropertyOp12
 70
     1
102
RTVSPropertyOp13
 70
     1
102
RTVSPropertyOp14
 70
     1
102
RTVSPropertyOp15
 70
     1
102
RTVSPropertyOp16
 70
     1
102
RTVSPropertyOp17
 70
     1
102
RTVSPropertyOp18
 70
     1
102
RTVSPropertyOp19
 70
     1
102
RTVSPropertyOp20
 70
     1
102
RTVSPropertyOp21
 70
     1
102
RTVSPropertyOp22
 70
     1
102
RTVSPropertyOp23
 70
     1
102
RTVSPropertyOp24
 70
     1
102
RTVSPropertyOp25
 70
     1
102
RTVSPropertyOp26
 70
     1
102
RTVSPropertyOp27
 70
     1
102
RTVSPropertyOp28
 70
     1
102
RTVSPropertyOp29
 70
     1
102
RTVSPropertyOp30
 70
     1
102
RTVSPropertyOp31
 70
     1
102
RTVSPropertyOp32
 70
     1
102
RTVSPropertyOp33
 70
     1
102
RTVSPropertyOp34
 70
     1
102
RTVSPropertyOp35
 70
     1
102
RTVSPropertyOp36
 70
     1
102
RTVSPropertyOp37
 70
     1
102
RTVSPropertyOp38
 70
     1
102
RTVSPropertyOp39
 70
     1
102
RTVSPropertyOp40
 70
     1
102
RTVSPropertyOp41
 70
     1
102
RTVSPropertyOp42
 70
     1
102
RTVSPropertyOp43
 70
     1
102
RTVSPropertyOp44
 70
     1
102
RTVSPropertyOp45
 70
     1
102
RTVSPropertyOp46
 70
     1
102
RTVSPropertyOp47
 70
     1
102
RTVSPropertyOp48
 70
     1
102
RTVSPropertyOp49
 70
     1
102
RTVSPropertyOp50
 70
     1
102
RTVSPropertyOp51
 70
     0
102
RTVSPropertyOp52
 70
     0
102
RTVSPropertyOp53
 70
     1
102
RTVSPropertyOp54
 70
     1
102
RTVSPropertyOp55
 70
     1
102
RTVSPropertyOp56
 70
     1
102
RTVSPropertyOp57
 70
     1
102
RTVSPost2010Prop28
280
     0
102
RTVSPost2010PropOp28
 70
     1
102
RTVSPost2010Prop29
280
     1
102
RTVSPost2010PropOp29
 70
     1
102
RTVSPost2010Prop30
280
     1
102
RTVSPost2010PropOp30
 70
     1
102
RTVSPost2010Prop31
280
     0
102
RTVSPost2010PropOp31
 70
     1
102
RTVSPost2010Prop32
280
     0
102
RTVSPost2010PropOp32
 70
     1
102
RTVSPost2010Prop33
280
     0
102
RTVSPost2010PropOp33
 70
     1
102
RTVSPost2010Prop34
280
     0
102
RTVSPost2010PropOp34
 70
     1
102
RTVSPost2010Prop35
280
     0
102
RTVSPost2010PropOp35
 70
     1
102
RTVSPost2010Prop36
280
     0
102
RTVSPost2010PropOp36
 70
     1
102
RTVSPost2010Prop37
 90
       50
102
RTVSPost2010PropOp37
 70
     1
102
RTVSPost2010Prop38
140
0.0
102
RTVSPost2010PropOp38
 70
     1
102
RTVSPost2010Prop39
140
1.0
102
RTVSPost2010PropOp39
 70
     1
102
RTVSPost2010Prop40
 90
        0
102
RTVSPost2010PropOp40
 70
     1
102
RTVSPost2010Prop41ColorIndex
 90
       18
102
RTVSPost2010Prop41ColorRGB
 90
        0
102
RTVSPost2010PropOp41
 70
     1
102
RTVSPost2010Prop42
 90
       50
102
RTVSPost2010PropOp42
 70
     1
102
RTVSPost2010Prop43
 90
        3
102
RTVSPost2010PropOp43
 70
     1
102
RTVSPost2010Prop44ColorIndex
 90
        5
102
RTVSPost2010Prop44ColorRGB
 90
      255
102
RTVSPost2010PropOp44
 70
     1
102
RTVSPost2010Prop45
280
     0
102
RTVSPost2010PropOp45
 70
     1
102
RTVSPost2010Prop46
 90
       50
102
RTVSPost2010PropOp46
 70
     1
102
RTVSPost2010Prop47
 90
       50
102
RTVSPost2010PropOp47
 70
     1
102
RTVSPost2010Prop48
 90
       50
102
RTVSPost2010PropOp48
 70
     1
102
RTVSPost2010Prop49
280
     0
102
RTVSPost2010PropOp49
 70
     1
102
RTVSPost2010Prop50
 90
       50
102
RTVSPost2010PropOp50
 70
     1
102
RTVSPost2010Prop51ColorIndex
 90
      256
102
RTVSPost2010Prop51ColorRGB
 90
-16777216
102
RTVSPost2010PropOp51
 70
     0
102
RTVSPost2010Prop52
140
1.0
102
RTVSPost2010PropOp52
 70
     0
102
RTVSPost2010Prop53
 90
        2
102
RTVSPost2010PropOp53
 70
     1
102
RTVSPost2010Prop54
  1
strokes_ogs.tif
102
RTVSPost2010PropOp54
 70
     1
102
RTVSPost2010Prop55
280
     0
102
RTVSPost2010PropOp55
 70
     1
102
RTVSPost2010Prop56
140
1.0
102
RTVSPost2010PropOp56
 70
     1
102
RTVSPost2010Prop57
140
1.0
102
RTVSPost2010PropOp57
 70
     1
  0
XRECORD
  5
2B0
102
{ACAD_REACTORS
330
2AF
102
}
330
2AF
100
AcDbXrecord
280
     1
102
RTVSPropertyOp0
 70
     1
102
RTVSPropertyOp1
 70
     1
102
RTVSPropertyOp2
 70
     1
102
RTVSPropertyOp3
 70
     1
102
RTVSPropertyOp4
 70
     1
102
RTVSPropertyOp5
 70
     1
102
RTVSPropertyOp6
 70
     1
102
RTVSPropertyOp7
 70
     1
102
RTVSPropertyOp8
 70
     1
102
RTVSPropertyOp9
 70
     1
102
RTVSPropertyOp10
 70
     1
102
RTVSPropertyOp11
 70
     1
102
RTVSPropertyOp12
 70
     1
102
RTVSPropertyOp13
 70
     1
102
RTVSPropertyOp14
 70
     1
102
RTVSPropertyOp15
 70
     1
102
RTVSPropertyOp16
 70
     1
102
RTVSPropertyOp17
 70
     1
102
RTVSPropertyOp18
 70
     1
102
RTVSPropertyOp19
 70
     1
102
RTVSPropertyOp20
 70
     1
102
RTVSPropertyOp21
 70
     1
102
RTVSPropertyOp22
 70
     1
102
RTVSPropertyOp23
 70
     1
102
RTVSPropertyOp24
 70
     1
102
RTVSPropertyOp25
 70
     1
102
RTVSPropertyOp26
 70
     1
102
RTVSPropertyOp27
 70
     1
102
RTVSPropertyOp28
 70
     1
102
RTVSPropertyOp29
 70
     1
102
RTVSPropertyOp30
 70
     1
102
RTVSPropertyOp31
 70
     1
102
RTVSPropertyOp32
 70
     1
102
RTVSPropertyOp33
 70
     1
102
RTVSPropertyOp34
 70
     1
102
RTVSPropertyOp35
 70
     1
102
RTVSPropertyOp36
 70
     1
102
RTVSPropertyOp37
 70
     1
102
RTVSPropertyOp38
 70
     1
102
RTVSPropertyOp39
 70
     1
102
RTVSPropertyOp40
 70
     1
102
RTVSPropertyOp41
 70
     1
102
RTVSPropertyOp42
 70
     1
102
RTVSPropertyOp43
 70
     1
102
RTVSPropertyOp44
 70
     1
102
RTVSPropertyOp45
 70
     1
102
RTVSPropertyOp46
 70
     1
102
RTVSPropertyOp47
 70
     1
102
RTVSPropertyOp48
 70
     1
102
RTVSPropertyOp49
 70
     1
102
RTVSPropertyOp50
 70
     1
102
RTVSPropertyOp51
 70
     0
102
RTVSPropertyOp52
 70
     0
102
RTVSPropertyOp53
 70
     1
102
RTVSPropertyOp54
 70
     1
102
RTVSPropertyOp55
 70
     1
102
RTVSPropertyOp56
 70
     1
102
RTVSPropertyOp57
 70
     1
102
RTVSPost2010Prop28
280
     0
102
RTVSPost2010PropOp28
 70
     1
102
RTVSPost2010Prop29
280
     1
102
RTVSPost2010PropOp29
 70
     1
102
RTVSPost2010Prop30
280
     1
102
RTVSPost2010PropOp30
 70
     1
102
RTVSPost2010Prop31
280
     0
102
RTVSPost2010PropOp31
 70
     1
102
RTVSPost2010Prop32
280
     0
102
RTVSPost2010PropOp32
 70
     1
102
RTVSPost2010Prop33
280
     0
102
RTVSPost2010PropOp33
 70
     1
102
RTVSPost2010Prop34
280
     0
102
RTVSPost2010PropOp34
 70
     1
102
RTVSPost2010Prop35
280
     0
102
RTVSPost2010PropOp35
 70
     1
102
RTVSPost2010Prop36
280
     0
102
RTVSPost2010PropOp36
 70
     1
102
RTVSPost2010Prop37
 90
       50
102
RTVSPost2010PropOp37
 70
     1
102
RTVSPost2010Prop38
140
0.0
102
RTVSPost2010PropOp38
 70
     1
102
RTVSPost2010Prop39
140
1.0
102
RTVSPost2010PropOp39
 70
     1
102
RTVSPost2010Prop40
 90
        0
102
RTVSPost2010PropOp40
 70
     1
102
RTVSPost2010Prop41ColorIndex
 90
       18
102
RTVSPost2010Prop41ColorRGB
 90
        0
102
RTVSPost2010PropOp41
 70
     1
102
RTVSPost2010Prop42
 90
       50
102
RTVSPost2010PropOp42
 70
     1
102
RTVSPost2010Prop43
 90
        3
102
RTVSPost2010PropOp43
 70
     1
102
RTVSPost2010Prop44ColorIndex
 90
        5
102
RTVSPost2010Prop44ColorRGB
 90
      255
102
RTVSPost2010PropOp44
 70
     1
102
RTVSPost2010Prop45
280
     0
102
RTVSPost2010PropOp45
 70
     1
102
RTVSPost2010Prop46
 90
       50
102
RTVSPost2010PropOp46
 70
     1
102
RTVSPost2010Prop47
 90
       50
102
RTVSPost2010PropOp47
 70
     1
102
RTVSPost2010Prop48
 90
       50
102
RTVSPost2010PropOp48
 70
     1
102
RTVSPost2010Prop49
280
     0
102
RTVSPost2010PropOp49
 70
     1
102
RTVSPost2010Prop50
 90
       50
102
RTVSPost2010PropOp50
 70
     1
102
RTVSPost2010Prop51ColorIndex
 90
      256
102
RTVSPost2010Prop51ColorRGB
 90
-16777216
102
RTVSPost2010PropOp51
 70
     0
102
RTVSPost2010Prop52
140
1.0
102
RTVSPost2010PropOp52
 70
     0
102
RTVSPost2010Prop53
 90
        2
102
RTVSPost2010PropOp53
 70
     1
102
RTVSPost2010Prop54
  1
strokes_ogs.tif
102
RTVSPost2010PropOp54
 70
     1
102
RTVSPost2010Prop55
280
     0
102
RTVSPost2010PropOp55
 70
     1
102
RTVSPost2010Prop56
140
1.0
102
RTVSPost2010PropOp56
 70
     1
102
RTVSPost2010Prop57
140
1.0
102
RTVSPost2010PropOp57
 70
     1
  0
XRECORD
  5
2B2
102
{ACAD_REACTORS
330
2B1
102
}
330
2B1
100
AcDbXrecord
280
     1
102
RTVSPropertyOp0
 70
     1
102
RTVSPropertyOp1
 70
     1
102
RTVSPropertyOp2
 70
     1
102
RTVSPropertyOp3
 70
     1
102
RTVSPropertyOp4
 70
     1
102
RTVSPropertyOp5
 70
     1
102
RTVSPropertyOp6
 70
     1
102
RTVSPropertyOp7
 70
     1
102
RTVSPropertyOp8
 70
     1
102
RTVSPropertyOp9
 70
     1
102
RTVSPropertyOp10
 70
     1
102
RTVSPropertyOp11
 70
     1
102
RTVSPropertyOp12
 70
     1
102
RTVSPropertyOp13
 70
     1
102
RTVSPropertyOp14
 70
     1
102
RTVSPropertyOp15
 70
     1
102
RTVSPropertyOp16
 70
     1
102
RTVSPropertyOp17
 70
     1
102
RTVSPropertyOp18
 70
     1
102
RTVSPropertyOp19
 70
     1
102
RTVSPropertyOp20
 70
     1
102
RTVSPropertyOp21
 70
     1
102
RTVSPropertyOp22
 70
     1
102
RTVSPropertyOp23
 70
     1
102
RTVSPropertyOp24
 70
     1
102
RTVSPropertyOp25
 70
     1
102
RTVSPropertyOp26
 70
     1
102
RTVSPropertyOp27
 70
     1
102
RTVSPropertyOp28
 70
     1
102
RTVSPropertyOp29
 70
     1
102
RTVSPropertyOp30
 70
     1
102
RTVSPropertyOp31
 70
     1
102
RTVSPropertyOp32
 70
     1
102
RTVSPropertyOp33
 70
     1
102
RTVSPropertyOp34
 70
     1
102
RTVSPropertyOp35
 70
     1
102
RTVSPropertyOp36
 70
     1
102
RTVSPropertyOp37
 70
     1
102
RTVSPropertyOp38
 70
     1
102
RTVSPropertyOp39
 70
     1
102
RTVSPropertyOp40
 70
     1
102
RTVSPropertyOp41
 70
     1
102
RTVSPropertyOp42
 70
     1
102
RTVSPropertyOp43
 70
     1
102
RTVSPropertyOp44
 70
     1
102
RTVSPropertyOp45
 70
     1
102
RTVSPropertyOp46
 70
     1
102
RTVSPropertyOp47
 70
     1
102
RTVSPropertyOp48
 70
     1
102
RTVSPropertyOp49
 70
     1
102
RTVSPropertyOp50
 70
     1
102
RTVSPropertyOp51
 70
     0
102
RTVSPropertyOp52
 70
     0
102
RTVSPropertyOp53
 70
     1
102
RTVSPropertyOp54
 70
     1
102
RTVSPropertyOp55
 70
     1
102
RTVSPropertyOp56
 70
     1
102
RTVSPropertyOp57
 70
     1
102
RTVSPost2010Prop28
280
     0
102
RTVSPost2010PropOp28
 70
     1
102
RTVSPost2010Prop29
280
     1
102
RTVSPost2010PropOp29
 70
     1
102
RTVSPost2010Prop30
280
     1
102
RTVSPost2010PropOp30
 70
     1
102
RTVSPost2010Prop31
280
     0
102
RTVSPost2010PropOp31
 70
     1
102
RTVSPost2010Prop32
280
     0
102
RTVSPost2010PropOp32
 70
     1
102
RTVSPost2010Prop33
280
     0
102
RTVSPost2010PropOp33
 70
     1
102
RTVSPost2010Prop34
280
     0
102
RTVSPost2010PropOp34
 70
     1
102
RTVSPost2010Prop35
280
     0
102
RTVSPost2010PropOp35
 70
     1
102
RTVSPost2010Prop36
280
     0
102
RTVSPost2010PropOp36
 70
     1
102
RTVSPost2010Prop37
 90
       50
102
RTVSPost2010PropOp37
 70
     1
102
RTVSPost2010Prop38
140
0.0
102
RTVSPost2010PropOp38
 70
     1
102
RTVSPost2010Prop39
140
1.0
102
RTVSPost2010PropOp39
 70
     1
102
RTVSPost2010Prop40
 90
        0
102
RTVSPost2010PropOp40
 70
     1
102
RTVSPost2010Prop41ColorIndex
 90
       18
102
RTVSPost2010Prop41ColorRGB
 90
        0
102
RTVSPost2010PropOp41
 70
     1
102
RTVSPost2010Prop42
 90
       50
102
RTVSPost2010PropOp42
 70
     1
102
RTVSPost2010Prop43
 90
        3
102
RTVSPost2010PropOp43
 70
     1
102
RTVSPost2010Prop44ColorIndex
 90
        5
102
RTVSPost2010Prop44ColorRGB
 90
      255
102
RTVSPost2010PropOp44
 70
     1
102
RTVSPost2010Prop45
280
     0
102
RTVSPost2010PropOp45
 70
     1
102
RTVSPost2010Prop46
 90
       50
102
RTVSPost2010PropOp46
 70
     1
102
RTVSPost2010Prop47
 90
       50
102
RTVSPost2010PropOp47
 70
     1
102
RTVSPost2010Prop48
 90
       50
102
RTVSPost2010PropOp48
 70
     1
102
RTVSPost2010Prop49
280
     0
102
RTVSPost2010PropOp49
 70
     1
102
RTVSPost2010Prop50
 90
       50
102
RTVSPost2010PropOp50
 70
     1
102
RTVSPost2010Prop51ColorIndex
 90
      256
102
RTVSPost2010Prop51ColorRGB
 90
-16777216
102
RTVSPost2010PropOp51
 70
     0
102
RTVSPost2010Prop52
140
1.0
102
RTVSPost2010PropOp52
 70
     0
102
RTVSPost2010Prop53
 90
        2
102
RTVSPost2010PropOp53
 70
     1
102
RTVSPost2010Prop54
  1
strokes_ogs.tif
102
RTVSPost2010PropOp54
 70
     1
102
RTVSPost2010Prop55
280
     0
102
RTVSPost2010PropOp55
 70
     1
102
RTVSPost2010Prop56
140
1.0
102
RTVSPost2010PropOp56
 70
     1
102
RTVSPost2010Prop57
140
1.0
102
RTVSPost2010PropOp57
 70
     1
  0
XRECORD
  5
2A2
102
{ACAD_REACTORS
330
2A1
102
}
330
2A1
100
AcDbXrecord
280
     1
102
RTVSPropertyOp0
 70
     1
102
RTVSPropertyOp1
 70
     1
102
RTVSPropertyOp2
 70
     1
102
RTVSPropertyOp3
 70
     1
102
RTVSPropertyOp4
 70
     1
102
RTVSPropertyOp5
 70
     1
102
RTVSPropertyOp6
 70
     1
102
RTVSPropertyOp7
 70
     1
102
RTVSPropertyOp8
 70
     1
102
RTVSPropertyOp9
 70
     1
102
RTVSPropertyOp10
 70
     1
102
RTVSPropertyOp11
 70
     1
102
RTVSPropertyOp12
 70
     1
102
RTVSPropertyOp13
 70
     1
102
RTVSPropertyOp14
 70
     1
102
RTVSPropertyOp15
 70
     1
102
RTVSPropertyOp16
 70
     1
102
RTVSPropertyOp17
 70
     1
102
RTVSPropertyOp18
 70
     1
102
RTVSPropertyOp19
 70
     1
102
RTVSPropertyOp20
 70
     1
102
RTVSPropertyOp21
 70
     1
102
RTVSPropertyOp22
 70
     1
102
RTVSPropertyOp23
 70
     1
102
RTVSPropertyOp24
 70
     1
102
RTVSPropertyOp25
 70
     1
102
RTVSPropertyOp26
 70
     1
102
RTVSPropertyOp27
 70
     1
102
RTVSPropertyOp28
 70
     1
102
RTVSPropertyOp29
 70
     1
102
RTVSPropertyOp30
 70
     1
102
RTVSPropertyOp31
 70
     1
102
RTVSPropertyOp32
 70
     1
102
RTVSPropertyOp33
 70
     1
102
RTVSPropertyOp34
 70
     1
102
RTVSPropertyOp35
 70
     1
102
RTVSPropertyOp36
 70
     1
102
RTVSPropertyOp37
 70
     1
102
RTVSPropertyOp38
 70
     1
102
RTVSPropertyOp39
 70
     1
102
RTVSPropertyOp40
 70
     1
102
RTVSPropertyOp41
 70
     1
102
RTVSPropertyOp42
 70
     1
102
RTVSPropertyOp43
 70
     1
102
RTVSPropertyOp44
 70
     1
102
RTVSPropertyOp45
 70
     1
102
RTVSPropertyOp46
 70
     1
102
RTVSPropertyOp47
 70
     1
102
RTVSPropertyOp48
 70
     1
102
RTVSPropertyOp49
 70
     1
102
RTVSPropertyOp50
 70
     1
102
RTVSPropertyOp51
 70
     0
102
RTVSPropertyOp52
 70
     0
102
RTVSPropertyOp53
 70
     1
102
RTVSPropertyOp54
 70
     1
102
RTVSPropertyOp55
 70
     1
102
RTVSPropertyOp56
 70
     1
102
RTVSPropertyOp57
 70
     1
102
RTVSPost2010Prop28
280
     0
102
RTVSPost2010PropOp28
 70
     1
102
RTVSPost2010Prop29
280
     1
102
RTVSPost2010PropOp29
 70
     1
102
RTVSPost2010Prop30
280
     1
102
RTVSPost2010PropOp30
 70
     1
102
RTVSPost2010Prop31
280
     0
102
RTVSPost2010PropOp31
 70
     1
102
RTVSPost2010Prop32
280
     0
102
RTVSPost2010PropOp32
 70
     1
102
RTVSPost2010Prop33
280
     0
102
RTVSPost2010PropOp33
 70
     1
102
RTVSPost2010Prop34
280
     0
102
RTVSPost2010PropOp34
 70
     1
102
RTVSPost2010Prop35
280
     0
102
RTVSPost2010PropOp35
 70
     1
102
RTVSPost2010Prop36
280
     0
102
RTVSPost2010PropOp36
 70
     1
102
RTVSPost2010Prop37
 90
       50
102
RTVSPost2010PropOp37
 70
     1
102
RTVSPost2010Prop38
140
0.0
102
RTVSPost2010PropOp38
 70
     1
102
RTVSPost2010Prop39
140
1.0
102
RTVSPost2010PropOp39
 70
     1
102
RTVSPost2010Prop40
 90
        0
102
RTVSPost2010PropOp40
 70
     1
102
RTVSPost2010Prop41ColorIndex
 90
       18
102
RTVSPost2010Prop41ColorRGB
 90
        0
102
RTVSPost2010PropOp41
 70
     1
102
RTVSPost2010Prop42
 90
       50
102
RTVSPost2010PropOp42
 70
     1
102
RTVSPost2010Prop43
 90
        3
102
RTVSPost2010PropOp43
 70
     1
102
RTVSPost2010Prop44ColorIndex
 90
        5
102
RTVSPost2010Prop44ColorRGB
 90
      255
102
RTVSPost2010PropOp44
 70
     1
102
RTVSPost2010Prop45
280
     0
102
RTVSPost2010PropOp45
 70
     1
102
RTVSPost2010Prop46
 90
       50
102
RTVSPost2010PropOp46
 70
     1
102
RTVSPost2010Prop47
 90
       50
102
RTVSPost2010PropOp47
 70
     1
102
RTVSPost2010Prop48
 90
       50
102
RTVSPost2010PropOp48
 70
     1
102
RTVSPost2010Prop49
280
     0
102
RTVSPost2010PropOp49
 70
     1
102
RTVSPost2010Prop50
 90
       50
102
RTVSPost2010PropOp50
 70
     1
102
RTVSPost2010Prop51ColorIndex
 90
      256
102
RTVSPost2010Prop51ColorRGB
 90
-16777216
102
RTVSPost2010PropOp51
 70
     0
102
RTVSPost2010Prop52
140
1.0
102
RTVSPost2010PropOp52
 70
     0
102
RTVSPost2010Prop53
 90
        2
102
RTVSPost2010PropOp53
 70
     1
102
RTVSPost2010Prop54
  1
strokes_ogs.tif
102
RTVSPost2010PropOp54
 70
     1
102
RTVSPost2010Prop55
280
     0
102
RTVSPost2010PropOp55
 70
     1
102
RTVSPost2010Prop56
140
1.0
102
RTVSPost2010PropOp56
 70
     1
102
RTVSPost2010Prop57
140
1.0
102
RTVSPost2010PropOp57
 70
     1
  0
XRECORD
  5
294
102
{ACAD_REACTORS
330
293
102
}
330
293
100
AcDbXrecord
280
     1
102
RTVSPropertyOp0
 70
     1
102
RTVSPropertyOp1
 70
     1
102
RTVSPropertyOp2
 70
     1
102
RTVSPropertyOp3
 70
     1
102
RTVSPropertyOp4
 70
     1
102
RTVSPropertyOp5
 70
     1
102
RTVSPropertyOp6
 70
     1
102
RTVSPropertyOp7
 70
     1
102
RTVSPropertyOp8
 70
     1
102
RTVSPropertyOp9
 70
     1
102
RTVSPropertyOp10
 70
     1
102
RTVSPropertyOp11
 70
     1
102
RTVSPropertyOp12
 70
     1
102
RTVSPropertyOp13
 70
     1
102
RTVSPropertyOp14
 70
     1
102
RTVSPropertyOp15
 70
     1
102
RTVSPropertyOp16
 70
     1
102
RTVSPropertyOp17
 70
     1
102
RTVSPropertyOp18
 70
     1
102
RTVSPropertyOp19
 70
     1
102
RTVSPropertyOp20
 70
     1
102
RTVSPropertyOp21
 70
     1
102
RTVSPropertyOp22
 70
     1
102
RTVSPropertyOp23
 70
     1
102
RTVSPropertyOp24
 70
     1
102
RTVSPropertyOp25
 70
     1
102
RTVSPropertyOp26
 70
     1
102
RTVSPropertyOp27
 70
     1
102
RTVSPropertyOp28
 70
     1
102
RTVSPropertyOp29
 70
     1
102
RTVSPropertyOp30
 70
     1
102
RTVSPropertyOp31
 70
     1
102
RTVSPropertyOp32
 70
     1
102
RTVSPropertyOp33
 70
     1
102
RTVSPropertyOp34
 70
     1
102
RTVSPropertyOp35
 70
     1
102
RTVSPropertyOp36
 70
     1
102
RTVSPropertyOp37
 70
     1
102
RTVSPropertyOp38
 70
     1
102
RTVSPropertyOp39
 70
     1
102
RTVSPropertyOp40
 70
     1
102
RTVSPropertyOp41
 70
     1
102
RTVSPropertyOp42
 70
     1
102
RTVSPropertyOp43
 70
     1
102
RTVSPropertyOp44
 70
     1
102
RTVSPropertyOp45
 70
     1
102
RTVSPropertyOp46
 70
     1
102
RTVSPropertyOp47
 70
     1
102
RTVSPropertyOp48
 70
     1
102
RTVSPropertyOp49
 70
     1
102
RTVSPropertyOp50
 70
     1
102
RTVSPropertyOp51
 70
     0
102
RTVSPropertyOp52
 70
     0
102
RTVSPropertyOp53
 70
     1
102
RTVSPropertyOp54
 70
     1
102
RTVSPropertyOp55
 70
     1
102
RTVSPropertyOp56
 70
     1
102
RTVSPropertyOp57
 70
     1
102
RTVSPost2010Prop28
280
     0
102
RTVSPost2010PropOp28
 70
     1
102
RTVSPost2010Prop29
280
     1
102
RTVSPost2010PropOp29
 70
     1
102
RTVSPost2010Prop30
280
     1
102
RTVSPost2010PropOp30
 70
     1
102
RTVSPost2010Prop31
280
     0
102
RTVSPost2010PropOp31
 70
     1
102
RTVSPost2010Prop32
280
     0
102
RTVSPost2010PropOp32
 70
     1
102
RTVSPost2010Prop33
280
     0
102
RTVSPost2010PropOp33
 70
     1
102
RTVSPost2010Prop34
280
     0
102
RTVSPost2010PropOp34
 70
     1
102
RTVSPost2010Prop35
280
     0
102
RTVSPost2010PropOp35
 70
     1
102
RTVSPost2010Prop36
280
     0
102
RTVSPost2010PropOp36
 70
     1
102
RTVSPost2010Prop37
 90
       50
102
RTVSPost2010PropOp37
 70
     1
102
RTVSPost2010Prop38
140
0.0
102
RTVSPost2010PropOp38
 70
     1
102
RTVSPost2010Prop39
140
1.0
102
RTVSPost2010PropOp39
 70
     1
102
RTVSPost2010Prop40
 90
        0
102
RTVSPost2010PropOp40
 70
     1
102
RTVSPost2010Prop41ColorIndex
 90
       18
102
RTVSPost2010Prop41ColorRGB
 90
        0
102
RTVSPost2010PropOp41
 70
     1
102
RTVSPost2010Prop42
 90
       50
102
RTVSPost2010PropOp42
 70
     1
102
RTVSPost2010Prop43
 90
        3
102
RTVSPost2010PropOp43
 70
     1
102
RTVSPost2010Prop44ColorIndex
 90
        5
102
RTVSPost2010Prop44ColorRGB
 90
      255
102
RTVSPost2010PropOp44
 70
     1
102
RTVSPost2010Prop45
280
     0
102
RTVSPost2010PropOp45
 70
     1
102
RTVSPost2010Prop46
 90
       50
102
RTVSPost2010PropOp46
 70
     1
102
RTVSPost2010Prop47
 90
       50
102
RTVSPost2010PropOp47
 70
     1
102
RTVSPost2010Prop48
 90
       50
102
RTVSPost2010PropOp48
 70
     1
102
RTVSPost2010Prop49
280
     0
102
RTVSPost2010PropOp49
 70
     1
102
RTVSPost2010Prop50
 90
       50
102
RTVSPost2010PropOp50
 70
     1
102
RTVSPost2010Prop51ColorIndex
 90
      256
102
RTVSPost2010Prop51ColorRGB
 90
-16777216
102
RTVSPost2010PropOp51
 70
     0
102
RTVSPost2010Prop52
140
1.0
102
RTVSPost2010PropOp52
 70
     0
102
RTVSPost2010Prop53
 90
        2
102
RTVSPost2010PropOp53
 70
     1
102
RTVSPost2010Prop54
  1
strokes_ogs.tif
102
RTVSPost2010PropOp54
 70
     1
102
RTVSPost2010Prop55
280
     0
102
RTVSPost2010PropOp55
 70
     1
102
RTVSPost2010Prop56
140
1.0
102
RTVSPost2010PropOp56
 70
     1
102
RTVSPost2010Prop57
140
1.0
102
RTVSPost2010PropOp57
 70
     1
  0
XRECORD
  5
2B4
102
{ACAD_REACTORS
330
2B3
102
}
330
2B3
100
AcDbXrecord
280
     1
102
RTVSPropertyOp0
 70
     1
102
RTVSPropertyOp1
 70
     1
102
RTVSPropertyOp2
 70
     1
102
RTVSPropertyOp3
 70
     1
102
RTVSPropertyOp4
 70
     1
102
RTVSPropertyOp5
 70
     1
102
RTVSPropertyOp6
 70
     1
102
RTVSPropertyOp7
 70
     1
102
RTVSPropertyOp8
 70
     1
102
RTVSPropertyOp9
 70
     1
102
RTVSPropertyOp10
 70
     1
102
RTVSPropertyOp11
 70
     1
102
RTVSPropertyOp12
 70
     1
102
RTVSPropertyOp13
 70
     1
102
RTVSPropertyOp14
 70
     1
102
RTVSPropertyOp15
 70
     1
102
RTVSPropertyOp16
 70
     1
102
RTVSPropertyOp17
 70
     1
102
RTVSPropertyOp18
 70
     1
102
RTVSPropertyOp19
 70
     1
102
RTVSPropertyOp20
 70
     1
102
RTVSPropertyOp21
 70
     1
102
RTVSPropertyOp22
 70
     1
102
RTVSPropertyOp23
 70
     1
102
RTVSPropertyOp24
 70
     1
102
RTVSPropertyOp25
 70
     1
102
RTVSPropertyOp26
 70
     1
102
RTVSPropertyOp27
 70
     1
102
RTVSPropertyOp28
 70
     1
102
RTVSPropertyOp29
 70
     1
102
RTVSPropertyOp30
 70
     1
102
RTVSPropertyOp31
 70
     1
102
RTVSPropertyOp32
 70
     1
102
RTVSPropertyOp33
 70
     1
102
RTVSPropertyOp34
 70
     1
102
RTVSPropertyOp35
 70
     1
102
RTVSPropertyOp36
 70
     1
102
RTVSPropertyOp37
 70
     1
102
RTVSPropertyOp38
 70
     1
102
RTVSPropertyOp39
 70
     1
102
RTVSPropertyOp40
 70
     1
102
RTVSPropertyOp41
 70
     1
102
RTVSPropertyOp42
 70
     1
102
RTVSPropertyOp43
 70
     1
102
RTVSPropertyOp44
 70
     1
102
RTVSPropertyOp45
 70
     1
102
RTVSPropertyOp46
 70
     1
102
RTVSPropertyOp47
 70
     1
102
RTVSPropertyOp48
 70
     1
102
RTVSPropertyOp49
 70
     1
102
RTVSPropertyOp50
 70
     1
102
RTVSPropertyOp51
 70
     0
102
RTVSPropertyOp52
 70
     0
102
RTVSPropertyOp53
 70
     1
102
RTVSPropertyOp54
 70
     1
102
RTVSPropertyOp55
 70
     1
102
RTVSPropertyOp56
 70
     1
102
RTVSPropertyOp57
 70
     1
102
RTVSPost2010Prop28
280
     0
102
RTVSPost2010PropOp28
 70
     1
102
RTVSPost2010Prop29
280
     1
102
RTVSPost2010PropOp29
 70
     1
102
RTVSPost2010Prop30
280
     1
102
RTVSPost2010PropOp30
 70
     1
102
RTVSPost2010Prop31
280
     0
102
RTVSPost2010PropOp31
 70
     1
102
RTVSPost2010Prop32
280
     0
102
RTVSPost2010PropOp32
 70
     1
102
RTVSPost2010Prop33
280
     0
102
RTVSPost2010PropOp33
 70
     1
102
RTVSPost2010Prop34
280
     0
102
RTVSPost2010PropOp34
 70
     1
102
RTVSPost2010Prop35
280
     0
102
RTVSPost2010PropOp35
 70
     1
102
RTVSPost2010Prop36
280
     0
102
RTVSPost2010PropOp36
 70
     1
102
RTVSPost2010Prop37
 90
       50
102
RTVSPost2010PropOp37
 70
     1
102
RTVSPost2010Prop38
140
0.0
102
RTVSPost2010PropOp38
 70
     1
102
RTVSPost2010Prop39
140
1.0
102
RTVSPost2010PropOp39
 70
     1
102
RTVSPost2010Prop40
 90
        0
102
RTVSPost2010PropOp40
 70
     1
102
RTVSPost2010Prop41ColorIndex
 90
       18
102
RTVSPost2010Prop41ColorRGB
 90
        0
102
RTVSPost2010PropOp41
 70
     1
102
RTVSPost2010Prop42
 90
       50
102
RTVSPost2010PropOp42
 70
     1
102
RTVSPost2010Prop43
 90
        3
102
RTVSPost2010PropOp43
 70
     1
102
RTVSPost2010Prop44ColorIndex
 90
        5
102
RTVSPost2010Prop44ColorRGB
 90
      255
102
RTVSPost2010PropOp44
 70
     1
102
RTVSPost2010Prop45
280
     0
102
RTVSPost2010PropOp45
 70
     1
102
RTVSPost2010Prop46
 90
       50
102
RTVSPost2010PropOp46
 70
     1
102
RTVSPost2010Prop47
 90
       50
102
RTVSPost2010PropOp47
 70
     1
102
RTVSPost2010Prop48
 90
       50
102
RTVSPost2010PropOp48
 70
     1
102
RTVSPost2010Prop49
280
     0
102
RTVSPost2010PropOp49
 70
     1
102
RTVSPost2010Prop50
 90
       50
102
RTVSPost2010PropOp50
 70
     1
102
RTVSPost2010Prop51ColorIndex
 90
      256
102
RTVSPost2010Prop51ColorRGB
 90
-16777216
102
RTVSPost2010PropOp51
 70
     0
102
RTVSPost2010Prop52
140
1.0
102
RTVSPost2010PropOp52
 70
     0
102
RTVSPost2010Prop53
 90
        2
102
RTVSPost2010PropOp53
 70
     1
102
RTVSPost2010Prop54
  1
strokes_ogs.tif
102
RTVSPost2010PropOp54
 70
     1
102
RTVSPost2010Prop55
280
     0
102
RTVSPost2010PropOp55
 70
     1
102
RTVSPost2010Prop56
140
1.0
102
RTVSPost2010PropOp56
 70
     1
102
RTVSPost2010Prop57
140
1.0
102
RTVSPost2010PropOp57
 70
     1
  0
ENDSEC
  0
SECTION
  2
THUMBNAILIMAGE
 90
    16364
310
28000000B40000005500000001000800000000000000000000000000000000000000000000000000FFFFFF00FF000000FFFF000000FF000000FFFF000000FF00FF00FF000000000080808000C0C0C000FF000000FF7F7F00A5000000A55252007F0000007F3F3F004C0000004C2626002600000026131300FF3F0000FF9F7F
310
00A5290000A56752007F1F00007F4F3F004C1300004C2F26002609000026171300FF7F0000FFBF7F00A5520000A57C52007F3F00007F5F3F004C2600004C39260026130000261C1300FFBF0000FFDF7F00A57C0000A59152007F5F00007F6F3F004C3900004C422600261C000026211300FFFF0000FFFF7F00A5A50000A5A5
310
52007F7F00007F7F3F004C4C00004C4C26002626000026261300BFFF0000DFFF7F007CA5000091A552005F7F00006F7F3F00394C0000424C26001C260000212613007FFF0000BFFF7F0052A500007CA552003F7F00005F7F3F00264C0000394C2600132600001C2613003FFF00009FFF7F0029A5000067A552001F7F00004F
310
7F3F00134C00002F4C2600092600001726130000FF00007FFF7F0000A5000052A55200007F00003F7F3F00004C0000264C2600002600001326130000FF3F007FFF9F0000A5290052A56700007F1F003F7F4F00004C1300264C2F00002609001326170000FF7F007FFFBF0000A5520052A57C00007F3F003F7F5F00004C2600
310
264C39000026130013261C0000FFBF007FFFDF0000A57C0052A59100007F5F003F7F6F00004C3900264C420000261C001326210000FFFF007FFFFF0000A5A50052A5A500007F7F003F7F7F00004C4C00264C4C00002626001326260000BFFF007FDFFF00007CA5005291A500005F7F003F6F7F0000394C0026424C00001C26
310
0013212600007FFF007FBFFF000052A500527CA500003F7F003F5F7F0000264C0026394C0000132600131C2600003FFF007F9FFF000029A5005267A500001F7F003F4F7F0000134C00262F4C0000092600131726000000FF007F7FFF000000A5005252A50000007F003F3F7F0000004C0026264C0000002600131326003F00
310
FF009F7FFF002900A5006752A5001F007F004F3F7F0013004C002F264C0009002600171326007F00FF00BF7FFF005200A5007C52A5003F007F005F3F7F0026004C0039264C00130026001C132600BF00FF00DF7FFF007C00A5009152A5005F007F006F3F7F0039004C0042264C001C00260021132600FF00FF00FF7FFF00A5
310
00A500A552A5007F007F007F3F7F004C004C004C264C002600260026132600FF00BF00FF7FDF00A5007C00A55291007F005F007F3F6F004C0039004C26420026001C0026132100FF007F00FF7FBF00A5005200A5527C007F003F007F3F5F004C0026004C2639002600130026131C00FF003F00FF7F9F00A5002900A5526700
310
7F001F007F3F4F004C0013004C262F002600090026131700000000002D2D2D005B5B5B0089898900B7B7B700B3B3B30000000000000000000000000000000000000000000000000000000000000000000000000000000000000000000000000000000000000000000000000000000000000000000000000000000000000000
310
00000000000000000000000000000000000000000000000000000000000000000000000000000000000000000000000000000000000000000000000000000000000000000000000000000000000000000000000000000000000000000000000000000000000000000000000000000000000000000000000000000000000000
310
00000000000000000000000000000000000000000000000000000000000000000000000000000000000000000000000000000000000000000000000000000000000000000000000000000000000000000000000000000000000000000000000000000000000000000000000000000000000000000000000000000000000000
310
00000000000000000000000000000000000000000000000000000000000000000000000000000000000000000000000000000000000000000000000000000000000000000000000000000000000000000000000000000000000000000000000000000000000000000000000000000000000000000000000000000000000000
310
00000000000000000000000000000000000000000000000000000000000000000000000000000000000000000000000000000000000000000000000000000000000000000000000000000000000000000000000000000000000000000000000000000000000000000000000000000000000000000000000000000000000000
310
00000000000000000000000000000000000000000000000000000000000000000000000000000000000000000000000000000000000000000000000000000000000000000000000000000000000000000000000000000000000000000000000000000000000000000000000000000000000000000000000000000000000000
310
00000000000000000000000000000000000000000000000000000000000000000000000000000000000000000000000000000000000000000000000000000000000000000000000000000000000000000000000000000000000000000000000000000707070707070707070707070707070707070707070707000000000000
310
00000000000000000000000000000000000000000000000000000000000000000000000000000000000000000000000000000000000000000000000000000000000000000000000000000000000000000000000000000000000000000000000000000000000000000000000000000000000000000000000000000000000000
310
00000000000000000000000000000000000000000000000007070707070000000000070707070700070000000000070000000000000000000000000000000000000000000000000000000000000000000000000000000000000000000000000000000000000000000000000000000000000000000000000000000000000000
310
00000000000000000000000000000000000000000000000000000000000000000000000000000000000000000000000000000000000000000000000000000000000000000000000000000000000707070707070707070707070707070707070707070707000000000000000000000000000000000000000000000000000000
310
00000000000000000000000000000000000000000000000000000000000000000000000000000000000000000000000000000000000000000000000000000000000000000000000000000000000000000000000000000000000000000000000000000000000000000000000000000000000000000000000000000000000000
310
00000007070007070000000000070707070707070000000000070000000000000000000000000000000000000000000000000000000000000000000000000000000000000000000000000000000000000000000000000000000000000000000000000000000000000000000000000000000000000000000000000000000000
310
00000000000000000000000000000000000000000000000000000000000000000000000000000000000000000000000000000000000000000707070707000000070707070707070707070700000007000000000000000000000000000000000000000000000000000000000000000000000000000000000000000000000000
310
00000000000000000000000000000000000000000000000000000000000000000000000000000000000000000000000000000000000000000000000000000000000000000000000000000000000000000000000000000000000000000000000000000000000000000000000000070000000700000007070707070707070707
310
07000000070000000000000000000000000000000000000000000000000000000000000000000000000000000000000000000000000000000000000000000000000000000000000000000000000000000000000000000000000000000000000000000000000000000000000000000000000000000000000000000000000000
310
00000000000000000000000000000000000000000000000000000000000000000000000700000007000000000000000000000000000000000007000000000000000000000000000000000000000000000000000000000000000000000000000000000000000000000000000000000000000000000000000000000000000000
310
00000000000000000000000000000000000000000000000000000000000000000000000000000000000000000000000000000000000000000000000000000000000000000000000000000000000000000000000000000000070707070707070707070707070707070707070707070700000000000000000000000000000000
310
00000000000000000000000000000000000000000000000000000000000000000000000000000000000000000000000000000000000000000000000000000000000000000000000000000000000000000000000000000000000000000000000000000000000000000000000000000000000000000000000000000000000000
310
00000000000000000000000000000000000000000000000000000000000000000000000000000000000000000000000000000000000000000000000000000000000000000000000000000000000000000000000000000000000000000000000000000000000000000000000000000000000000000000000000000000000000
310
00000000000000000000000000000000000000000000000000000000000000000000000000000000000000000000000000000000000000000000000000000000000000000000000000000000000000000000000000000000000000000000000000000000000000000000000000000000000000000000000000000000000000
310
00000000000000000000000000000000000000000000000000000000000000000000000000000000000000000000000000000000000000000000000000000000000000000000000000000000000000000000000000000000000000000000000000000000000000000000000000000000000000000000000000000000000000
310
00000000000000000000000000000000000000000000000000000000000000000000000000000000000000000000000000000000000000000000000000000000000000000000000000000000000000000000000000000000000000000000000000000000000000000000000000000000000000000000000000000000000000
310
00000000000000000000000000000000000000000000000000000000000000000000000000000000000000000000000000000000000000000000000000000000000000000000000000000000000000000000000000000000000000000000000000000000000000000000000000000000000000000000000000000000000000
310
00000000000000000000000000000000000000000000000000000000000000000000000000000000000000000000000000000000000000000000000000000000000000000000000000000000000000000000000000000000000000000000000000000000000000000000000000000000000000000000000000000000000000
310
00000000000000000000000000000000000000000000000000000000000000000000000000000000000000000000000000000000000000000000000000000000000000000000000000000000000000000000000000000000000000000000000000000000000000000000000000000000000000000000000000000000000000
310
00000000000000000000000000000000000000000000000000000000000000000000000000000000000000000000000000000000000000000000000000000000000000000000000000000000000000000000000000000000000000000000000000000000000000000000000000000000000000000000000000000000000000
310
00000000000000000000000000000000000000000000000000000000000000000000000000000000000000000000000000000000000000000000000000000000000000000000000000000000000000000000000000000000000000000000000000000000000000000000000000000000000000000000000000000000000000
310
00000000000000000000000000000000000000000000000000000000000000000000000000000000000000000000000000000000000000000000000000000000000000000000000000000000000000000000000000000000000000000000000000000000000000000000000000000000000000000000000000000000000000
310
00000000000000000000000000000000000000000000000000000000000000000000000000000000000000000000000000000000000000000000000000000000000000000000000000000000000000000000000000000000000000000000000000000000000000000000000000000000000000000000000000000000000000
310
00000000000000000000000000000000000000000000000000000000000000000000000000000000000000000000000000000000000000000000000000000000000000000000000000000000000000000000000000000000000000000000000000000000000000000000000000000000000000000000000000000000000000
310
00000000000000000000000000000000000000000000000000000000000000000000000000000000000000000000000000000000000000000000000000000000000000000000000000000000000000000000000000000000000000000000000000000000000000000000000000000000000000000000000000000000000000
310
00000000000000000000000000000000000000000000000000000000000000000000000000000000000000000000000000000000000000000000000000000000000000000000000000000000000000000000000000000000000000000000000000000000000000000000000000000000000000000000000000000000000000
310
00000000000000000000000000000000000000000000000000000000000000000000000000000000000000000000000000000000000000000000000000000000000000000000000000000000000000000000000000000000000000000000000000000000000000000000000000000000000000000000000000000000000000
310
00000000000000000000000000000000000000000000000000000000000000000000000000000000000000000000000000000000000000000000000000000000000000000000000000000000000000000000000000000000000000000000000000000000000000000000000000000000000000000000000000000000000000
310
00000000000000000000000000000000000000000000000000000000000000000000000000000000000000000000000000000000000000000000000000000000000000000000000000000000000000000000000000000000000000000000000000000000000000000000000000000000000000000000000000000000000000
310
00000000000000000000000000000000000000000000000000000000000000000000000000000000000000000000000000000000000000000000000000000000000000000000000000000000000000000000000000000000000000000000000000000000000000000000000000000000000000000000000000000000000000
310
00000000000000000000000000000000000000000000000000000000000000000000000000000000000000000000000000000000000000000000000000000000000000000000000000000000000000000000000000000000000000000000000000000000000000000000000000000000000000000000000000000000000000
310
00000000000000000000000000000000000000000000000000000000000000000000000000000000000000000000000000000000000000000000000000000000000000000000000000000000000000000000000000000000000000000000000000000000000000000000000000000000000000000000000000000000000000
310
00000000000000000000000000000000000000000000000000000000000000000000000000000000000000000000000000000000000000000000000000000000000000000000000000000000000000000000000000000000000000000000000000000000000000000000000000000000000000000000000000000000000000
310
00000000000000000000000000000000000000000000000000000000000000000000000000000000000000000000000000000000000000000000000000000000000000000000000000000000000000000000000000000000000000000000000000000000000000000000000000000000000000000000000000000000000000
310
00000000000000000000000000000000000000000000000000000000000000000000000000000000000000000000000000000000000000000000000000000000000000000000000000000000000000000000000000000000000000000000000000000000000000000000000000000000000000000000000000000000000000
310
00000000000000000000000000000000000000000000000000000000000000000000000000000000000000000000000000000000000000000000000000000000000000000000000000000000000000000000000000000000000000000000000000000000000000000000000000000000000000000000000000000000000000
310
00000000000000000000000000000000000000000000000000000000000000000000000000000000000000000000000000000000000000000000000000000000000000000000000000000000000000000000000000000000000000000000000000000000000000000000000000000000000000000000000000000000000000
310
00000000000000000000000000000000000000000000000000000000000000000000000000000000000000000000000000000000000000000000000000000000000000000000000000000000000000000000000000000000000000000000000000000000000000000000000000000000000000000000000000000000000000
310
00000000000000000000000000000000000000000000000000000000000000000000000000000000000000000000000000000000000000000000000000000000000000000000000000000000000000000000000000000000000000000000000000000000000000000000000000000000000000000000000000000000000000
310
00000000000000000000000000000000000000000000000000000000000000000000000000000000000000000000000000000000000000000000000000000000000000000000000000000000000000000000000000000000000000000000000000000000000000000000000000000000000000000000000000000000000000
310
00000000000000000000000000000000000000000000000000000000000000000000000000000000000000000000000000000000000000000000000000000000000000000000000000000000000000000000000000000000000000000000000000000000000000000000000000000000000000000000000000000000000000
310
00000000000000000000000000000000000000000000000000000000000000000000000000000000000000000000000000000000000000000000000000000000000000000000000000000000000000000000000000000000000000000000000000000000000000000000000000000000000000000000000000000000000000
310
00000000000000000000000000000000000000000000000000000000000000000000000000000000000000000000000000000000000000000000000000000000000000000000000000000000000000000000000000000000000000000000000000000000000000000000000000000000000000000000000000000000000000
310
00000000000000000000000000000000000000000000000000000000000000000000000000000000000000000000000000000000000000000000000000000000000000000000000000000000000000000000000000000000000000000000000000000000000000000000000000000000000000000000000000000000000000
310
00000000000000000000000000000000000000000000000000000000000000000000000000000000000000000000000000000000000000000000000000000000000000000000000000000000000000000000000000000000000000000000000000000000000000000000000000000000000000000000000000000000000000
310
00000000000000000000000000000000000000000000000000000000000000000000000000000000000000000000000000000000000000000000000000000000000000000000000000000000000000000000000000000000000000000000000000000000000000000000000000000000000000000000000000000000000000
310
00000000000000000000000000000000000000000000000000000000000000000000000000000000000000000000000000000000000000000000000000000000000000000000000000000000000000000000000000000000000000000000000000000000000000000000000000000000000000000000000000000000000000
310
00000000000000000000000000000000000000000000000000000000000000000000000000000000000000000000000000000000000000000003000000000000000000000000000000000000000000000000000000000000000000000000000000000000000000000000000000000000000000000000000000000000000000
310
000000000000000000000000000000000000000000000000000000000000000000000000000000000000000000000000000000000000000000000000000000000000000000000000000000000000000000000000000000000000000000000000000000000000000000000000A1A1A1A1000000000000000000000000000000
310
00000000000000000000000000000000000000000000000000000000000000000000000000000000000000000000000000000000000000000000000000000000000000000000000000000000000000000000000000000000000000000000000000000000000000000000000000000000000000000000000000000000000000
310
00000000000000000000000000000000000000000000000202020202020202020202A10703A10202020202020202020202000000000000000000000000000000000000000000000000000000000000000000000000000000000000000000000000000000000000000000000000000000000000000000000000000000000000
310
00000000000000000000000000000000000000000000000000000000000000000000000000000000000000000000000000000000000000000000000000000000000000000000000000000000020202020202020202020202A103A1020202020202020202020200000000000000000000000000000000000000000000000000
310
00000000000000000000000000000000000000000000000000000000000000000000000000000000000000000000000000000000000000000000000000000000000000000000000000000000000000000000000000000000000000000000000000000000000000000000000000000000000000000000000000000000000000
310
0000000000000000000000000000A103A10000000000000000000000000000000000000000000000000000000000000000000000000000000000000000000000000000000000000000000000000000000000000000000000000000000000000000000000000000000000000000000000000000000000000000000000000000
310
00000000000000000000000000000000000000000000000000000000000000000000000000000000000000000000000000000000000000000000000000000000000000A103A1000000000000000000000000000000000000000000000000000000000000000000000000000000000000000000000000000000000000000000
310
000000000000000000000000000000000000000000000000000000000000000000000000000000000000000000000000000000000000000000000000000000000000000000000000000000000000000000000000000000000000000000000000000000000000000000000000000000000000000000000000A103A100000000
310
00000000000000000000000000000000000000000000000000000000000000000000000000000000000000000000000000000000000000000000000000000000000000000000000000000000000000000000000000000000000000000000000000000000000000000000000000000000000000000000000000000000000000
310
00000000000000000000000000000000000000000000000000000000000000000000000000000000000000000000A103A1000000000000000000000000000000000000000000000000000000000000000000000000000000000000000000000000000000000000000000000000000000000000000000000000000000000000
310
00000000000000000000000000000000000000000000000000000000000000000000000000000000000000000000000000000000000000000000000000000000000000000000000000000000000000000000000000000000000000000000000000A1A1A1A1A1A1000000000000000000000000000000000000000000000000
310
00000000000000000000000000000000000000000000000000000000000000000000000000000000000000000000000000000000000000000000000000000000000000000000000000000000000000000000000000000000000000000000000000000000000000000000000000000000000000000000000000000000000000
310
0000000000000000000000000000000000000000000000A1A1A103A1A10000000000000000000000000000000000000000000000000000000000000000000000000000000000000000000000000000000000000000000000000000000000000000000000000000000000000000000000000000000000000000000000000000
310
00000000000000000000000000000000000000000000000000000000000000000000000000000000000000000000000000000000000000000000000000000000000000000000000000000000000000000000000000000000000000000000000000000000000000000000000000000000000000000000000000000000000000
310
00000000000000000000000000000000000000000000000000000000000000000000000000000000000000000000000000000000000000000000000000000000000000000000000000000000000000000000000000000000000000000000000000000000000000000000000000000000000000000000000000000000000000
310
00000000000000000000000000000000000000000000000000000000000000000000000000000000000000000000000000000000000000000000000000000000000000000000000000000000000000000000000000000000000000000000000000000000000000000000000000000000000000000000000000000000000000
310
00000000000000000000000000000000000000000000000000000000000000000000000000000000000000000000000000000000000000000000000000000000000000000000000000000000000000000000000000000000000000000000000000000000000000000000000000000000000000000000000000000000000000
310
00000000000000000000000000000000000000000000000000000000000000000000000000000000000000000000000000000000000000000000000000000000000000000000000000000000000000000000000000000000000000000000000000000000000000000000000000000000000000000000000000000000000000
310
00000000000000000000000000000000000000000000000000000000000000000000000000000000000000000000000000000000000000000000000000000000000000000000000000000000000000000000000000000000000000000000000000000000000000000000000000000000000000000000000000000000000000
310
00000000000000000000000000000000000000000000000000000000000000000000000000000000000000000000000000000000000000000000000000000000000000000000000000000000000000000000000000000000000000000000000000000000000000000000000000000000000000000000000000000000000000
310
00000000000000000000000000000000000000000000000000000000000000000000000000000000000000000000000000000000000000000000000000000000000000000000000000000000000000000000000000000000000000000000000000000000000000000000000000000000000000000000000000000000000000
310
00000000000000000000000000000000000000000000000000000000000000000000000000000000000000000000000000000000000000000000000000000000000000000000000000000000000000000000000000000000000000000000000000000000000000000000000000000000000000000000000000000000000000
310
00000000000000000000000000000000000000000000000000000000000000000000000000000000000000000000000000000000000000000000000000000000000000000000000000000000000000000000000000000000000000000000000000000000000000000000000000000000000000000000000000000000000000
310
00000000000000000000000000000000000000000000000000000000000000000000000000000000000000000000000000000000000000000000000000000000000000000000000000000000000000000000000000000000000000000000000000000000000000000000000000000000000000000000000000000000000000
310
00000000000000000000000000000000000000000000000000000000000000000000000000000000000000000000000000000000000000000000000000000000000000000000000000000000000000000000000000000000000000000000000000000000000000000000000000000000000000000000000000000300000000
310
00000000000000000000000000000000000000000000000000000000000000000000000000000000000000000000000000000000000000000000000000000000000000000000000000000000000000000000000000000000000000000000000000000000000000000000000000000000000000000000000000000000000000
310
00000000000000000000000000000000000000000000000000000000000000000000000002020202020202020202020203020202020202020202020202000000000000000000000000000200000000000000000000000000000000000000000000000000000000000000000000000000000000000000000000000000000000
310
00000000000000000000000000000000000000000000000000000000000000000000000000000000000000000000000000000000000000000000000000000000000000000000000000000000000000000000000000000000020000000000000000000000000300000000000000000000000200000000000000000000000002
310
02000000000000000000000000000000000000000000000000000000000000000000000000000000000000000000000000000000000000000000000000000000000000000000000000000000000000000000000000000000000000000000000000000000000000000000000000000000000000000000000000000000000000
310
00000000000000000000000000000200000000000202000000000003000000000002020000000002000000000000000000000000020202000000000000000000000000000000000000000000000000000000000000000000000000000000000000000000000000000000000000000000000000000000000000000000000000
310
00000000000000000000000000000000000000000000000000000000000000000000000000000000000000000000000000000000000000000000000000000000000000020000000000020200000000000300000000000202000000000200000000000000000000000002000200000000000000000000000000000000000000
310
00000000000000000000000000000000000000000000000000000000000000000000000000000000000000000000000000000000000000000000000000000000000000000000000000000000000000000000000000000000000000000000000000000000000000000000000000000000000000000000000002000000000000
310
00000000000003000000000000000000000002000000000000000000000000020002000000000000000000000000000000000000000000000000000000000000000000000000000000000000000000000000000000000000000000000000000000000000000000000000000000000000000000000000000000000000000000
310
00000000000000000000000000000000000000000000000000000000000000000000000000000000000000000000020000020000000202020000000300000202020000000200000200000000000000000000000002000200000000000000000000000000000000000000000000000000000000000000000000000000000000
310
00000000000000000000000000000000000000000000000000000000000000000000000000000000000000000000000000000000000000000000000000000000000000000000000000000000000000000000000000000000000000000000000000000002000202000002020202020000030002020202020200020200020000
310
00000000000000000000020002000000000000000000000000000000000000000000000000000000000000000000000000000000000000000000000000000000000000000000000000000000000000000000000000000000000000000000000000000000000000000000000000000000000000000000000000000000000000
310
00000000000000000000000000000000000000000000000000020000000002020000000202000302020000000202000000000200000000000000000000000002000200000000000000000000000000000000000000000000000000000000000000000000000000000000000000000000000000000000000000000000000000
310
00000000000000000000000000000000000000000000000000000000000000000000000000000000000000000000000000000000000000000000000000000000000000000000000000000000000002000000000202000000020200030202000000020202000000020000000000000000000000000200020000000000000000
310
00000000000000000000000000000000000000000000000000000000000000000000000000000000000000000000000000000000000000000000000000000000000000000000000000000000000000000000000000000000000000000000000000000000000000000000000000000000000000000000000000000000000000
310
00000000020000000000020000000202020300020000000202020000000200000000000000000000000002000200000000000000000000000000000000000000000000000000000000000000000000000000000000000000000000000000000000000000000000000000000000000000000000000000000000000000000000
310
00000000000000000000000000000000000000000000000000000000000000000000000000000000000000000000000000000000000000000002000000000002020202020000A100020202020202000000000200000000000000A1000000000200020000000000000000000000000000000000000000000000000000000000
310
00000000000000000000000000000000000000000000000000000000000000000000000000000000000000000000000000000000000000000000000000000000000000000000000000000000000000000000000000000000000000000000000000000000000000000000000000000200000000000002020000A1A103A10002
310
02020000000000000200000000000000A1A1A1A1A1A100A1A1000000000000000000000000000000000000000000000000000000000000000000000000000000000000000000000000000000000000000000000000000000000000000000000000000000000000000000000000000000000000000000000000000000000000
310
0000000000000000000000000000000000000000000000000000000000000000000000030303030303030303030303A1030303A10303030303030303030303030000000003A1030303030303A1A103000000000000000000000000000000000000000000000000000000000000000000000000000000000000000000000000
310
00000000000000000000000000000000000000000000000000000000000000000000000000000000000000000000000000000000000000000000000000000000000000000000000000000000000000000000000000000000000200000000000000000202A1000300A10202000000000000000200000000000000A100000000
310
0200A1A1000000000000000000000000000000000000000000000000000000000000000000000000000000000000000000000000000000000000000000000000000000000000000000000000000000000000000000000000000000000000000000000000000000000000000000000000000000000000000000000000000000
310
0000000000000000000000000000000200000000000000020200A10003A1000002020000000000000200000000000000A1A1A1A1A1A100A1A100000000000000000000000000000000000000000000000000000000000000000000000000000000000000000000000000000000000000000000000000000000000000000000
310
0000000000000000000000000000000000000000000000000000000000000000000000000000000000000000000000000000000000000000000000000000000000000000020000000000020202020200A1A100020202020202000000000200000000000000A100000000020002000000000000000000000000000000000000
310
00000000000000000000000000000000000000000000000000000000000000000000000000000000000000000000000000000000000000000000000000000000000000000000000000000000000000000000000000000000000000000000000000000000000000000000000000000000000000000000000000020000000002
310
02000000020202030202000000020200000000020000000000000000000000000200020000000000000000000000000000000000000000000000000000000000000000000000000000000000000000000000000000000000000000000000000000000000000000000000000000000000000000000000000000000000000000
310
00000000000000000000000000000000000000000000000000000000000000000000000000000000000000000000000200000000020200000002020003020200000002020200000002000000000000000000000000020002000000000000000000000000000000000000000000000000000000000000000000000000000000
310
00000000000000000000000000000000000000000000000000000000000000000000000000000000000000000000000000000000000000000000000000000000000000000000000000000000000000000000000000000000000000000000000000000000020000020000020000000202000300020000000202020200000200
310
00000000000000000000000200020000000000000000000000000000000000000000000000000000000000000000000000000000000000000000000000000000000000000000000000000000000000000000000000000000000000000000000000000000000000000000000000000000000000000000000000000000000000
310
00000000000000000000000000000000000000000000000000000200020200000202020202000003000202020202020002020002000000000000000000000000020002000000000000000000000000000000000000000000000000000000000000000000000000000000000000000000000000000000000000000000000000
310
00000000000000000000000000000000000000000000000000000000000000000000000000000000000000000000000000000000000000000000000000000000000000000000000000000000000000020000000000000202020000000300000202020000000000000200000000000000000000000002000200000000000000
310
00000000000000000000000000000000000000000000000000000000000000000000000000000000000000000000000000000000000000000000000000000000000000000000000000000000000000000000000000000000000000000000000000000000000000000000000000000000000000000000000000000000000000
310
00000000000200000000000000000000000003000000000000000000000002000000000000000000000000020002000000000000000000000000000000000000000000000000000000000000000000000000000000000000000000000000000000000000000000000000000000000000000000000000000000000000000000
310
00000000000000000000000000000000000000000000000000000000000000000000000000000000000000000000000000000000000000000000020000000000020200000000000300000000000202000000000200000000000000000000000002000200000000000000000000000000000000000000000000000000000000
310
00000000000000000000000000000000000000000000000000000000000000000000000000000000000000000000000000000000000000000000000000000000000000000000000000000000000000000000000000000000000000000000000000000000000000000000000000000002000000000002020000000000030000
310
00000002020000000002000000000000000000000000020202000000000000000000000000000000000000000000000000000000000000000000000000000000000000000000000000000000000000000000000000000000000000000000000000000000000000000000000000000000000000000000000000000000000000
310
00000000000000000000000000000000000000000000000000000000000000000000000000020000000000000000000000000300000000000000000000000200000000000000000000000002020000000000000000000000000000000000000000000000000000000000000000000000000000000000000000000000000000
310
00000000000000000000000000000000000000000000000000000000000000000000000000000000000000000000000000000000000000000000000000000000000000000000000000000000000000000000000000000000000000020202020202020202020202030202020202020202020202020000000000000000000000
310
00000200000000000000000000000000000000000000000000000000000000000000000000000000000000000000000000000000000000000000000000000000000000000000000000000000000000000000000000000000000000000000000000000000000000000000000000000000000000000000000000000000000000
310
00000000000000000000000000000000000000000000000000000000000000000000000000000000000000000000000000000000000000000000000000000000000000000000000000000000000000000000000000000000000000000000000000000000000000000000000000000000000000000000000000000000000000
310
00000000000000000000000000000000000000000000000000000000000000000000000000000000000000000000000000000000000000000000000000000000000000000000000000000000000000000000000000000000000000000000000000000000000000000000000000000000000000000000000000000000000000
310
00000000000000000000000000000000000000000000000000000000000000000000000000000000000000000000000000000000000000000000000000000000000000000000000000000000000000000000000000000000000000000000000000000000000000000000000000000000000000000000000000000000000000
310
000000000000000000000000000000000000000000000000000000000000000000000000000000000000000000000000000000000000000000000000000000000000000000000000000000000000000000000000000000000000000000000000000000000000000000000000
  0
ENDSEC
  0
EOF
