  0
SECTION
  2
HEADER
  9
$ACADVER
  1
AC1015
  9
$ACADMAINTVER
 70
     6
  9
$DWGCODEPAGE
  3
ANSI_932
  9
$INSBASE
 10
0.0
 20
0.0
 30
0.0
  9
$EXTMIN
 10
71.77593495181492
 20
40.0
 30
0.0
  9
$EXTMAX
 10
372.0
 20
498.7596035387823
 30
0.0
  9
$LIMMIN
 10
71.77593495181492
 20
40.0
  9
$LIMMAX
 10
372.0
 20
498.7596035387823
  9
$ORTHOMODE
 70
     0
  9
$REGENMODE
 70
     1
  9
$FILLMODE
 70
     1
  9
$QTEXTMODE
 70
     0
  9
$MIRRTEXT
 70
     1
  9
$LTSCALE
 40
0.2649005584738375
  9
$ATTMODE
 70
     1
  9
$TEXTSIZE
 40
2.5
  9
$TRACEWID
 40
1.0
  9
$TEXTSTYLE
  7
Standard
  9
$CLAYER
  8
0
  9
$CELTYPE
  6
ByLayer
  9
$CECOLOR
 62
   256
  9
$CELTSCALE
 40
1.0
  9
$DISPSILH
 70
     0
  9
$DIMSCALE
 40
1.0
  9
$DIMASZ
 40
2.5
  9
$DIMEXO
 40
0.625
  9
$DIMDLI
 40
3.75
  9
$DIMRND
 40
0.0
  9
$DIMDLE
 40
0.0
  9
$DIMEXE
 40
1.25
  9
$DIMTP
 40
0.0
  9
$DIMTM
 40
0.0
  9
$DIMTXT
 40
2.5
  9
$DIMCEN
 40
2.5
  9
$DIMTSZ
 40
0.0
  9
$DIMTOL
 70
     0
  9
$DIMLIM
 70
     0
  9
$DIMTIH
 70
     0
  9
$DIMTOH
 70
     0
  9
$DIMSE1
 70
     0
  9
$DIMSE2
 70
     0
  9
$DIMTAD
 70
     1
  9
$DIMZIN
 70
     0
  9
$DIMBLK
  1

  9
$DIMASO
 70
     1
  9
$DIMSHO
 70
     1
  9
$DIMPOST
  1

  9
$DIMAPOST
  1

  9
$DIMALT
 70
     0
  9
$DIMALTD
 70
     3
  9
$DIMALTF
 40
0.03937007874016
  9
$DIMLFAC
 40
1.0
  9
$DIMTOFL
 70
     1
  9
$DIMTVP
 40
0.0
  9
$DIMTIX
 70
     0
  9
$DIMSOXD
 70
     0
  9
$DIMSAH
 70
     0
  9
$DIMBLK1
  1

  9
$DIMBLK2
  1

  9
$DIMSTYLE
  2
Standard
  9
$DIMCLRD
 70
     0
  9
$DIMCLRE
 70
     0
  9
$DIMCLRT
 70
     0
  9
$DIMTFAC
 40
0.75
  9
$DIMGAP
 40
0.625
  9
$DIMJUST
 70
     0
  9
$DIMSD1
 70
     0
  9
$DIMSD2
 70
     0
  9
$DIMTOLJ
 70
     0
  9
$DIMTZIN
 70
     8
  9
$DIMALTZ
 70
     0
  9
$DIMALTTZ
 70
     0
  9
$DIMUPT
 70
     0
  9
$DIMDEC
 70
     2
  9
$DIMTDEC
 70
     2
  9
$DIMALTU
 70
     2
  9
$DIMALTTD
 70
     3
  9
$DIMTXSTY
  7
Standard
  9
$DIMAUNIT
 70
     0
  9
$DIMADEC
 70
     0
  9
$DIMALTRND
 40
0.0
  9
$DIMAZIN
 70
     0
  9
$DIMDSEP
 70
    46
  9
$DIMATFIT
 70
     3
  9
$DIMFRAC
 70
     0
  9
$DIMLDRBLK
  1

  9
$DIMLUNIT
 70
     2
  9
$DIMLWD
 70
    -2
  9
$DIMLWE
 70
    -2
  9
$DIMTMOVE
 70
     0
  9
$LUNITS
 70
     2
  9
$LUPREC
 70
     4
  9
$SKETCHINC
 40
1.0
  9
$FILLETRAD
 40
10.0
  9
$AUNITS
 70
     0
  9
$AUPREC
 70
     0
  9
$MENU
  1
.
  9
$ELEVATION
 40
0.0
  9
$PELEVATION
 40
0.0
  9
$THICKNESS
 40
0.0
  9
$LIMCHECK
 70
     0
  9
$CHAMFERA
 40
10.0
  9
$CHAMFERB
 40
10.0
  9
$CHAMFERC
 40
20.0
  9
$CHAMFERD
 40
0.0
  9
$SKPOLY
 70
     0
  9
$TDCREATE
 40
2457922.721435891
  9
$TDUCREATE
 40
2457922.346435891
  9
$TDUPDATE
 40
2457922.721436435
  9
$TDUUPDATE
 40
2457922.346436435
  9
$TDINDWG
 40
0.0000000116
  9
$TDUSRTIMER
 40
0.0000000116
  9
$USRTIMER
 70
     1
  9
$ANGBASE
 50
0.0
  9
$ANGDIR
 70
     0
  9
$PDMODE
 70
     0
  9
$PDSIZE
 40
0.0
  9
$PLINEWID
 40
0.0
  9
$SPLFRAME
 70
     0
  9
$SPLINETYPE
 70
     6
  9
$SPLINESEGS
 70
     8
  9
$HANDSEED
  5
1E6
  9
$SURFTAB1
 70
     6
  9
$SURFTAB2
 70
     6
  9
$SURFTYPE
 70
     6
  9
$SURFU
 70
     6
  9
$SURFV
 70
     6
  9
$UCSBASE
  2

  9
$UCSNAME
  2

  9
$UCSORG
 10
0.0
 20
0.0
 30
0.0
  9
$UCSXDIR
 10
1.0
 20
0.0
 30
0.0
  9
$UCSYDIR
 10
0.0
 20
1.0
 30
0.0
  9
$UCSORTHOREF
  2

  9
$UCSORTHOVIEW
 70
     0
  9
$UCSORGTOP
 10
0.0
 20
0.0
 30
0.0
  9
$UCSORGBOTTOM
 10
0.0
 20
0.0
 30
0.0
  9
$UCSORGLEFT
 10
0.0
 20
0.0
 30
0.0
  9
$UCSORGRIGHT
 10
0.0
 20
0.0
 30
0.0
  9
$UCSORGFRONT
 10
0.0
 20
0.0
 30
0.0
  9
$UCSORGBACK
 10
0.0
 20
0.0
 30
0.0
  9
$PUCSBASE
  2

  9
$PUCSNAME
  2

  9
$PUCSORG
 10
0.0
 20
0.0
 30
0.0
  9
$PUCSXDIR
 10
1.0
 20
0.0
 30
0.0
  9
$PUCSYDIR
 10
0.0
 20
1.0
 30
0.0
  9
$PUCSORTHOREF
  2

  9
$PUCSORTHOVIEW
 70
     0
  9
$PUCSORGTOP
 10
0.0
 20
0.0
 30
0.0
  9
$PUCSORGBOTTOM
 10
0.0
 20
0.0
 30
0.0
  9
$PUCSORGLEFT
 10
0.0
 20
0.0
 30
0.0
  9
$PUCSORGRIGHT
 10
0.0
 20
0.0
 30
0.0
  9
$PUCSORGFRONT
 10
0.0
 20
0.0
 30
0.0
  9
$PUCSORGBACK
 10
0.0
 20
0.0
 30
0.0
  9
$USERI1
 70
     0
  9
$USERI2
 70
     0
  9
$USERI3
 70
     0
  9
$USERI4
 70
     0
  9
$USERI5
 70
     0
  9
$USERR1
 40
0.0
  9
$USERR2
 40
0.0
  9
$USERR3
 40
0.0
  9
$USERR4
 40
0.0
  9
$USERR5
 40
0.0
  9
$WORLDVIEW
 70
     1
  9
$SHADEDGE
 70
     3
  9
$SHADEDIF
 70
    70
  9
$TILEMODE
 70
     1
  9
$MAXACTVP
 70
    64
  9
$PINSBASE
 10
0.0
 20
0.0
 30
0.0
  9
$PLIMCHECK
 70
     0
  9
$PEXTMIN
 10
1.000000000000000E+20
 20
1.000000000000000E+20
 30
1.000000000000000E+20
  9
$PEXTMAX
 10
-1.000000000000000E+20
 20
-1.000000000000000E+20
 30
-1.000000000000000E+20
  9
$PLIMMIN
 10
0.0
 20
0.0
  9
$PLIMMAX
 10
420.0
 20
297.0
  9
$UNITMODE
 70
     0
  9
$VISRETAIN
 70
     1
  9
$PLINEGEN
 70
     0
  9
$PSLTSCALE
 70
     0
  9
$TREEDEPTH
 70
  3020
  9
$CMLSTYLE
  2
Standard
  9
$CMLJUST
 70
     0
  9
$CMLSCALE
 40
20.0
  9
$PROXYGRAPHICS
 70
     1
  9
$MEASUREMENT
 70
     1
  9
$CELWEIGHT
370
    -1
  9
$ENDCAPS
280
     0
  9
$JOINSTYLE
280
     0
  9
$LWDISPLAY
290
     0
  9
$INSUNITS
 70
     4
  9
$HYPERLINKBASE
  1

  9
$STYLESHEET
  1

  9
$XEDIT
290
     1
  9
$CEPSNTYPE
380
     0
  9
$PSTYLEMODE
290
     1
  9
$FINGERPRINTGUID
  2
{4BF9AB0B-D7FA-4051-91B2-A091A4208C12}
  9
$VERSIONGUID
  2
{FAEB1C32-E019-11D5-929B-00C0DF256EC4}
  9
$EXTNAMES
290
     1
  9
$PSVPSCALE
 40
0.0
  9
$OLESTARTUP
290
     0
  0
ENDSEC
  0
SECTION
  2
CLASSES
  0
CLASS
  1
ACDBDICTIONARYWDFLT
  2
AcDbDictionaryWithDefault
  3
ObjectDBX Classes
 90
        0
280
     0
281
     0
  0
CLASS
  1
VISUALSTYLE
  2
AcDbVisualStyle
  3
ObjectDBX Classes
 90
     4095
280
     0
281
     0
  0
CLASS
  1
MATERIAL
  2
AcDbMaterial
  3
ObjectDBX Classes
 90
     1153
280
     0
281
     0
  0
CLASS
  1
SCALE
  2
AcDbScale
  3
ObjectDBX Classes
 90
     1153
280
     0
281
     0
  0
CLASS
  1
DICTIONARYVAR
  2
AcDbDictionaryVar
  3
ObjectDBX Classes
 90
        0
280
     0
281
     0
  0
CLASS
  1
ACDBPLACEHOLDER
  2
AcDbPlaceHolder
  3
ObjectDBX Classes
 90
        0
280
     0
281
     0
  0
CLASS
  1
LAYOUT
  2
AcDbLayout
  3
ObjectDBX Classes
 90
        0
280
     0
281
     0
  0
ENDSEC
  0
SECTION
  2
TABLES
  0
TABLE
  2
VPORT
  5
8
330
0
100
AcDbSymbolTable
 70
     1
  0
VPORT
  5
29
330
8
100
AcDbSymbolTableRecord
100
AcDbViewportTableRecord
  2
*Active
 70
     0
 10
0.0
 20
0.0
 11
1.0
 21
1.0
 12
221.8879674759075
 22
269.3798017693912
 13
0.0
 23
0.0
 14
10.0
 24
10.0
 15
10.0
 25
10.0
 16
0.0
 26
0.0
 36
1.0
 17
0.0
 27
0.0
 37
0.0
 40
504.6355638926606
 41
1.333333333333333
 42
50.0
 43
0.0
 44
0.0
 50
0.0
 51
0.0
 71
     0
 72
 20000
 73
     1
 74
     3
 75
     0
 76
     0
 77
     0
 78
     0
281
     0
 65
     1
110
0.0
120
0.0
130
0.0
111
1.0
121
0.0
131
0.0
112
0.0
122
1.0
132
0.0
 79
     0
146
0.0
  0
ENDTAB
  0
TABLE
  2
LTYPE
  5
5
330
0
100
AcDbSymbolTable
 70
     7
  0
LTYPE
  5
14
330
5
100
AcDbSymbolTableRecord
100
AcDbLinetypeTableRecord
  2
ByBlock
 70
     0
  3

 72
    65
 73
     0
 40
0.0
  0
LTYPE
  5
15
330
5
100
AcDbSymbolTableRecord
100
AcDbLinetypeTableRecord
  2
ByLayer
 70
     0
  3

 72
    65
 73
     0
 40
0.0
  0
LTYPE
  5
16
330
5
100
AcDbSymbolTableRecord
100
AcDbLinetypeTableRecord
  2
Continuous
 70
     0
  3
Solid line
 72
    65
 73
     0
 40
0.0
  0
LTYPE
  5
40
330
5
100
AcDbSymbolTableRecord
100
AcDbLinetypeTableRecord
  2
DASHED
 70
     0
  3
ICAD/SX(2) Dashed __ __ __ __ __ __ __ __ __ __ __ __ __ _
 72
    65
 73
     2
 40
19.05
 49
12.7
 74
     0
 49
-6.35
 74
     0
  0
LTYPE
  5
41
330
5
100
AcDbSymbolTableRecord
100
AcDbLinetypeTableRecord
  2
CENTER
 70
     0
  3
ICAD/SX(3) Center ____ _ ____ _ ____ _ ____ _ ____ _ ____
 72
    65
 73
     4
 40
50.8
 49
31.75
 74
     0
 49
-6.35
 74
     0
 49
6.35
 74
     0
 49
-6.35
 74
     0
  0
LTYPE
  5
42
330
5
100
AcDbSymbolTableRecord
100
AcDbLinetypeTableRecord
  2
PHANTOM
 70
     0
  3
ICAD/SX(4) Phantom ______  __  __  ______  __  __  ______
 72
    65
 73
     6
 40
63.5
 49
31.75
 74
     0
 49
-6.35
 74
     0
 49
6.35
 74
     0
 49
-6.35
 74
     0
 49
6.35
 74
     0
 49
-6.35
 74
     0
  0
LTYPE
  5
43
330
5
100
AcDbSymbolTableRecord
100
AcDbLinetypeTableRecord
  2
DOT
 70
     0
  3
ICAD/SX(5) Dot . . . . . . . . . . . . . . . . . . . . . . . .
 72
    65
 73
     2
 40
6.35
 49
0.0
 74
     0
 49
-6.35
 74
     0
  0
LTYPE
  5
44
330
5
100
AcDbSymbolTableRecord
100
AcDbLinetypeTableRecord
  2
HIDDEN
 70
     0
  3
ICAD/SX(6) Hidden __ __ __ __ __ __ __ __ __ __ __ __ __ __
 72
    65
 73
     2
 40
9.525
 49
6.35
 74
     0
 49
-3.175
 74
     0
  0
LTYPE
  5
45
330
5
100
AcDbSymbolTableRecord
100
AcDbLinetypeTableRecord
  2
DOTSX
 70
     0
  3
ICAD/SX(5) Dot . . . . . . . . . . . . . . . . . . . . . . . .
 72
    65
 73
     2
 40
6.35
 49
3.175
 74
     0
 49
-3.175
 74
     0
  0
ENDTAB
  0
TABLE
  2
LAYER
  5
2
330
0
100
AcDbSymbolTable
 70
     6
  0
LAYER
  5
10
330
2
100
AcDbSymbolTableRecord
100
AcDbLayerTableRecord
  2
0
 70
     0
 62
     7
  6
Continuous
370
    -3
390
F
  0
LAYER
  5
46
330
2
100
AcDbSymbolTableRecord
100
AcDbLayerTableRecord
  2
NoLayerName_001
 70
     0
 62
     7
  6
Continuous
370
    -3
390
F
  0
LAYER
  5
47
330
2
100
AcDbSymbolTableRecord
100
AcDbLayerTableRecord
  2
NoLayerName_002
 70
     0
 62
     7
  6
Continuous
370
    -3
390
F
  0
LAYER
  5
48
330
2
100
AcDbSymbolTableRecord
100
AcDbLayerTableRecord
  2
NoLayerName_003
 70
     0
 62
     7
  6
Continuous
370
    -3
390
F
  0
LAYER
  5
49
330
2
100
AcDbSymbolTableRecord
100
AcDbLayerTableRecord
  2
Defpoints
 70
     0
 62
     7
  6
Continuous
290
     0
370
    -3
390
F
  0
LAYER
  5
4A
330
2
100
AcDbSymbolTableRecord
100
AcDbLayerTableRecord
  2
SX_DraftLine
 70
     0
 62
     7
  6
Continuous
290
     0
370
    -3
390
F
  0
ENDTAB
  0
TABLE
  2
STYLE
  5
3
330
0
100
AcDbSymbolTable
 70
     2
  0
STYLE
  5
11
330
3
100
AcDbSymbolTableRecord
100
AcDbTextStyleTableRecord
  2
Standard
 70
     0
 40
0.0
 41
1.0
 50
0.0
 71
     0
 42
2.5
  3
txt
  4
extfont2
  0
STYLE
  5
3F
330
3
100
AcDbSymbolTableRecord
100
AcDbTextStyleTableRecord
  2

 70
     1
 40
0.0
 41
1.0
 50
0.0
 71
     0
 42
2.5
  3
ltypeshp.shx
  4

  0
ENDTAB
  0
TABLE
  2
VIEW
  5
6
330
0
100
AcDbSymbolTable
 70
     0
  0
ENDTAB
  0
TABLE
  2
UCS
  5
7
330
0
100
AcDbSymbolTable
 70
     0
  0
ENDTAB
  0
TABLE
  2
APPID
  5
9
330
0
100
AcDbSymbolTable
 70
     1
  0
APPID
  5
12
330
9
100
AcDbSymbolTableRecord
100
AcDbRegAppTableRecord
  2
ACAD
 70
     0
  0
ENDTAB
  0
TABLE
  2
DIMSTYLE
  5
A
330
0
100
AcDbSymbolTable
 70
     1
100
AcDbDimStyleTable
  0
DIMSTYLE
105
27
330
A
100
AcDbSymbolTableRecord
100
AcDbDimStyleTableRecord
  2
Standard
 70
     0
 41
2.5
 42
0.625
 43
3.75
 44
1.25
 73
     0
 74
     0
 77
     1
140
2.5
141
2.5
143
0.03937007874016
146
0.75
147
0.625
171
     3
172
     1
178
     0
271
     2
272
     2
274
     3
283
     0
284
     8
340
11
  0
ENDTAB
  0
TABLE
  2
BLOCK_RECORD
  5
1
330
0
100
AcDbSymbolTable
 70
     1
  0
BLOCK_RECORD
  5
1F
330
1
100
AcDbSymbolTableRecord
100
AcDbBlockTableRecord
  2
*Model_Space
340
22
  0
BLOCK_RECORD
  5
1B
330
1
100
AcDbSymbolTableRecord
100
AcDbBlockTableRecord
  2
*Paper_Space
340
1E
  0
BLOCK_RECORD
  5
23
330
1
100
AcDbSymbolTableRecord
100
AcDbBlockTableRecord
  2
*Paper_Space0
340
0
  0
ENDTAB
  0
ENDSEC
  0
SECTION
  2
BLOCKS
  0
BLOCK
  5
20
330
1F
100
AcDbEntity
  8
0
100
AcDbBlockBegin
  2
*Model_Space
 70
     0
 10
0.0
 20
0.0
 30
0.0
  3
*Model_Space
  1

  0
ENDBLK
  5
21
330
1F
100
AcDbEntity
  8
0
100
AcDbBlockEnd
  0
BLOCK
  5
1C
330
1B
100
AcDbEntity
 67
     1
  8
0
100
AcDbBlockBegin
  2
*Paper_Space
 70
     0
 10
0.0
 20
0.0
 30
0.0
  3
*Paper_Space
  1

  0
ENDBLK
  5
1D
330
1B
100
AcDbEntity
 67
     1
  8
0
100
AcDbBlockEnd
  0
BLOCK
  5
24
330
23
100
AcDbEntity
  8
0
100
AcDbBlockBegin
  2
*Paper_Space0
 70
     0
 10
0.0
 20
0.0
 30
0.0
  3
*Paper_Space0
  1

  0
ENDBLK
  5
25
330
23
100
AcDbEntity
  8
0
100
AcDbBlockEnd
  0
ENDSEC
  0
SECTION
  2
ENTITIES
  0
POINT
  5
4B
330
1F
100
AcDbEntity
  8
NoLayerName_001
  6
Continuous
 62
     7
 60
     1
370
    50
100
AcDbPoint
 10
0.0
 20
0.0
 30
0.0
  0
LINE
  5
4C
330
1F
100
AcDbEntity
  8
NoLayerName_001
  6
Continuous
 62
    30
370
    50
100
AcDbLine
 10
112.4130170851585
 20
289.9154604207239
 30
0.0
 11
132.4130170851585
 21
289.9154604207239
 31
0.0
  0
LINE
  5
4D
330
1F
100
AcDbEntity
  8
NoLayerName_001
  6
Continuous
 62
    30
370
    50
100
AcDbLine
 10
112.4130170851585
 20
259.4154604207239
 30
0.0
 11
132.4130170851585
 21
259.4154604207239
 31
0.0
  0
LINE
  5
4E
330
1F
100
AcDbEntity
  8
NoLayerName_001
  6
Continuous
 62
    30
370
    50
100
AcDbLine
 10
112.4130170851585
 20
243.6622728271754
 30
0.0
 11
132.4130170851585
 21
243.6622728271754
 31
0.0
  0
LINE
  5
4F
330
1F
100
AcDbEntity
  8
NoLayerName_001
  6
Continuous
 62
    30
370
    50
100
AcDbLine
 10
132.4130170851585
 20
240.1622728271754
 30
0.0
 11
110.4130170851585
 21
240.1622728271754
 31
0.0
  0
LINE
  5
50
330
1F
100
AcDbEntity
  8
NoLayerName_001
  6
Continuous
 62
    30
370
    50
100
AcDbLine
 10
123.4130170851585
 20
290.9154604207239
 30
0.0
 11
112.4130170851585
 21
290.9154604207239
 31
0.0
  0
LINE
  5
51
330
1F
100
AcDbEntity
  8
NoLayerName_001
  6
Continuous
 62
    30
370
    50
100
AcDbLine
 10
123.4130170851585
 20
258.4154604207239
 30
0.0
 11
112.4130170851585
 21
258.4154604207239
 31
0.0
  0
LINE
  5
52
330
1F
100
AcDbEntity
  8
NoLayerName_001
  6
Continuous
 62
    30
370
    50
100
AcDbLine
 10
150.3425301618486
 20
296.9924933821508
 30
0.0
 11
150.3425301618486
 21
282.6654604207239
 31
0.0
  0
LINE
  5
53
330
1F
100
AcDbEntity
  8
NoLayerName_001
  6
Continuous
 62
    30
370
    50
100
AcDbLine
 10
146.8425301618487
 20
296.9924933821508
 30
0.0
 11
150.3425301618486
 21
296.9924933821508
 31
0.0
  0
LINE
  5
54
330
1F
100
AcDbEntity
  8
NoLayerName_001
  6
Continuous
 62
    30
370
    50
100
AcDbLine
 10
146.8425301618487
 20
252.338427459297
 30
0.0
 11
150.3425301618486
 21
252.338427459297
 31
0.0
  0
LINE
  5
55
330
1F
100
AcDbEntity
  8
NoLayerName_001
  6
Continuous
 62
    30
370
    50
100
AcDbLine
 10
150.3425301618486
 20
252.338427459297
 30
0.0
 11
150.3425301618486
 21
266.6654604207239
 31
0.0
  0
LINE
  5
56
330
1F
100
AcDbEntity
  8
NoLayerName_001
  6
Continuous
 62
    30
370
    50
100
AcDbLine
 10
112.4130170851585
 20
243.6622728271754
 30
0.0
 11
112.4130170851585
 21
233.6622728271754
 31
0.0
  0
LINE
  5
57
330
1F
100
AcDbEntity
  8
NoLayerName_001
  6
Continuous
 62
    30
370
    50
100
AcDbLine
 10
123.4130170851585
 20
290.9154604207239
 30
0.0
 11
124.4130170851585
 21
291.9154604207239
 31
0.0
  0
LINE
  5
58
330
1F
100
AcDbEntity
  8
NoLayerName_001
  6
Continuous
 62
    30
370
    50
100
AcDbLine
 10
124.4130170851585
 20
257.4154604207239
 30
0.0
 11
123.4130170851585
 21
258.4154604207239
 31
0.0
  0
CIRCLE
  5
59
330
1F
100
AcDbEntity
  8
NoLayerName_001
  6
Continuous
 62
    30
370
    50
100
AcDbCircle
 10
112.1130170851585
 20
274.6654604207239
 30
0.0
 40
1.5
  0
LINE
  5
5A
330
1F
100
AcDbEntity
  8
NoLayerName_001
  6
Continuous
 62
    30
370
    50
100
AcDbLine
 10
132.4130170851585
 20
243.6622728271754
 30
0.0
 11
132.4130170851585
 21
231.6622728271754
 31
0.0
  0
LINE
  5
5B
330
1F
100
AcDbEntity
  8
NoLayerName_001
  6
Continuous
 62
    30
370
    50
100
AcDbLine
 10
124.4130170851585
 20
243.6622728271754
 30
0.0
 11
124.4130170851585
 21
240.1622728271753
 31
0.0
  0
ARC
  5
5C
330
1F
100
AcDbEntity
  8
NoLayerName_001
  6
Continuous
 62
    30
370
    50
100
AcDbCircle
 10
112.1130170851585
 20
274.6654604207239
 30
0.0
 40
2.5
100
AcDbArc
 50
270.0
 51
90.0
  0
LINE
  5
5D
330
1F
100
AcDbEntity
  8
NoLayerName_001
  6
Continuous
 62
    30
370
    50
100
AcDbLine
 10
126.6130170851585
 20
243.6622728271754
 30
0.0
 11
126.6130170851585
 21
240.1622728271753
 31
0.0
  0
LINE
  5
5E
330
1F
100
AcDbEntity
  8
NoLayerName_001
  6
Continuous
 62
    30
370
    50
100
AcDbLine
 10
130.2130170851585
 20
243.6622728271754
 30
0.0
 11
130.2130170851585
 21
240.1622728271753
 31
0.0
  0
LINE
  5
5F
330
1F
100
AcDbEntity
  8
NoLayerName_001
  6
Continuous
 62
    30
370
    50
100
AcDbLine
 10
99.99196445357951
 20
233.6622728271754
 30
0.0
 11
112.4130170851584
 21
233.6622728271754
 31
0.0
  0
LINE
  5
60
330
1F
100
AcDbEntity
  8
NoLayerName_001
  6
Continuous
 62
    30
370
    50
100
AcDbLine
 10
152.3425301618486
 20
280.6654604207239
 30
0.0
 11
182.8425301618485
 21
280.6654604207239
 31
0.0
  0
LINE
  5
61
330
1F
100
AcDbEntity
  8
NoLayerName_001
  6
Continuous
 62
    30
370
    50
100
AcDbLine
 10
152.3425301618486
 20
268.6654604207239
 30
0.0
 11
182.8425301618487
 21
268.6654604207239
 31
0.0
  0
LINE
  5
62
330
1F
100
AcDbEntity
  8
NoLayerName_001
  6
Continuous
 62
    30
370
    50
100
AcDbLine
 10
102.0258963432505
 20
241.6622728271754
 30
0.0
 11
102.2130170851585
 21
241.6622728271754
 31
0.0
  0
LINE
  5
63
330
1F
100
AcDbEntity
  8
NoLayerName_001
  6
Continuous
 62
    30
370
    50
100
AcDbLine
 10
146.8425301618487
 20
259.4154604207239
 30
0.0
 11
148.3425301618487
 21
259.4154604207239
 31
0.0
  0
LINE
  5
64
330
1F
100
AcDbEntity
  8
NoLayerName_001
  6
Continuous
 62
    30
370
    50
100
AcDbLine
 10
150.3425301618486
 20
288.6654604207239
 30
0.0
 11
155.3425301618486
 21
280.6654604207239
 31
0.0
  0
LINE
  5
65
330
1F
100
AcDbEntity
  8
NoLayerName_001
  6
Continuous
 62
    30
370
    50
100
AcDbLine
 10
152.8425301618486
 20
284.6654604207239
 30
0.0
 11
156.8425301618487
 21
284.6654604207239
 31
0.0
  0
LINE
  5
66
330
1F
100
AcDbEntity
  8
NoLayerName_001
  6
Continuous
 62
    30
370
    50
100
AcDbLine
 10
146.8425301618487
 20
289.9154604207239
 30
0.0
 11
148.3425301618487
 21
289.9154604207239
 31
0.0
  0
LINE
  5
67
330
1F
100
AcDbEntity
  8
NoLayerName_001
  6
Continuous
 62
    30
370
    50
100
AcDbLine
 10
150.3425301618486
 20
260.6654604207239
 30
0.0
 11
155.3425301618486
 21
268.6654604207239
 31
0.0
  0
LINE
  5
68
330
1F
100
AcDbEntity
  8
NoLayerName_001
  6
Continuous
 62
    30
370
    50
100
AcDbLine
 10
152.8425301618486
 20
264.6654604207239
 30
0.0
 11
156.8425301618487
 21
264.6654604207239
 31
0.0
  0
LINE
  5
69
330
1F
100
AcDbEntity
  8
NoLayerName_001
  6
Continuous
 62
    30
370
    50
100
AcDbLine
 10
158.8425301618486
 20
268.6654604207239
 30
0.0
 11
158.8425301618486
 21
280.6654604207239
 31
0.0
  0
LINE
  5
6A
330
1F
100
AcDbEntity
  8
NoLayerName_001
  6
Continuous
 62
    30
370
    50
100
AcDbLine
 10
152.3425301618486
 20
268.6654604207239
 30
0.0
 11
150.3425301618486
 21
266.6654604207239
 31
0.0
  0
LINE
  5
6B
330
1F
100
AcDbEntity
  8
NoLayerName_001
  6
Continuous
 62
    30
370
    50
100
AcDbLine
 10
152.3425301618486
 20
280.6654604207239
 30
0.0
 11
150.3425301618486
 21
282.6654604207239
 31
0.0
  0
LINE
  5
6C
330
1F
100
AcDbEntity
  8
NoLayerName_001
  6
Continuous
 62
    30
370
    50
100
AcDbLine
 10
110.4130170851585
 20
241.1622728271754
 30
0.0
 11
110.4130170851585
 21
235.6622728271753
 31
0.0
  0
LINE
  5
6D
330
1F
100
AcDbEntity
  8
NoLayerName_001
  6
Continuous
 62
    30
370
    50
100
AcDbLine
 10
111.4130170851585
 20
242.1622728271754
 30
0.0
 11
112.4130170851585
 21
242.1622728271754
 31
0.0
  0
LINE
  5
6E
330
1F
100
AcDbEntity
  8
NoLayerName_001
  6
Continuous
 62
    30
370
    50
100
AcDbLine
 10
112.4130170851585
 20
259.4154604207239
 30
0.0
 11
112.4130170851585
 21
258.4154604207239
 31
0.0
  0
LINE
  5
6F
330
1F
100
AcDbEntity
  8
NoLayerName_001
  6
Continuous
 62
    30
370
    50
100
AcDbLine
 10
112.4130170851585
 20
289.9154604207239
 30
0.0
 11
112.4130170851585
 21
290.9154604207239
 31
0.0
  0
LINE
  5
70
330
1F
100
AcDbEntity
  8
NoLayerName_001
  6
Continuous
 62
    30
370
    50
100
AcDbLine
 10
132.4130170851585
 20
231.6622728271754
 30
0.0
 11
105.4130170851585
 21
217.6622728271754
 31
0.0
  0
LINE
  5
71
330
1F
100
AcDbEntity
  8
NoLayerName_001
  6
Continuous
 62
    30
370
    50
100
AcDbLine
 10
150.3425301618486
 20
278.6654604207239
 30
0.0
 11
150.3425301618486
 21
270.6654604207239
 31
0.0
  0
LINE
  5
72
330
1F
100
AcDbEntity
  8
NoLayerName_001
  6
Continuous
 62
    30
370
    50
100
AcDbLine
 10
150.3425301618486
 20
278.6654604207239
 30
0.0
 11
182.8425301618487
 21
278.6654604207239
 31
0.0
  0
LINE
  5
73
330
1F
100
AcDbEntity
  8
NoLayerName_001
  6
Continuous
 62
    30
370
    50
100
AcDbLine
 10
150.3425301618486
 20
270.6654604207239
 30
0.0
 11
182.8425301618487
 21
270.6654604207239
 31
0.0
  0
LINE
  5
74
330
1F
100
AcDbEntity
  8
NoLayerName_001
  6
Continuous
 62
    30
370
    50
100
AcDbLine
 10
128.1630170851585
 20
235.1622728271754
 30
0.0
 11
128.1630170851585
 21
240.1622728271754
 31
0.0
  0
LINE
  5
75
330
1F
100
AcDbEntity
  8
NoLayerName_001
  6
Continuous
 62
    30
370
    50
100
AcDbLine
 10
126.6630170851585
 20
240.1622728271754
 30
0.0
 11
126.6630170851585
 21
235.1622728271754
 31
0.0
  0
LINE
  5
76
330
1F
100
AcDbEntity
  8
NoLayerName_001
  6
Continuous
 62
    30
370
    50
100
AcDbLine
 10
132.4130170851585
 20
238.1622728271754
 30
0.0
 11
128.1630170851585
 21
238.1622728271754
 31
0.0
  0
LINE
  5
77
330
1F
100
AcDbEntity
  8
NoLayerName_001
  6
Continuous
 62
    30
370
    50
100
AcDbLine
 10
126.6630170851585
 20
235.1622728271754
 30
0.0
 11
128.1630170851585
 21
235.1622728271754
 31
0.0
  0
LINE
  5
78
330
1F
100
AcDbEntity
  8
NoLayerName_001
  6
Continuous
 62
    30
370
    50
100
AcDbLine
 10
118.1630170851585
 20
235.1622728271754
 30
0.0
 11
118.1630170851585
 21
240.1622728271754
 31
0.0
  0
LINE
  5
79
330
1F
100
AcDbEntity
  8
NoLayerName_001
  6
Continuous
 62
    30
370
    50
100
AcDbLine
 10
116.6630170851585
 20
240.1622728271754
 30
0.0
 11
116.6630170851585
 21
235.1622728271754
 31
0.0
  0
LINE
  5
7A
330
1F
100
AcDbEntity
  8
NoLayerName_001
  6
Continuous
 62
    30
370
    50
100
AcDbLine
 10
116.6630170851585
 20
235.1622728271754
 30
0.0
 11
118.1630170851585
 21
235.1622728271754
 31
0.0
  0
LINE
  5
7B
330
1F
100
AcDbEntity
  8
NoLayerName_001
  6
Continuous
 62
    30
370
    50
100
AcDbLine
 10
126.6630170851585
 20
238.1622728271754
 30
0.0
 11
118.1630170851585
 21
238.1622728271754
 31
0.0
  0
LINE
  5
7C
330
1F
100
AcDbEntity
  8
NoLayerName_001
  6
Continuous
 62
    30
370
    50
100
AcDbLine
 10
116.6630170851585
 20
238.1622728271754
 30
0.0
 11
112.4130170851585
 21
238.1622728271754
 31
0.0
  0
LINE
  5
7D
330
1F
100
AcDbEntity
  8
NoLayerName_001
  6
Continuous
 62
    30
370
    50
100
AcDbLine
 10
111.4130170851585
 20
242.1622728271754
 30
0.0
 11
110.4130170851585
 21
241.1622728271754
 31
0.0
  0
LINE
  5
7E
330
1F
100
AcDbEntity
  8
NoLayerName_001
  6
Continuous
 62
    30
370
    50
100
AcDbLine
 10
103.9130170851585
 20
239.9622728271754
 30
0.0
 11
103.9130170851585
 21
235.6622728271754
 31
0.0
  0
LINE
  5
7F
330
1F
100
AcDbEntity
  8
NoLayerName_001
  6
Continuous
 62
    30
370
    50
100
AcDbLine
 10
103.9130170851585
 20
235.6622728271754
 30
0.0
 11
105.4130170851585
 21
235.6622728271754
 31
0.0
  0
LINE
  5
80
330
1F
100
AcDbEntity
  8
NoLayerName_001
  6
Continuous
 62
    30
370
    50
100
AcDbLine
 10
108.4130170851585
 20
235.6622728271754
 30
0.0
 11
110.4130170851585
 21
235.6622728271754
 31
0.0
  0
LINE
  5
81
330
1F
100
AcDbEntity
  8
NoLayerName_001
  6
Continuous
 62
    30
370
    50
100
AcDbLine
 10
102.4130170851585
 20
207.6622728271754
 30
0.0
 11
102.4130170851585
 21
197.1622728271754
 31
0.0
  0
LINE
  5
82
330
1F
100
AcDbEntity
  8
NoLayerName_001
  6
Continuous
 62
    30
370
    50
100
AcDbLine
 10
102.4130170851585
 20
207.6622728271754
 30
0.0
 11
105.4130170851585
 21
217.6622728271754
 31
0.0
  0
LINE
  5
83
330
1F
100
AcDbEntity
  8
NoLayerName_001
  6
Continuous
 62
    30
370
    50
100
AcDbLine
 10
101.6130170851585
 20
197.1622728271754
 30
0.0
 11
102.4130170851585
 21
197.1622728271754
 31
0.0
  0
LINE
  5
84
330
1F
100
AcDbEntity
  8
NoLayerName_001
  6
Continuous
 62
    30
370
    50
100
AcDbLine
 10
105.4130170851585
 20
240.6622728271754
 30
0.0
 11
105.4130170851585
 21
235.6622728271754
 31
0.0
  0
ARC
  5
85
330
1F
100
AcDbEntity
  8
NoLayerName_001
  6
Continuous
 62
    30
370
    50
100
AcDbCircle
 10
106.4130170851585
 20
240.6622728271754
 30
0.0
 40
1.0
100
AcDbArc
 50
90.0
 51
180.0
  0
LINE
  5
86
330
1F
100
AcDbEntity
  8
NoLayerName_002
  6
Continuous
 62
    30
370
    50
100
AcDbLine
 10
101.6130170851585
 20
197.1622728271754
 30
0.0
 11
100.4130170851585
 21
207.6622728271753
 31
0.0
  0
ARC
  5
87
330
1F
100
AcDbEntity
  8
NoLayerName_002
  6
Continuous
 62
    30
370
    50
100
AcDbCircle
 10
106.4130170851585
 20
239.6622728271754
 30
0.0
 40
2.0
100
AcDbArc
 50
0.0
 51
90.0
  0
LINE
  5
88
330
1F
100
AcDbEntity
  8
NoLayerName_002
  6
Continuous
 62
    30
370
    50
100
AcDbLine
 10
108.4130170851585
 20
239.6622728271754
 30
0.0
 11
108.4130170851585
 21
235.6622728271754
 31
0.0
  0
ARC
  5
89
330
1F
100
AcDbEntity
  8
NoLayerName_001
  6
Continuous
 62
    30
370
    50
100
AcDbCircle
 10
100.4130170851585
 20
208.6622728271752
 30
0.0
 40
1.0
100
AcDbArc
 50
180.0
 51
270.0
  0
LINE
  5
8A
330
1F
100
AcDbEntity
  8
NoLayerName_001
  6
CENTER
 62
     3
370
    25
100
AcDbLine
 10
144.5994802934363
 20
274.6654604207239
 30
0.0
 11
193.3425301618487
 21
274.6654604207239
 31
0.0
  0
ARC
  5
8B
330
1F
100
AcDbEntity
  8
NoLayerName_001
  6
Continuous
 62
    30
370
    50
100
AcDbCircle
 10
102.2130170851585
 20
239.9622728271754
 30
0.0
 40
1.7
100
AcDbArc
 50
0.0
 51
90.0
  0
ARC
  5
8C
330
1F
100
AcDbEntity
  8
NoLayerName_001
  6
Continuous
 62
    30
370
    50
100
AcDbCircle
 10
102.0258963432505
 20
239.9622728271754
 30
0.0
 40
1.7
100
AcDbArc
 50
90.0
 51
176.9872124958166
  0
LINE
  5
8D
330
1F
100
AcDbEntity
  8
NoLayerName_001
  6
Continuous
 62
    30
370
    50
100
AcDbLine
 10
100.3282460333852
 20
240.0516228434841
 30
0.0
 11
99.41301708515847
 21
222.6622728271755
 31
0.0
  0
LINE
  5
8E
330
1F
100
AcDbEntity
  8
NoLayerName_001
  6
Continuous
 62
    30
370
    50
100
AcDbLine
 10
99.57091182200061
 20
280.6654604207239
 30
0.0
 11
99.57091182200061
 21
284.6654604207239
 31
0.0
  0
LINE
  5
8F
330
1F
100
AcDbEntity
  8
NoLayerName_001
  6
Continuous
 62
    30
370
    50
100
AcDbLine
 10
110.4130170851585
 20
277.1654604207239
 30
0.0
 11
110.4130170851585
 21
284.6654604207239
 31
0.0
  0
LINE
  5
90
330
1F
100
AcDbEntity
  8
NoLayerName_001
  6
Continuous
 62
    30
370
    50
100
AcDbLine
 10
110.4130170851585
 20
284.6654604207239
 30
0.0
 11
99.57091182200061
 21
284.6654604207239
 31
0.0
  0
LINE
  5
91
330
1F
100
AcDbEntity
  8
NoLayerName_001
  6
Continuous
 62
    30
370
    50
100
AcDbLine
 10
110.4130170851585
 20
284.6654604207239
 30
0.0
 11
112.4130170851585
 21
289.9154604207239
 31
0.0
  0
LINE
  5
92
330
1F
100
AcDbEntity
  8
NoLayerName_001
  6
Continuous
 62
    30
370
    50
100
AcDbLine
 10
99.57091182200061
 20
264.6654604207239
 30
0.0
 11
99.57091182200061
 21
268.6654604207239
 31
0.0
  0
LINE
  5
93
330
1F
100
AcDbEntity
  8
NoLayerName_001
  6
Continuous
 62
    30
370
    50
100
AcDbLine
 10
110.4130170851585
 20
264.6654604207239
 30
0.0
 11
110.4130170851585
 21
272.1654604207239
 31
0.0
  0
LINE
  5
94
330
1F
100
AcDbEntity
  8
NoLayerName_001
  6
Continuous
 62
    30
370
    50
100
AcDbLine
 10
110.4130170851585
 20
264.6654604207239
 30
0.0
 11
112.4130170851585
 21
259.4154604207239
 31
0.0
  0
LINE
  5
95
330
1F
100
AcDbEntity
  8
NoLayerName_001
  6
Continuous
 62
    30
370
    50
100
AcDbLine
 10
110.4130170851585
 20
264.6654604207239
 30
0.0
 11
99.57091182200061
 21
264.6654604207239
 31
0.0
  0
LINE
  5
96
330
1F
100
AcDbEntity
  8
NoLayerName_001
  6
Continuous
 62
    30
370
    50
100
AcDbLine
 10
103.9130170851585
 20
264.6654604207239
 30
0.0
 11
103.9130170851585
 21
284.6654604207239
 31
0.0
  0
LINE
  5
97
330
1F
100
AcDbEntity
  8
NoLayerName_001
  6
Continuous
 62
    30
370
    50
100
AcDbLine
 10
105.4130170851585
 20
264.6654604207239
 30
0.0
 11
105.4130170851585
 21
284.6654604207239
 31
0.0
  0
LINE
  5
98
330
1F
100
AcDbEntity
  8
NoLayerName_001
  6
Continuous
 62
    30
370
    50
100
AcDbLine
 10
108.4130170851585
 20
284.6654604207239
 30
0.0
 11
108.4130170851585
 21
264.6654604207239
 31
0.0
  0
LINE
  5
99
330
1F
100
AcDbEntity
  8
NoLayerName_001
  6
Continuous
 62
    30
370
    50
100
AcDbLine
 10
111.4130170851585
 20
277.1654604207239
 30
0.0
 11
111.4130170851585
 21
287.2904604207239
 31
0.0
  0
LINE
  5
9A
330
1F
100
AcDbEntity
  8
NoLayerName_001
  6
Continuous
 62
    30
370
    50
100
AcDbLine
 10
111.4130170851585
 20
262.0404604207239
 30
0.0
 11
111.4130170851585
 21
272.1654604207239
 31
0.0
  0
LINE
  5
9B
330
1F
100
AcDbEntity
  8
NoLayerName_001
  6
Continuous
 62
    30
370
    50
100
AcDbLine
 10
156.8425301618487
 20
280.6654604207239
 30
0.0
 11
156.8425301618487
 21
284.6654604207239
 31
0.0
  0
LINE
  5
9C
330
1F
100
AcDbEntity
  8
NoLayerName_001
  6
Continuous
 62
    30
370
    50
100
AcDbLine
 10
156.8425301618487
 20
268.6654604207239
 30
0.0
 11
156.8425301618487
 21
264.6654604207239
 31
0.0
  0
LINE
  5
9D
330
1F
100
AcDbEntity
  8
NoLayerName_001
  6
Continuous
 62
    30
370
    50
100
AcDbLine
 10
100.4130170851585
 20
270.6654604207239
 30
0.0
 11
99.41301708515847
 21
270.6654604207239
 31
0.0
  0
LINE
  5
9E
330
1F
100
AcDbEntity
  8
NoLayerName_001
  6
Continuous
 62
    30
370
    50
100
AcDbLine
 10
99.57091182200061
 20
268.6654604207239
 30
0.0
 11
99.41301708515847
 21
268.6654604207239
 31
0.0
  0
LINE
  5
9F
330
1F
100
AcDbEntity
  8
NoLayerName_001
  6
Continuous
 62
    30
370
    50
100
AcDbLine
 10
99.57091182200061
 20
280.6654604207239
 30
0.0
 11
99.41301708515847
 21
280.6654604207239
 31
0.0
  0
LINE
  5
A0
330
1F
100
AcDbEntity
  8
NoLayerName_001
  6
Continuous
 62
    30
370
    50
100
AcDbLine
 10
100.4130170851585
 20
278.6654604207239
 30
0.0
 11
99.41301708515847
 21
278.6654604207239
 31
0.0
  0
LINE
  5
A1
330
1F
100
AcDbEntity
  8
NoLayerName_001
  6
Continuous
 62
    30
370
    50
100
AcDbLine
 10
182.8425301618486
 20
278.6654604207239
 30
0.0
 11
182.8425301618486
 21
280.6654604207239
 31
0.0
  0
LINE
  5
A2
330
1F
100
AcDbEntity
  8
NoLayerName_001
  6
Continuous
 62
    30
370
    50
100
AcDbLine
 10
182.8425301618486
 20
270.6654604207239
 30
0.0
 11
182.8425301618486
 21
268.6654604207239
 31
0.0
  0
LINE
  5
A3
330
1F
100
AcDbEntity
  8
NoLayerName_002
  6
Continuous
 62
    30
370
    50
100
AcDbLine
 10
191.2912134598992
 20
271.4816881867407
 30
0.0
 11
182.8425301618487
 21
268.6654604207239
 31
0.0
  0
LINE
  5
A4
330
1F
100
AcDbEntity
  8
NoLayerName_002
  6
Continuous
 62
    30
370
    50
100
AcDbLine
 10
191.2912134598992
 20
277.8492326547071
 30
0.0
 11
182.8425301618487
 21
280.6654604207239
 31
0.0
  0
LINE
  5
A5
330
1F
100
AcDbEntity
  8
NoLayerName_001
  6
Continuous
 62
    30
370
    50
100
AcDbLine
 10
172.8425301618487
 20
268.6654604207239
 30
0.0
 11
172.8425301618487
 21
270.6654604207239
 31
0.0
  0
LINE
  5
A6
330
1F
100
AcDbEntity
  8
NoLayerName_001
  6
Continuous
 62
    30
370
    50
100
AcDbLine
 10
172.8425301618487
 20
278.6654604207239
 30
0.0
 11
172.8425301618487
 21
280.6654604207239
 31
0.0
  0
ARC
  5
A7
330
1F
100
AcDbEntity
  8
NoLayerName_002
  6
Continuous
 62
    30
370
    50
100
AcDbCircle
 10
190.3425301618486
 20
275.0031827605554
 30
0.0
 40
3.0
100
AcDbArc
 50
0.0
 51
71.56505117707799
  0
ARC
  5
A8
330
1F
100
AcDbEntity
  8
NoLayerName_002
  6
Continuous
 62
    30
370
    50
100
AcDbCircle
 10
190.3425301618486
 20
274.3277380808922
 30
0.0
 40
3.0
100
AcDbArc
 50
288.434948822922
 51
0.0
  0
LINE
  5
A9
330
1F
100
AcDbEntity
  8
NoLayerName_002
  6
Continuous
 62
    30
370
    50
100
AcDbLine
 10
193.3425301618486
 20
274.3277380808922
 30
0.0
 11
193.3425301618486
 21
275.0031827605555
 31
0.0
  0
LINE
  5
AA
330
1F
100
AcDbEntity
  8
NoLayerName_001
  6
Continuous
 62
    30
370
    50
100
AcDbLine
 10
99.41301708515847
 20
278.6654604207239
 30
0.0
 11
99.41301708515847
 21
280.6654604207239
 31
0.0
  0
LINE
  5
AB
330
1F
100
AcDbEntity
  8
NoLayerName_001
  6
Continuous
 62
    30
370
    50
100
AcDbLine
 10
99.41301708515847
 20
268.6654604207239
 30
0.0
 11
99.41301708515847
 21
270.6654604207239
 31
0.0
  0
LINE
  5
AC
330
1F
100
AcDbEntity
  8
NoLayerName_001
  6
Continuous
 62
    30
370
    50
100
AcDbLine
 10
100.4130170851585
 20
270.6654604207239
 30
0.0
 11
100.4130170851585
 21
278.6654604207238
 31
0.0
  0
LINE
  5
AD
330
1F
100
AcDbEntity
  8
NoLayerName_001
  6
Continuous
 62
    30
370
    50
100
AcDbLine
 10
110.4130170851585
 20
277.1654604207239
 30
0.0
 11
112.1130170851585
 21
277.1654604207239
 31
0.0
  0
LINE
  5
AE
330
1F
100
AcDbEntity
  8
NoLayerName_001
  6
Continuous
 62
    30
370
    50
100
AcDbLine
 10
110.4130170851585
 20
272.1654604207239
 30
0.0
 11
112.1130170851585
 21
272.1654604207239
 31
0.0
  0
LINE
  5
AF
330
1F
100
AcDbEntity
  8
NoLayerName_001
  6
Continuous
 62
    30
370
    50
100
AcDbLine
 10
148.3425301618486
 20
289.9154604207239
 30
0.0
 11
148.3425301618486
 21
259.4154604207239
 31
0.0
  0
LINE
  5
B0
330
1F
100
AcDbEntity
  8
NoLayerName_001
  6
CENTER
 62
     3
370
    25
100
AcDbLine
 10
133.6068674222885
 20
274.6654604207239
 30
0.0
 11
97.35941344339211
 21
274.6654604207239
 31
0.0
  0
LINE
  5
B1
330
1F
100
AcDbEntity
  8
NoLayerName_001
  6
Continuous
 62
    30
370
    50
100
AcDbLine
 10
99.41301708515847
 20
208.6622728271752
 30
0.0
 11
99.41301708515847
 21
222.6622728271754
 31
0.0
  0
CIRCLE
  5
B2
330
1F
100
AcDbEntity
  8
NoLayerName_001
  6
Continuous
 62
     7
370
    50
100
AcDbCircle
 10
128.4130170851585
 20
294.9154604207239
 30
0.0
 40
4.7
  0
ARC
  5
B3
330
1F
100
AcDbEntity
  8
NoLayerName_001
  6
Continuous
 62
     7
370
    50
100
AcDbCircle
 10
128.4130170851585
 20
294.9154604207239
 30
0.0
 40
2.15
100
AcDbArc
 50
353.054208029349
 51
6.945791970650735
  0
ARC
  5
B4
330
1F
100
AcDbEntity
  8
NoLayerName_001
  6
Continuous
 62
     7
370
    50
100
AcDbCircle
 10
128.4130170851585
 20
294.9154604207239
 30
0.0
 40
2.15
100
AcDbArc
 50
83.0542080293489
 51
96.9457919706511
  0
ARC
  5
B5
330
1F
100
AcDbEntity
  8
NoLayerName_001
  6
Continuous
 62
     7
370
    50
100
AcDbCircle
 10
128.4130170851585
 20
294.9154604207239
 30
0.0
 40
2.15
100
AcDbArc
 50
173.0542080293493
 51
186.9457919706507
  0
ARC
  5
B6
330
1F
100
AcDbEntity
  8
NoLayerName_001
  6
Continuous
 62
     7
370
    50
100
AcDbCircle
 10
128.4130170851585
 20
294.9154604207239
 30
0.0
 40
2.15
100
AcDbArc
 50
263.0542080293489
 51
276.9457919706511
  0
LINE
  5
B7
330
1F
100
AcDbEntity
  8
NoLayerName_001
  6
Continuous
 62
     7
370
    50
100
AcDbLine
 10
128.7017138601794
 20
294.425276391188
 30
0.0
 11
128.7810215640187
 21
294.6034044104649
 31
0.0
  0
LINE
  5
B8
330
1F
100
AcDbEntity
  8
NoLayerName_001
  6
Continuous
 62
     7
370
    50
100
AcDbLine
 10
128.8306426304815
 20
294.6254971326498
 30
0.0
 11
128.7810215640187
 21
294.603404410465
 31
0.0
  0
LINE
  5
B9
330
1F
100
AcDbEntity
  8
NoLayerName_001
  6
Continuous
 62
     7
370
    50
100
AcDbLine
 10
128.8306426304815
 20
294.6254971326498
 30
0.0
 11
130.5472382545783
 21
294.6554604207239
 31
0.0
  0
LINE
  5
BA
330
1F
100
AcDbEntity
  8
NoLayerName_001
  6
Continuous
 62
     7
370
    50
100
AcDbLine
 10
128.7017138601794
 20
294.425276391188
 30
0.0
 11
128.6730170851583
 21
292.781239251304
 31
0.0
  0
LINE
  5
BB
330
1F
100
AcDbEntity
  8
NoLayerName_001
  6
Continuous
 62
     7
370
    50
100
AcDbLine
 10
128.8306426304815
 20
295.205423708798
 30
0.0
 11
128.7810215640187
 21
295.2275164309828
 31
0.0
  0
LINE
  5
BC
330
1F
100
AcDbEntity
  8
NoLayerName_001
  6
Continuous
 62
     7
370
    50
100
AcDbLine
 10
128.7017138601794
 20
295.4056444502596
 30
0.0
 11
128.7810215640187
 21
295.2275164309827
 31
0.0
  0
LINE
  5
BD
330
1F
100
AcDbEntity
  8
NoLayerName_001
  6
Continuous
 62
     7
370
    50
100
AcDbLine
 10
128.7017138601794
 20
295.4056444502596
 30
0.0
 11
128.6730170851584
 21
297.0496815901437
 31
0.0
  0
LINE
  5
BE
330
1F
100
AcDbEntity
  8
NoLayerName_001
  6
Continuous
 62
     7
370
    50
100
AcDbLine
 10
128.8306426304815
 20
295.205423708798
 30
0.0
 11
130.5472382545783
 21
295.1754604207239
 31
0.0
  0
LINE
  5
BF
330
1F
100
AcDbEntity
  8
NoLayerName_001
  6
Continuous
 62
     7
370
    50
100
AcDbLine
 10
128.1243203101373
 20
295.4056444502596
 30
0.0
 11
128.045012606298
 21
295.2275164309827
 31
0.0
  0
LINE
  5
C0
330
1F
100
AcDbEntity
  8
NoLayerName_001
  6
Continuous
 62
     7
370
    50
100
AcDbLine
 10
127.9953915398352
 20
295.205423708798
 30
0.0
 11
128.045012606298
 21
295.2275164309828
 31
0.0
  0
LINE
  5
C1
330
1F
100
AcDbEntity
  8
NoLayerName_001
  6
Continuous
 62
     7
370
    50
100
AcDbLine
 10
127.9953915398352
 20
295.205423708798
 30
0.0
 11
126.2787959157384
 21
295.1754604207239
 31
0.0
  0
LINE
  5
C2
330
1F
100
AcDbEntity
  8
NoLayerName_001
  6
Continuous
 62
     7
370
    50
100
AcDbLine
 10
128.1243203101373
 20
295.4056444502596
 30
0.0
 11
128.1530170851584
 21
297.0496815901437
 31
0.0
  0
LINE
  5
C3
330
1F
100
AcDbEntity
  8
NoLayerName_001
  6
Continuous
 62
     7
370
    50
100
AcDbLine
 10
127.9953915398352
 20
294.6254971326498
 30
0.0
 11
128.045012606298
 21
294.603404410465
 31
0.0
  0
LINE
  5
C4
330
1F
100
AcDbEntity
  8
NoLayerName_001
  6
Continuous
 62
     7
370
    50
100
AcDbLine
 10
128.1243203101373
 20
294.425276391188
 30
0.0
 11
128.045012606298
 21
294.6034044104649
 31
0.0
  0
LINE
  5
C5
330
1F
100
AcDbEntity
  8
NoLayerName_001
  6
Continuous
 62
     7
370
    50
100
AcDbLine
 10
128.1243203101373
 20
294.425276391188
 30
0.0
 11
128.1530170851583
 21
292.781239251304
 31
0.0
  0
LINE
  5
C6
330
1F
100
AcDbEntity
  8
NoLayerName_001
  6
Continuous
 62
     7
370
    50
100
AcDbLine
 10
127.9953915398352
 20
294.6254971326498
 30
0.0
 11
126.2787959157384
 21
294.6554604207239
 31
0.0
  0
CIRCLE
  5
C7
330
1F
100
AcDbEntity
  8
NoLayerName_001
  6
Continuous
 62
     7
370
    50
100
AcDbCircle
 10
128.4130170851585
 20
254.4154604207239
 30
0.0
 40
4.7
  0
ARC
  5
C8
330
1F
100
AcDbEntity
  8
NoLayerName_001
  6
Continuous
 62
     7
370
    50
100
AcDbCircle
 10
128.4130170851585
 20
254.4154604207239
 30
0.0
 40
2.15
100
AcDbArc
 50
353.054208029349
 51
6.945791970650735
  0
ARC
  5
C9
330
1F
100
AcDbEntity
  8
NoLayerName_001
  6
Continuous
 62
     7
370
    50
100
AcDbCircle
 10
128.4130170851585
 20
254.4154604207239
 30
0.0
 40
2.15
100
AcDbArc
 50
83.0542080293489
 51
96.9457919706511
  0
ARC
  5
CA
330
1F
100
AcDbEntity
  8
NoLayerName_001
  6
Continuous
 62
     7
370
    50
100
AcDbCircle
 10
128.4130170851585
 20
254.4154604207239
 30
0.0
 40
2.15
100
AcDbArc
 50
173.0542080293493
 51
186.9457919706507
  0
ARC
  5
CB
330
1F
100
AcDbEntity
  8
NoLayerName_001
  6
Continuous
 62
     7
370
    50
100
AcDbCircle
 10
128.4130170851585
 20
254.4154604207239
 30
0.0
 40
2.15
100
AcDbArc
 50
263.0542080293489
 51
276.9457919706511
  0
LINE
  5
CC
330
1F
100
AcDbEntity
  8
NoLayerName_001
  6
Continuous
 62
     7
370
    50
100
AcDbLine
 10
128.7017138601794
 20
253.9252763911881
 30
0.0
 11
128.7810215640187
 21
254.103404410465
 31
0.0
  0
LINE
  5
CD
330
1F
100
AcDbEntity
  8
NoLayerName_001
  6
Continuous
 62
     7
370
    50
100
AcDbLine
 10
128.8306426304815
 20
254.1254971326498
 30
0.0
 11
128.7810215640187
 21
254.103404410465
 31
0.0
  0
LINE
  5
CE
330
1F
100
AcDbEntity
  8
NoLayerName_001
  6
Continuous
 62
     7
370
    50
100
AcDbLine
 10
128.8306426304815
 20
254.1254971326498
 30
0.0
 11
130.5472382545783
 21
254.1554604207239
 31
0.0
  0
LINE
  5
CF
330
1F
100
AcDbEntity
  8
NoLayerName_001
  6
Continuous
 62
     7
370
    50
100
AcDbLine
 10
128.7017138601794
 20
253.9252763911881
 30
0.0
 11
128.6730170851583
 21
252.281239251304
 31
0.0
  0
LINE
  5
D0
330
1F
100
AcDbEntity
  8
NoLayerName_001
  6
Continuous
 62
     7
370
    50
100
AcDbLine
 10
128.8306426304815
 20
254.705423708798
 30
0.0
 11
128.7810215640187
 21
254.7275164309828
 31
0.0
  0
LINE
  5
D1
330
1F
100
AcDbEntity
  8
NoLayerName_001
  6
Continuous
 62
     7
370
    50
100
AcDbLine
 10
128.7017138601794
 20
254.9056444502597
 30
0.0
 11
128.7810215640187
 21
254.7275164309828
 31
0.0
  0
LINE
  5
D2
330
1F
100
AcDbEntity
  8
NoLayerName_001
  6
Continuous
 62
     7
370
    50
100
AcDbLine
 10
128.7017138601794
 20
254.9056444502597
 30
0.0
 11
128.6730170851584
 21
256.5496815901438
 31
0.0
  0
LINE
  5
D3
330
1F
100
AcDbEntity
  8
NoLayerName_001
  6
Continuous
 62
     7
370
    50
100
AcDbLine
 10
128.8306426304815
 20
254.705423708798
 30
0.0
 11
130.5472382545783
 21
254.6754604207239
 31
0.0
  0
LINE
  5
D4
330
1F
100
AcDbEntity
  8
NoLayerName_001
  6
Continuous
 62
     7
370
    50
100
AcDbLine
 10
128.1243203101373
 20
254.9056444502597
 30
0.0
 11
128.045012606298
 21
254.7275164309828
 31
0.0
  0
LINE
  5
D5
330
1F
100
AcDbEntity
  8
NoLayerName_001
  6
Continuous
 62
     7
370
    50
100
AcDbLine
 10
127.9953915398352
 20
254.705423708798
 30
0.0
 11
128.045012606298
 21
254.7275164309828
 31
0.0
  0
LINE
  5
D6
330
1F
100
AcDbEntity
  8
NoLayerName_001
  6
Continuous
 62
     7
370
    50
100
AcDbLine
 10
127.9953915398352
 20
254.705423708798
 30
0.0
 11
126.2787959157384
 21
254.6754604207239
 31
0.0
  0
LINE
  5
D7
330
1F
100
AcDbEntity
  8
NoLayerName_001
  6
Continuous
 62
     7
370
    50
100
AcDbLine
 10
128.1243203101373
 20
254.9056444502597
 30
0.0
 11
128.1530170851584
 21
256.5496815901438
 31
0.0
  0
LINE
  5
D8
330
1F
100
AcDbEntity
  8
NoLayerName_001
  6
Continuous
 62
     7
370
    50
100
AcDbLine
 10
127.9953915398352
 20
254.1254971326498
 30
0.0
 11
128.045012606298
 21
254.103404410465
 31
0.0
  0
LINE
  5
D9
330
1F
100
AcDbEntity
  8
NoLayerName_001
  6
Continuous
 62
     7
370
    50
100
AcDbLine
 10
128.1243203101373
 20
253.9252763911881
 30
0.0
 11
128.045012606298
 21
254.103404410465
 31
0.0
  0
LINE
  5
DA
330
1F
100
AcDbEntity
  8
NoLayerName_001
  6
Continuous
 62
     7
370
    50
100
AcDbLine
 10
128.1243203101373
 20
253.9252763911881
 30
0.0
 11
128.1530170851583
 21
252.281239251304
 31
0.0
  0
LINE
  5
DB
330
1F
100
AcDbEntity
  8
NoLayerName_001
  6
Continuous
 62
     7
370
    50
100
AcDbLine
 10
127.9953915398352
 20
254.1254971326498
 30
0.0
 11
126.2787959157384
 21
254.155460420724
 31
0.0
  0
LINE
  5
DC
330
1F
100
AcDbEntity
  8
NoLayerName_001
  6
Continuous
 62
    30
370
    50
100
AcDbLine
 10
124.4130170851585
 20
291.9154604207239
 30
0.0
 11
124.4130170851585
 21
292.4476678848732
 31
0.0
  0
LINE
  5
DD
330
1F
100
AcDbEntity
  8
NoLayerName_001
  6
Continuous
 62
    30
370
    50
100
AcDbLine
 10
124.4130170851585
 20
257.4154604207239
 30
0.0
 11
124.4130170851585
 21
256.8832529565746
 31
0.0
  0
LINE
  5
DE
330
1F
100
AcDbEntity
  8
NoLayerName_001
  6
Continuous
 62
    30
370
    50
100
AcDbLine
 10
132.4130170851585
 20
292.4476678848732
 30
0.0
 11
132.4130170851585
 21
256.8832529565745
 31
0.0
  0
LINE
  5
DF
330
1F
100
AcDbEntity
  8
NoLayerName_001
  6
Continuous
 62
     7
370
    50
100
AcDbLine
 10
157.3806792802606
 20
297.4474604207238
 30
0.0
 11
160.3043810434368
 21
292.3834604207238
 31
0.0
  0
LINE
  5
E0
330
1F
100
AcDbEntity
  8
NoLayerName_001
  6
Continuous
 62
     7
370
    50
100
AcDbLine
 10
155.5331584188538
 20
297.4474604207239
 30
0.0
 11
158.45686018203
 21
292.3834604207239
 31
0.0
  0
LINE
  5
E1
330
1F
100
AcDbEntity
  8
NoLayerName_001
  6
Continuous
 62
     7
370
    50
100
AcDbLine
 10
159.2282001416673
 20
297.4474604207239
 30
0.0
 11
162.1519019048436
 21
292.3834604207239
 31
0.0
  0
LINE
  5
E2
330
1F
100
AcDbEntity
  8
NoLayerName_001
  6
Continuous
 62
     7
370
    50
100
AcDbLine
 10
166.8425301618487
 20
293.4954604207238
 30
0.0
 11
166.8425301618487
 21
296.3354604207238
 31
0.0
  0
LINE
  5
E3
330
1F
100
AcDbEntity
  8
NoLayerName_001
  6
Continuous
 62
     7
370
    50
100
AcDbLine
 10
164.0425301618487
 20
297.0254604207239
 30
0.0
 11
147.0425301618487
 21
297.0254604207239
 31
0.0
  0
LINE
  5
E4
330
1F
100
AcDbEntity
  8
NoLayerName_001
  6
Continuous
 62
     7
370
    50
100
AcDbLine
 10
164.0425301618487
 20
292.8054604207239
 30
0.0
 11
166.8425301618487
 21
293.4954604207239
 31
0.0
  0
LINE
  5
E5
330
1F
100
AcDbEntity
  8
NoLayerName_001
  6
Continuous
 62
     7
370
    50
100
AcDbLine
 10
166.8425301618487
 20
296.3354604207238
 30
0.0
 11
164.0425301618487
 21
297.0254604207238
 31
0.0
  0
LINE
  5
E6
330
1F
100
AcDbEntity
  8
NoLayerName_001
  6
Continuous
 62
     7
370
    50
100
AcDbLine
 10
146.8425301618487
 20
290.2154604207238
 30
0.0
 11
146.8425301618487
 21
299.6154604207238
 31
0.0
  0
LINE
  5
E7
330
1F
100
AcDbEntity
  8
NoLayerName_001
  6
Continuous
 62
     7
370
    50
100
AcDbLine
 10
146.5425301618487
 20
290.2154604207238
 30
0.0
 11
146.5425301618487
 21
299.6154604207238
 31
0.0
  0
LINE
  5
E8
330
1F
100
AcDbEntity
  8
NoLayerName_001
  6
Continuous
 62
     7
370
    50
100
AcDbLine
 10
146.5425301618487
 20
299.6154604207238
 30
0.0
 11
146.8425301618487
 21
299.6154604207238
 31
0.0
  0
LINE
  5
E9
330
1F
100
AcDbEntity
  8
NoLayerName_001
  6
Continuous
 62
     7
370
    50
100
AcDbLine
 10
146.8425301618487
 20
290.2154604207238
 30
0.0
 11
146.5425301618487
 21
290.2154604207238
 31
0.0
  0
ARC
  5
EA
330
1F
100
AcDbEntity
  8
NoLayerName_001
  6
Continuous
 62
     7
370
    50
100
AcDbCircle
 10
150.4629847073032
 20
294.9154604207239
 30
0.0
 40
6.120454545454546
100
AcDbArc
 50
129.8328119876182
 51
230.1671880123818
  0
ARC
  5
EB
330
1F
100
AcDbEntity
  8
NoLayerName_001
  6
Continuous
 62
     7
370
    50
100
AcDbCircle
 10
147.0425301618487
 20
297.2254604207238
 30
0.0
 40
0.2
100
AcDbArc
 50
180.0
 51
270.0
  0
LINE
  5
EC
330
1F
100
AcDbEntity
  8
NoLayerName_001
  6
Continuous
 62
    30
370
    50
100
AcDbLine
 10
146.8425301618487
 20
290.2154604207238
 30
0.0
 11
146.8425301618487
 21
289.9154604207239
 31
0.0
  0
LINE
  5
ED
330
1F
100
AcDbEntity
  8
NoLayerName_001
  6
Continuous
 62
     7
370
    50
100
AcDbLine
 10
164.0425301618487
 20
292.8054604207239
 30
0.0
 11
150.3425301618486
 21
292.8054604207239
 31
0.0
  0
LINE
  5
EE
330
1F
100
AcDbEntity
  8
NoLayerName_001
  6
Continuous
 62
     7
370
    50
100
AcDbLine
 10
146.8425301618487
 20
249.7154604207239
 30
0.0
 11
146.8425301618487
 21
259.1154604207239
 31
0.0
  0
LINE
  5
EF
330
1F
100
AcDbEntity
  8
NoLayerName_001
  6
Continuous
 62
     7
370
    50
100
AcDbLine
 10
146.5425301618487
 20
249.7154604207239
 30
0.0
 11
146.5425301618487
 21
259.1154604207239
 31
0.0
  0
LINE
  5
F0
330
1F
100
AcDbEntity
  8
NoLayerName_001
  6
Continuous
 62
     7
370
    50
100
AcDbLine
 10
146.5425301618487
 20
259.1154604207239
 30
0.0
 11
146.8425301618487
 21
259.1154604207239
 31
0.0
  0
LINE
  5
F1
330
1F
100
AcDbEntity
  8
NoLayerName_001
  6
Continuous
 62
     7
370
    50
100
AcDbLine
 10
146.8425301618487
 20
249.7154604207239
 30
0.0
 11
146.5425301618487
 21
249.7154604207239
 31
0.0
  0
ARC
  5
F2
330
1F
100
AcDbEntity
  8
NoLayerName_001
  6
Continuous
 62
     7
370
    50
100
AcDbCircle
 10
150.4629847073032
 20
254.4154604207239
 30
0.0
 40
6.120454545454546
100
AcDbArc
 50
129.8328119876182
 51
230.1671880123818
  0
ARC
  5
F3
330
1F
100
AcDbEntity
  8
NoLayerName_001
  6
Continuous
 62
     7
370
    50
100
AcDbCircle
 10
147.0425301618487
 20
252.1054604207239
 30
0.0
 40
0.2
100
AcDbArc
 50
90.0
 51
180.0
  0
LINE
  5
F4
330
1F
100
AcDbEntity
  8
NoLayerName_001
  6
Continuous
 62
     7
370
    50
100
AcDbLine
 10
151.2282001416674
 20
256.9474604207239
 30
0.0
 11
154.1519019048437
 21
251.8834604207239
 31
0.0
  0
LINE
  5
F5
330
1F
100
AcDbEntity
  8
NoLayerName_001
  6
Continuous
 62
     7
370
    50
100
AcDbLine
 10
149.3806792802606
 20
256.9474604207239
 30
0.0
 11
152.3043810434369
 21
251.8834604207239
 31
0.0
  0
LINE
  5
F6
330
1F
100
AcDbEntity
  8
NoLayerName_001
  6
Continuous
 62
     7
370
    50
100
AcDbLine
 10
153.0757210030742
 20
256.9474604207239
 30
0.0
 11
155.9994227662505
 21
251.8834604207239
 31
0.0
  0
LINE
  5
F7
330
1F
100
AcDbEntity
  8
NoLayerName_001
  6
Continuous
 62
     7
370
    50
100
AcDbLine
 10
158.8425301618487
 20
252.9954604207239
 30
0.0
 11
158.8425301618487
 21
255.8354604207239
 31
0.0
  0
LINE
  5
F8
330
1F
100
AcDbEntity
  8
NoLayerName_001
  6
Continuous
 62
     7
370
    50
100
AcDbLine
 10
156.0425301618487
 20
252.3054604207239
 30
0.0
 11
147.0425301618487
 21
252.3054604207239
 31
0.0
  0
LINE
  5
F9
330
1F
100
AcDbEntity
  8
NoLayerName_001
  6
Continuous
 62
     7
370
    50
100
AcDbLine
 10
156.0425301618487
 20
252.3054604207239
 30
0.0
 11
158.8425301618487
 21
252.9954604207239
 31
0.0
  0
LINE
  5
FA
330
1F
100
AcDbEntity
  8
NoLayerName_001
  6
Continuous
 62
     7
370
    50
100
AcDbLine
 10
158.8425301618487
 20
255.8354604207239
 30
0.0
 11
156.0425301618487
 21
256.525460420724
 31
0.0
  0
LINE
  5
FB
330
1F
100
AcDbEntity
  8
NoLayerName_001
  6
Continuous
 62
    30
370
    50
100
AcDbLine
 10
146.8425301618487
 20
259.1154604207239
 30
0.0
 11
146.8425301618487
 21
259.4154604207239
 31
0.0
  0
LINE
  5
FC
330
1F
100
AcDbEntity
  8
NoLayerName_001
  6
Continuous
 62
     7
370
    50
100
AcDbLine
 10
156.0425301618487
 20
256.5254604207239
 30
0.0
 11
150.3425301618486
 21
256.5254604207239
 31
0.0
  0
LINE
  5
FD
330
1F
100
AcDbEntity
  8
NoLayerName_001
  6
Continuous
 62
    30
370
    50
100
AcDbLine
 10
75.02432505584005
 20
496.5096035387822
 30
0.0
 11
75.02432505584005
 21
466.5096035387822
 31
0.0
  0
LINE
  5
FE
330
1F
100
AcDbEntity
  8
NoLayerName_001
  6
Continuous
 62
    30
370
    50
100
AcDbLine
 10
76.62432505583996
 20
496.5096035387822
 30
0.0
 11
76.62432505583996
 21
466.5096035387822
 31
0.0
  0
LINE
  5
FF
330
1F
100
AcDbEntity
  8
NoLayerName_001
  6
Continuous
 62
    30
370
    50
100
AcDbLine
 10
276.62432505584
 20
496.5096035387822
 30
0.0
 11
276.62432505584
 21
466.5096035387822
 31
0.0
  0
LINE
  5
100
330
1F
100
AcDbEntity
  8
NoLayerName_001
  6
DOTSX
 62
     7
370
    25
100
AcDbLine
 10
75.02432505584005
 20
495.6128400854882
 30
0.0
 11
75.09497860721993
 21
495.6411015060401
 31
0.0
  0
LINE
  5
101
330
1F
100
AcDbEntity
  8
NoLayerName_001
  6
Continuous
 62
    30
370
    50
100
AcDbLine
 10
318.3148311500669
 20
466.5096035387822
 30
0.0
 11
342.8148311500669
 21
466.5096035387822
 31
0.0
  0
LINE
  5
102
330
1F
100
AcDbEntity
  8
NoLayerName_001
  6
CENTER
 62
     3
370
    25
100
AcDbLine
 10
315.4637093275005
 20
481.5096035387822
 30
0.0
 11
358.9343376582104
 21
481.5096035387822
 31
0.0
  0
CIRCLE
  5
103
330
1F
100
AcDbEntity
  8
NoLayerName_001
  6
Continuous
 62
    30
370
    50
100
AcDbCircle
 10
344.3148311500669
 20
481.5096035387822
 30
0.0
 40
2.0
  0
LINE
  5
104
330
1F
100
AcDbEntity
  8
NoLayerName_001
  6
Continuous
 62
    30
370
    50
100
AcDbLine
 10
266.62432505584
 20
484.5096035387822
 30
0.0
 11
86.62432505583996
 21
484.5096035387822
 31
0.0
  0
LINE
  5
105
330
1F
100
AcDbEntity
  8
NoLayerName_001
  6
Continuous
 62
    30
370
    50
100
AcDbLine
 10
86.62432505583996
 20
478.5096035387822
 30
0.0
 11
266.62432505584
 21
478.5096035387822
 31
0.0
  0
LINE
  5
106
330
1F
100
AcDbEntity
  8
NoLayerName_001
  6
Continuous
 62
    30
370
    50
100
AcDbLine
 10
355.914831150067
 20
496.5096035387822
 30
0.0
 11
355.914831150067
 21
466.5096035387822
 31
0.0
  0
LINE
  5
107
330
1F
100
AcDbEntity
  8
NoLayerName_001
  6
Continuous
 62
    30
370
    50
100
AcDbLine
 10
342.8148311500669
 20
491.5096035387822
 30
0.0
 11
345.8148311500669
 21
491.5096035387822
 31
0.0
  0
LINE
  5
108
330
1F
100
AcDbEntity
  8
NoLayerName_001
  6
Continuous
 62
    30
370
    50
100
AcDbLine
 10
318.3148311500669
 20
496.5096035387822
 30
0.0
 11
342.8148311500669
 21
496.5096035387822
 31
0.0
  0
LINE
  5
109
330
1F
100
AcDbEntity
  8
NoLayerName_001
  6
Continuous
 62
    30
370
    50
100
AcDbLine
 10
342.8148311500669
 20
471.5096035387822
 30
0.0
 11
345.8148311500669
 21
471.5096035387822
 31
0.0
  0
LINE
  5
10A
330
1F
100
AcDbEntity
  8
NoLayerName_001
  6
Continuous
 62
    30
370
    50
100
AcDbLine
 10
321.3148311500669
 20
481.5096035387822
 30
0.0
 11
318.3148311500669
 21
484.5096035387822
 31
0.0
  0
LINE
  5
10B
330
1F
100
AcDbEntity
  8
NoLayerName_001
  6
Continuous
 62
    30
370
    50
100
AcDbLine
 10
321.3148311500669
 20
481.5096035387822
 30
0.0
 11
318.3148311500669
 21
478.5096035387822
 31
0.0
  0
LINE
  5
10C
330
1F
100
AcDbEntity
  8
NoLayerName_001
  6
Continuous
 62
    30
370
    50
100
AcDbLine
 10
318.3148311500669
 20
496.5096035387822
 30
0.0
 11
318.3148311500669
 21
484.5096035387822
 31
0.0
  0
LINE
  5
10D
330
1F
100
AcDbEntity
  8
NoLayerName_001
  6
Continuous
 62
    30
370
    50
100
AcDbLine
 10
318.3148311500669
 20
478.5096035387822
 30
0.0
 11
318.3148311500669
 21
466.5096035387822
 31
0.0
  0
LINE
  5
10E
330
1F
100
AcDbEntity
  8
NoLayerName_001
  6
Continuous
 62
    30
370
    50
100
AcDbLine
 10
331.8148311500669
 20
483.5096035387822
 30
0.0
 11
327.8148311500669
 21
483.5096035387822
 31
0.0
  0
LINE
  5
10F
330
1F
100
AcDbEntity
  8
NoLayerName_001
  6
Continuous
 62
    30
370
    50
100
AcDbLine
 10
331.8148311500669
 20
479.5096035387822
 30
0.0
 11
327.8148311500669
 21
479.5096035387822
 31
0.0
  0
ARC
  5
110
330
1F
100
AcDbEntity
  8
NoLayerName_001
  6
Continuous
 62
    30
370
    50
100
AcDbCircle
 10
327.8148311500669
 20
481.5096035387822
 30
0.0
 40
2.0
100
AcDbArc
 50
90.0
 51
270.0
  0
ARC
  5
111
330
1F
100
AcDbEntity
  8
NoLayerName_001
  6
Continuous
 62
    30
370
    50
100
AcDbCircle
 10
331.8148311500669
 20
481.5096035387822
 30
0.0
 40
2.0
100
AcDbArc
 50
270.0
 51
90.00000000000001
  0
LINE
  5
112
330
1F
100
AcDbEntity
  8
NoLayerName_001
  6
Continuous
 62
    30
370
    50
100
AcDbLine
 10
345.8148311500669
 20
496.5096035387822
 30
0.0
 11
345.8148311500669
 21
491.5096035387822
 31
0.0
  0
LINE
  5
113
330
1F
100
AcDbEntity
  8
NoLayerName_001
  6
Continuous
 62
    30
370
    50
100
AcDbLine
 10
342.8148311500669
 20
496.5096035387822
 30
0.0
 11
342.8148311500669
 21
491.5096035387822
 31
0.0
  0
LINE
  5
114
330
1F
100
AcDbEntity
  8
NoLayerName_001
  6
Continuous
 62
    30
370
    50
100
AcDbLine
 10
345.8148311500669
 20
471.5096035387822
 30
0.0
 11
345.8148311500669
 21
466.5096035387822
 31
0.0
  0
LINE
  5
115
330
1F
100
AcDbEntity
  8
NoLayerName_001
  6
Continuous
 62
    30
370
    50
100
AcDbLine
 10
342.8148311500669
 20
471.5096035387822
 30
0.0
 11
342.8148311500669
 21
466.5096035387822
 31
0.0
  0
LINE
  5
116
330
1F
100
AcDbEntity
  8
NoLayerName_001
  6
Continuous
 62
    30
370
    50
100
AcDbLine
 10
75.02432505584005
 20
484.5096035387822
 30
0.0
 11
76.62432505584007
 21
484.5096035387822
 31
0.0
  0
LINE
  5
117
330
1F
100
AcDbEntity
  8
NoLayerName_001
  6
Continuous
 62
    30
370
    50
100
AcDbLine
 10
75.02432505584005
 20
478.5096035387822
 30
0.0
 11
76.62432505584007
 21
478.5096035387822
 31
0.0
  0
LINE
  5
118
330
1F
100
AcDbEntity
  8
NoLayerName_001
  6
CENTER
 62
     3
370
    25
100
AcDbLine
 10
76.62432505583996
 20
481.5096035387822
 30
0.0
 11
280.4255790270385
 21
481.5096035387822
 31
0.0
  0
LINE
  5
119
330
1F
100
AcDbEntity
  8
NoLayerName_001
  6
CENTER
 62
     3
370
    25
100
AcDbLine
 10
75.02432505584005
 20
481.5096035387822
 30
0.0
 11
71.77593495181492
 21
481.5096035387822
 31
0.0
  0
LINE
  5
11A
330
1F
100
AcDbEntity
  8
NoLayerName_001
  6
Continuous
 62
    30
370
    50
100
AcDbLine
 10
75.02432505584005
 20
481.5096035387822
 30
0.0
 11
76.62432505584007
 21
481.5096035387822
 31
0.0
  0
LINE
  5
11B
330
1F
100
AcDbEntity
  8
NoLayerName_001
  6
Continuous
 62
    30
370
    50
100
AcDbLine
 10
354.3148311500669
 20
496.5096035387822
 30
0.0
 11
354.3148311500669
 21
466.5096035387822
 31
0.0
  0
LINE
  5
11C
330
1F
100
AcDbEntity
  8
NoLayerName_001
  6
Continuous
 62
    30
370
    50
100
AcDbLine
 10
75.02432505584005
 20
395.3233541794672
 30
0.0
 11
276.62432505584
 21
395.3233541794672
 31
0.0
  0
LINE
  5
11D
330
1F
100
AcDbEntity
  8
NoLayerName_001
  6
Continuous
 62
    30
370
    50
100
AcDbLine
 10
276.62432505584
 20
396.9233541794672
 30
0.0
 11
276.62432505584
 21
395.3233541794672
 31
0.0
  0
LINE
  5
11E
330
1F
100
AcDbEntity
  8
NoLayerName_001
  6
Continuous
 62
    30
370
    50
100
AcDbLine
 10
75.02432505584005
 20
432.9233541794672
 30
0.0
 11
75.02432505584005
 21
395.3233541794672
 31
0.0
  0
LINE
  5
11F
330
1F
100
AcDbEntity
  8
NoLayerName_001
  6
Continuous
 62
    30
370
    50
100
AcDbLine
 10
76.62432505583996
 20
432.9233541794672
 30
0.0
 11
76.62432505583996
 21
396.9233541794672
 31
0.0
  0
LINE
  5
120
330
1F
100
AcDbEntity
  8
NoLayerName_001
  6
Continuous
 62
    30
370
    50
100
AcDbLine
 10
76.62432505583996
 20
432.9233541794672
 30
0.0
 11
75.02432505584005
 21
432.9233541794672
 31
0.0
  0
ARC
  5
121
330
1F
100
AcDbEntity
  8
NoLayerName_001
  6
Continuous
 62
    30
370
    50
100
AcDbCircle
 10
266.62432505584
 20
481.5096035387822
 30
0.0
 40
3.0
100
AcDbArc
 50
270.0
 51
90.0
  0
ARC
  5
122
330
1F
100
AcDbEntity
  8
NoLayerName_001
  6
Continuous
 62
    30
370
    50
100
AcDbCircle
 10
86.62432505583996
 20
481.5096035387822
 30
0.0
 40
3.0
100
AcDbArc
 50
90.0
 51
270.0
  0
CIRCLE
  5
123
330
1F
100
AcDbEntity
  8
NoLayerName_001
  6
Continuous
 62
    30
370
    50
100
AcDbCircle
 10
179.1578831716963
 20
481.5096035387822
 30
0.0
 40
2.25
  0
LINE
  5
124
330
1F
100
AcDbEntity
  8
NoLayerName_001
  6
Continuous
 62
    30
370
    50
100
AcDbLine
 10
214.6578831716963
 20
496.7596035387822
 30
0.0
 11
212.1578831716963
 21
496.7596035387822
 31
0.0
  0
LINE
  5
125
330
1F
100
AcDbEntity
  8
NoLayerName_001
  6
Continuous
 62
    30
370
    50
100
AcDbLine
 10
214.6578831716963
 20
466.2596035387822
 30
0.0
 11
212.1578831716963
 21
466.2596035387822
 31
0.0
  0
LINE
  5
126
330
1F
100
AcDbEntity
  8
NoLayerName_001
  6
Continuous
 62
    30
370
    50
100
AcDbLine
 10
183.1578831716963
 20
498.7596035387822
 30
0.0
 11
175.1578831716963
 21
498.7596035387822
 31
0.0
  0
LINE
  5
127
330
1F
100
AcDbEntity
  8
NoLayerName_001
  6
Continuous
 62
    30
370
    50
100
AcDbLine
 10
181.6578831716963
 20
496.7596035387822
 30
0.0
 11
184.1578831716963
 21
496.7596035387822
 31
0.0
  0
LINE
  5
128
330
1F
100
AcDbEntity
  8
NoLayerName_001
  6
Continuous
 62
    30
370
    50
100
AcDbLine
 10
176.6578831716963
 20
496.7596035387822
 30
0.0
 11
174.1578831716963
 21
496.7596035387822
 31
0.0
  0
LINE
  5
129
330
1F
100
AcDbEntity
  8
NoLayerName_001
  6
Continuous
 62
    30
370
    50
100
AcDbLine
 10
183.1578831716963
 20
464.2596035387822
 30
0.0
 11
175.1578831716963
 21
464.2596035387822
 31
0.0
  0
LINE
  5
12A
330
1F
100
AcDbEntity
  8
NoLayerName_001
  6
Continuous
 62
    30
370
    50
100
AcDbLine
 10
176.6578831716963
 20
496.0096035387822
 30
0.0
 11
181.6578831716963
 21
496.0096035387822
 31
0.0
  0
LINE
  5
12B
330
1F
100
AcDbEntity
  8
NoLayerName_001
  6
Continuous
 62
    30
370
    50
100
AcDbLine
 10
219.6578831716963
 20
496.0096035387822
 30
0.0
 11
214.6578831716963
 21
496.0096035387822
 31
0.0
  0
LINE
  5
12C
330
1F
100
AcDbEntity
  8
NoLayerName_001
  6
Continuous
 62
    30
370
    50
100
AcDbLine
 10
176.6578831716963
 20
467.0096035387822
 30
0.0
 11
181.6578831716963
 21
467.0096035387822
 31
0.0
  0
LINE
  5
12D
330
1F
100
AcDbEntity
  8
NoLayerName_001
  6
Continuous
 62
    30
370
    50
100
AcDbLine
 10
219.6578831716963
 20
467.0096035387822
 30
0.0
 11
214.6578831716963
 21
467.0096035387822
 31
0.0
  0
LINE
  5
12E
330
1F
100
AcDbEntity
  8
NoLayerName_001
  6
Continuous
 62
    30
370
    50
100
AcDbLine
 10
175.1578831716963
 20
498.7596035387822
 30
0.0
 11
174.1578831716963
 21
497.7596035387822
 31
0.0
  0
LINE
  5
12F
330
1F
100
AcDbEntity
  8
NoLayerName_001
  6
Continuous
 62
    30
370
    50
100
AcDbLine
 10
183.1578831716963
 20
498.7596035387822
 30
0.0
 11
184.1578831716963
 21
497.7596035387822
 31
0.0
  0
LINE
  5
130
330
1F
100
AcDbEntity
  8
NoLayerName_001
  6
Continuous
 62
    30
370
    50
100
AcDbLine
 10
213.1578831716963
 20
498.7596035387822
 30
0.0
 11
212.1578831716963
 21
497.7596035387822
 31
0.0
  0
LINE
  5
131
330
1F
100
AcDbEntity
  8
NoLayerName_001
  6
Continuous
 62
    30
370
    50
100
AcDbLine
 10
174.1578831716963
 20
465.2596035387822
 30
0.0
 11
175.1578831716963
 21
464.2596035387822
 31
0.0
  0
LINE
  5
132
330
1F
100
AcDbEntity
  8
NoLayerName_001
  6
Continuous
 62
    30
370
    50
100
AcDbLine
 10
183.1578831716963
 20
464.2596035387822
 30
0.0
 11
184.1578831716963
 21
465.2596035387822
 31
0.0
  0
LINE
  5
133
330
1F
100
AcDbEntity
  8
NoLayerName_001
  6
Continuous
 62
    30
370
    50
100
AcDbLine
 10
212.1578831716963
 20
465.2596035387822
 30
0.0
 11
213.1578831716963
 21
464.2596035387822
 31
0.0
  0
LINE
  5
134
330
1F
100
AcDbEntity
  8
NoLayerName_001
  6
Continuous
 62
    30
370
    50
100
AcDbLine
 10
181.6578831716963
 20
466.2596035387822
 30
0.0
 11
184.1578831716963
 21
466.2596035387822
 31
0.0
  0
LINE
  5
135
330
1F
100
AcDbEntity
  8
NoLayerName_001
  6
Continuous
 62
    30
370
    50
100
AcDbLine
 10
176.6578831716963
 20
466.2596035387822
 30
0.0
 11
174.1578831716963
 21
466.2596035387822
 31
0.0
  0
LINE
  5
136
330
1F
100
AcDbEntity
  8
NoLayerName_001
  6
Continuous
 62
    30
370
    50
100
AcDbLine
 10
222.1578831716963
 20
465.2596035387822
 30
0.0
 11
221.1578831716963
 21
464.2596035387822
 31
0.0
  0
LINE
  5
137
330
1F
100
AcDbEntity
  8
NoLayerName_001
  6
Continuous
 62
    30
370
    50
100
AcDbLine
 10
221.1578831716963
 20
464.2596035387822
 30
0.0
 11
213.1578831716963
 21
464.2596035387822
 31
0.0
  0
LINE
  5
138
330
1F
100
AcDbEntity
  8
NoLayerName_001
  6
Continuous
 62
    30
370
    50
100
AcDbLine
 10
219.6578831716963
 20
466.2596035387822
 30
0.0
 11
222.1578831716963
 21
466.2596035387822
 31
0.0
  0
LINE
  5
139
330
1F
100
AcDbEntity
  8
NoLayerName_001
  6
Continuous
 62
    30
370
    50
100
AcDbLine
 10
222.1578831716963
 20
497.7596035387822
 30
0.0
 11
221.1578831716963
 21
498.7596035387822
 31
0.0
  0
LINE
  5
13A
330
1F
100
AcDbEntity
  8
NoLayerName_001
  6
Continuous
 62
    30
370
    50
100
AcDbLine
 10
221.1578831716961
 20
498.7596035387822
 30
0.0
 11
213.1578831716962
 21
498.7596035387822
 31
0.0
  0
LINE
  5
13B
330
1F
100
AcDbEntity
  8
NoLayerName_001
  6
Continuous
 62
    30
370
    50
100
AcDbLine
 10
219.6578831716963
 20
496.7596035387822
 30
0.0
 11
222.1578831716963
 21
496.7596035387822
 31
0.0
  0
CIRCLE
  5
13C
330
1F
100
AcDbEntity
  8
NoLayerName_001
  6
Continuous
 62
    30
370
    50
100
AcDbCircle
 10
208.6578831716963
 20
481.5096035387822
 30
0.0
 40
1.5
  0
CIRCLE
  5
13D
330
1F
100
AcDbEntity
  8
NoLayerName_001
  6
Continuous
 62
    30
370
    50
100
AcDbCircle
 10
217.1578831716963
 20
481.5096035387822
 30
0.0
 40
1.5
  0
CIRCLE
  5
13E
330
1F
100
AcDbEntity
  8
NoLayerName_001
  6
Continuous
 62
    30
370
    50
100
AcDbCircle
 10
229.1578831716963
 20
481.5096035387822
 30
0.0
 40
1.5
  0
LINE
  5
13F
330
1F
100
AcDbEntity
  8
NoLayerName_001
  6
Continuous
 62
    30
370
    50
100
AcDbLine
 10
184.1578831716963
 20
496.5096035387822
 30
0.0
 11
184.1578831716963
 21
497.7596035387822
 31
0.0
  0
LINE
  5
140
330
1F
100
AcDbEntity
  8
NoLayerName_001
  6
Continuous
 62
    30
370
    50
100
AcDbLine
 10
174.1578831716963
 20
496.5096035387822
 30
0.0
 11
174.1578831716963
 21
497.7596035387822
 31
0.0
  0
LINE
  5
141
330
1F
100
AcDbEntity
  8
NoLayerName_001
  6
Continuous
 62
    30
370
    50
100
AcDbLine
 10
174.1578831716963
 20
466.5096035387822
 30
0.0
 11
174.1578831716963
 21
465.2596035387822
 31
0.0
  0
LINE
  5
142
330
1F
100
AcDbEntity
  8
NoLayerName_001
  6
Continuous
 62
    30
370
    50
100
AcDbLine
 10
184.1578831716963
 20
466.5096035387822
 30
0.0
 11
184.1578831716963
 21
465.2596035387822
 31
0.0
  0
LINE
  5
143
330
1F
100
AcDbEntity
  8
NoLayerName_001
  6
Continuous
 62
    30
370
    50
100
AcDbLine
 10
212.1578831716963
 20
466.5096035387822
 30
0.0
 11
212.1578831716963
 21
465.2596035387823
 31
0.0
  0
LINE
  5
144
330
1F
100
AcDbEntity
  8
NoLayerName_001
  6
Continuous
 62
    30
370
    50
100
AcDbLine
 10
222.1578831716963
 20
466.5096035387822
 30
0.0
 11
222.1578831716963
 21
465.2596035387822
 31
0.0
  0
LINE
  5
145
330
1F
100
AcDbEntity
  8
NoLayerName_001
  6
Continuous
 62
    30
370
    50
100
AcDbLine
 10
234.1578831716963
 20
484.5096035387822
 30
0.0
 11
234.1578831716963
 21
478.5096035387822
 31
0.0
  0
LINE
  5
146
330
1F
100
AcDbEntity
  8
NoLayerName_001
  6
Continuous
 62
    30
370
    50
100
AcDbLine
 10
222.1578831716963
 20
496.5096035387822
 30
0.0
 11
222.1578831716963
 21
497.7596035387822
 31
0.0
  0
LINE
  5
147
330
1F
100
AcDbEntity
  8
NoLayerName_001
  6
Continuous
 62
    30
370
    50
100
AcDbLine
 10
212.1578831716963
 20
496.5096035387822
 30
0.0
 11
212.1578831716963
 21
497.7596035387822
 31
0.0
  0
LINE
  5
148
330
1F
100
AcDbEntity
  8
NoLayerName_001
  6
Continuous
 62
    30
370
    50
100
AcDbLine
 10
214.6578831716963
 20
467.0096035387822
 30
0.0
 11
214.6578831716963
 21
466.2596035387822
 31
0.0
  0
LINE
  5
149
330
1F
100
AcDbEntity
  8
NoLayerName_001
  6
Continuous
 62
    30
370
    50
100
AcDbLine
 10
219.6578831716963
 20
467.0096035387822
 30
0.0
 11
219.6578831716963
 21
466.2596035387822
 31
0.0
  0
LINE
  5
14A
330
1F
100
AcDbEntity
  8
NoLayerName_001
  6
Continuous
 62
    30
370
    50
100
AcDbLine
 10
214.6578831716963
 20
496.0096035387822
 30
0.0
 11
214.6578831716963
 21
496.7596035387822
 31
0.0
  0
LINE
  5
14B
330
1F
100
AcDbEntity
  8
NoLayerName_001
  6
Continuous
 62
    30
370
    50
100
AcDbLine
 10
219.6578831716963
 20
496.0096035387822
 30
0.0
 11
219.6578831716963
 21
496.7596035387822
 31
0.0
  0
LINE
  5
14C
330
1F
100
AcDbEntity
  8
NoLayerName_001
  6
Continuous
 62
    30
370
    50
100
AcDbLine
 10
174.1578831716963
 20
478.5096035387822
 30
0.0
 11
174.1578831716963
 21
484.5096035387822
 31
0.0
  0
LINE
  5
14D
330
1F
100
AcDbEntity
  8
NoLayerName_001
  6
Continuous
 62
    30
370
    50
100
AcDbLine
 10
176.6578831716963
 20
496.0096035387822
 30
0.0
 11
176.6578831716963
 21
496.7596035387822
 31
0.0
  0
LINE
  5
14E
330
1F
100
AcDbEntity
  8
NoLayerName_001
  6
Continuous
 62
    30
370
    50
100
AcDbLine
 10
181.6578831716963
 20
496.0096035387822
 30
0.0
 11
181.6578831716963
 21
496.7596035387822
 31
0.0
  0
LINE
  5
14F
330
1F
100
AcDbEntity
  8
NoLayerName_001
  6
Continuous
 62
    30
370
    50
100
AcDbLine
 10
176.6578831716963
 20
467.0096035387822
 30
0.0
 11
176.6578831716963
 21
466.2596035387822
 31
0.0
  0
LINE
  5
150
330
1F
100
AcDbEntity
  8
NoLayerName_001
  6
Continuous
 62
    30
370
    50
100
AcDbLine
 10
181.6578831716963
 20
467.0096035387822
 30
0.0
 11
181.6578831716963
 21
466.2596035387822
 31
0.0
  0
LINE
  5
151
330
1F
100
AcDbEntity
  8
NoLayerName_001
  6
Continuous
 62
    30
370
    50
100
AcDbLine
 10
350.914831150067
 20
483.2596035387822
 30
0.0
 11
350.914831150067
 21
479.7596035387822
 31
0.0
  0
LINE
  5
152
330
1F
100
AcDbEntity
  8
NoLayerName_001
  6
Continuous
 62
    30
370
    50
100
AcDbLine
 10
350.914831150067
 20
479.7596035387822
 30
0.0
 11
351.414831150067
 21
479.2596035387822
 31
0.0
  0
LINE
  5
153
330
1F
100
AcDbEntity
  8
NoLayerName_001
  6
Continuous
 62
    30
370
    50
100
AcDbLine
 10
350.914831150067
 20
483.2596035387822
 30
0.0
 11
351.414831150067
 21
483.7596035387822
 31
0.0
  0
LINE
  5
154
330
1F
100
AcDbEntity
  8
NoLayerName_001
  6
Continuous
 62
    30
370
    50
100
AcDbLine
 10
353.414831150067
 20
466.8096035387822
 30
0.0
 11
353.414831150067
 21
464.2596035387822
 31
0.0
  0
LINE
  5
155
330
1F
100
AcDbEntity
  8
NoLayerName_001
  6
Continuous
 62
    30
370
    50
100
AcDbLine
 10
353.414831150067
 20
496.2096035387823
 30
0.0
 11
353.414831150067
 21
498.7596035387823
 31
0.0
  0
LINE
  5
156
330
1F
100
AcDbEntity
  8
NoLayerName_001
  6
Continuous
 62
    30
370
    50
100
AcDbLine
 10
355.914831150067
 20
496.7596035387822
 30
0.0
 11
353.414831150067
 21
496.7596035387822
 31
0.0
  0
LINE
  5
157
330
1F
100
AcDbEntity
  8
NoLayerName_001
  6
Continuous
 62
    30
370
    50
100
AcDbLine
 10
353.414831150067
 20
497.7596035387822
 30
0.0
 11
357.914831150067
 21
497.7596035387822
 31
0.0
  0
LINE
  5
158
330
1F
100
AcDbEntity
  8
NoLayerName_001
  6
Continuous
 62
    30
370
    50
100
AcDbLine
 10
357.414831150067
 20
498.7596035387822
 30
0.0
 11
353.414831150067
 21
498.7596035387822
 31
0.0
  0
LINE
  5
159
330
1F
100
AcDbEntity
  8
NoLayerName_001
  6
Continuous
 62
    30
370
    50
100
AcDbLine
 10
353.414831150067
 20
465.2596035387822
 30
0.0
 11
357.914831150067
 21
465.2596035387822
 31
0.0
  0
LINE
  5
15A
330
1F
100
AcDbEntity
  8
NoLayerName_001
  6
Continuous
 62
    30
370
    50
100
AcDbLine
 10
357.414831150067
 20
464.2596035387822
 30
0.0
 11
353.414831150067
 21
464.2596035387822
 31
0.0
  0
LINE
  5
15B
330
1F
100
AcDbEntity
  8
NoLayerName_001
  6
Continuous
 62
    30
370
    50
100
AcDbLine
 10
355.914831150067
 20
466.2596035387822
 30
0.0
 11
353.414831150067
 21
466.2596035387822
 31
0.0
  0
LINE
  5
15C
330
1F
100
AcDbEntity
  8
NoLayerName_001
  6
Continuous
 62
    30
370
    50
100
AcDbLine
 10
357.914831150067
 20
498.2596035387822
 30
0.0
 11
357.914831150067
 21
464.7596035387822
 31
0.0
  0
LINE
  5
15D
330
1F
100
AcDbEntity
  8
NoLayerName_001
  6
Continuous
 62
    30
370
    50
100
AcDbLine
 10
355.914831150067
 20
496.7596035387822
 30
0.0
 11
355.914831150067
 21
466.2596035387822
 31
0.0
  0
LINE
  5
15E
330
1F
100
AcDbEntity
  8
NoLayerName_001
  6
Continuous
 62
    30
370
    50
100
AcDbLine
 10
353.6148311500669
 20
496.0096035387822
 30
0.0
 11
353.9148311500669
 21
496.0096035387822
 31
0.0
  0
LINE
  5
15F
330
1F
100
AcDbEntity
  8
NoLayerName_001
  6
Continuous
 62
    30
370
    50
100
AcDbLine
 10
353.6148311500669
 20
467.0096035387822
 30
0.0
 11
353.9148311500669
 21
467.0096035387822
 31
0.0
  0
LINE
  5
160
330
1F
100
AcDbEntity
  8
NoLayerName_001
  6
Continuous
 62
    30
370
    50
100
AcDbLine
 10
353.414831150067
 20
496.2096035387823
 30
0.0
 11
353.6148311500669
 21
496.0096035387823
 31
0.0
  0
LINE
  5
161
330
1F
100
AcDbEntity
  8
NoLayerName_001
  6
Continuous
 62
    30
370
    50
100
AcDbLine
 10
353.414831150067
 20
466.8096035387822
 30
0.0
 11
353.6148311500669
 21
467.0096035387822
 31
0.0
  0
LINE
  5
162
330
1F
100
AcDbEntity
  8
NoLayerName_001
  6
Continuous
 62
    30
370
    50
100
AcDbLine
 10
357.414831150067
 20
464.2596035387822
 30
0.0
 11
357.914831150067
 21
464.7596035387822
 31
0.0
  0
LINE
  5
163
330
1F
100
AcDbEntity
  8
NoLayerName_001
  6
Continuous
 62
    30
370
    50
100
AcDbLine
 10
357.914831150067
 20
498.2596035387822
 30
0.0
 11
357.4148311500669
 21
498.7596035387822
 31
0.0
  0
LINE
  5
164
330
1F
100
AcDbEntity
  8
NoLayerName_001
  6
Continuous
 62
    30
370
    50
100
AcDbLine
 10
353.914831150067
 20
496.7596035387822
 30
0.0
 11
353.914831150067
 21
496.0096035387822
 31
0.0
  0
LINE
  5
165
330
1F
100
AcDbEntity
  8
NoLayerName_001
  6
Continuous
 62
    30
370
    50
100
AcDbLine
 10
353.914831150067
 20
467.0096035387822
 30
0.0
 11
353.914831150067
 21
466.2596035387822
 31
0.0
  0
LINE
  5
166
330
1F
100
AcDbEntity
  8
NoLayerName_001
  6
Continuous
 62
    30
370
    50
100
AcDbLine
 10
354.3148311500671
 20
483.7596035387822
 30
0.0
 11
351.414831150067
 21
483.7596035387822
 31
0.0
  0
LINE
  5
167
330
1F
100
AcDbEntity
  8
NoLayerName_001
  6
Continuous
 62
    30
370
    50
100
AcDbLine
 10
354.3148311500671
 20
479.2596035387822
 30
0.0
 11
351.414831150067
 21
479.2596035387822
 31
0.0
  0
LINE
  5
168
330
1F
100
AcDbEntity
  8
NoLayerName_001
  6
Continuous
 62
    30
370
    50
100
AcDbLine
 10
345.8148311500669
 20
496.5096035387822
 30
0.0
 11
353.414831150067
 21
496.5096035387822
 31
0.0
  0
LINE
  5
169
330
1F
100
AcDbEntity
  8
NoLayerName_001
  6
Continuous
 62
    30
370
    50
100
AcDbLine
 10
353.914831150067
 20
496.5096035387822
 30
0.0
 11
355.9148311500669
 21
496.5096035387822
 31
0.0
  0
LINE
  5
16A
330
1F
100
AcDbEntity
  8
NoLayerName_001
  6
Continuous
 62
    30
370
    50
100
AcDbLine
 10
345.8148311500669
 20
466.5096035387822
 30
0.0
 11
353.414831150067
 21
466.5096035387822
 31
0.0
  0
LINE
  5
16B
330
1F
100
AcDbEntity
  8
NoLayerName_001
  6
Continuous
 62
    30
370
    50
100
AcDbLine
 10
353.914831150067
 20
466.5096035387822
 30
0.0
 11
355.9148311500669
 21
466.5096035387822
 31
0.0
  0
LINE
  5
16C
330
1F
100
AcDbEntity
  8
NoLayerName_001
  6
Continuous
 62
    30
370
    50
100
AcDbLine
 10
234.1578831716963
 20
393.3233541794672
 30
0.0
 11
234.1578831716963
 21
395.3233541794672
 31
0.0
  0
LINE
  5
16D
330
1F
100
AcDbEntity
  8
NoLayerName_001
  6
Continuous
 62
    30
370
    50
100
AcDbLine
 10
204.6578831716963
 20
390.3233541794672
 30
0.0
 11
233.1578831716963
 21
390.3233541794672
 31
0.0
  0
LINE
  5
16E
330
1F
100
AcDbEntity
  8
NoLayerName_001
  6
Continuous
 62
    30
370
    50
100
AcDbLine
 10
174.1578831716963
 20
393.3233541794672
 30
0.0
 11
234.1578831716963
 21
393.3233541794672
 31
0.0
  0
LINE
  5
16F
330
1F
100
AcDbEntity
  8
NoLayerName_001
  6
Continuous
 62
    30
370
    50
100
AcDbLine
 10
180.9078831716963
 20
400.3233541794672
 30
0.0
 11
177.4078831716963
 21
400.3233541794672
 31
0.0
  0
LINE
  5
170
330
1F
100
AcDbEntity
  8
NoLayerName_001
  6
Continuous
 62
    30
370
    50
100
AcDbLine
 10
176.9078831716963
 20
399.8233541794672
 30
0.0
 11
176.9078831716963
 21
397.8233541794672
 31
0.0
  0
LINE
  5
171
330
1F
100
AcDbEntity
  8
NoLayerName_001
  6
Continuous
 62
    30
370
    50
100
AcDbLine
 10
181.4078831716963
 20
399.8233541794672
 30
0.0
 11
181.4078831716963
 21
397.8233541794672
 31
0.0
  0
LINE
  5
172
330
1F
100
AcDbEntity
  8
NoLayerName_001
  6
Continuous
 62
    30
370
    50
100
AcDbLine
 10
176.9078831716963
 20
399.8233541794672
 30
0.0
 11
177.4078831716963
 21
400.3233541794672
 31
0.0
  0
LINE
  5
173
330
1F
100
AcDbEntity
  8
NoLayerName_001
  6
Continuous
 62
    30
370
    50
100
AcDbLine
 10
180.9078831716963
 20
400.3233541794672
 30
0.0
 11
181.4078831716963
 21
399.8233541794672
 31
0.0
  0
LINE
  5
174
330
1F
100
AcDbEntity
  8
NoLayerName_001
  6
Continuous
 62
    30
370
    50
100
AcDbLine
 10
174.1578831716963
 20
397.8233541794672
 30
0.0
 11
174.1578831716963
 21
393.3233541794672
 31
0.0
  0
LINE
  5
175
330
1F
100
AcDbEntity
  8
NoLayerName_001
  6
Continuous
 62
    30
370
    50
100
AcDbLine
 10
184.1578831716963
 20
397.8233541794672
 30
0.0
 11
184.1578831716963
 21
393.3233541794672
 31
0.0
  0
LINE
  5
176
330
1F
100
AcDbEntity
  8
NoLayerName_001
  6
Continuous
 62
    30
370
    50
100
AcDbLine
 10
183.1578831716963
 20
393.3233541794672
 30
0.0
 11
183.1578831716963
 21
397.8233541794672
 31
0.0
  0
LINE
  5
177
330
1F
100
AcDbEntity
  8
NoLayerName_001
  6
Continuous
 62
    30
370
    50
100
AcDbLine
 10
175.1578831716963
 20
393.3233541794672
 30
0.0
 11
175.1578831716963
 21
397.8233541794672
 31
0.0
  0
LINE
  5
178
330
1F
100
AcDbEntity
  8
NoLayerName_001
  6
Continuous
 62
    30
370
    50
100
AcDbLine
 10
222.1578831716963
 20
397.8233541794672
 30
0.0
 11
222.1578831716963
 21
393.3233541794672
 31
0.0
  0
LINE
  5
179
330
1F
100
AcDbEntity
  8
NoLayerName_001
  6
Continuous
 62
    30
370
    50
100
AcDbLine
 10
212.1578831716963
 20
397.8233541794672
 30
0.0
 11
222.1578831716963
 21
397.8233541794672
 31
0.0
  0
LINE
  5
17A
330
1F
100
AcDbEntity
  8
NoLayerName_001
  6
Continuous
 62
    30
370
    50
100
AcDbLine
 10
213.1578831716963
 20
393.3233541794672
 30
0.0
 11
213.1578831716963
 21
397.8233541794672
 31
0.0
  0
LINE
  5
17B
330
1F
100
AcDbEntity
  8
NoLayerName_001
  6
Continuous
 62
    30
370
    50
100
AcDbLine
 10
221.1578831716963
 20
393.3233541794672
 30
0.0
 11
221.1578831716963
 21
397.8233541794672
 31
0.0
  0
LINE
  5
17C
330
1F
100
AcDbEntity
  8
NoLayerName_001
  6
Continuous
 62
    30
370
    50
100
AcDbLine
 10
212.1578831716963
 20
397.8233541794672
 30
0.0
 11
212.1578831716963
 21
393.3233541794672
 31
0.0
  0
LINE
  5
17D
330
1F
100
AcDbEntity
  8
NoLayerName_001
  6
Continuous
 62
    30
370
    50
100
AcDbLine
 10
204.6578831716963
 20
390.3233541794672
 30
0.0
 11
204.6578831716963
 21
393.3233541794672
 31
0.0
  0
LINE
  5
17E
330
1F
100
AcDbEntity
  8
NoLayerName_001
  6
Continuous
 62
    30
370
    50
100
AcDbLine
 10
174.1578831716963
 20
397.8233541794672
 30
0.0
 11
184.1578831716963
 21
397.8233541794672
 31
0.0
  0
LINE
  5
17F
330
1F
100
AcDbEntity
  8
NoLayerName_001
  6
Continuous
 62
    30
370
    50
100
AcDbLine
 10
233.1578831716963
 20
390.3233541794672
 30
0.0
 11
233.1578831716963
 21
393.3233541794672
 31
0.0
  0
LINE
  5
180
330
1F
100
AcDbEntity
  8
NoLayerName_001
  6
Continuous
 62
    30
370
    50
100
AcDbLine
 10
174.1578831716963
 20
396.9233541794672
 30
0.0
 11
76.62432505583996
 21
396.9233541794672
 31
0.0
  0
LINE
  5
181
330
1F
100
AcDbEntity
  8
NoLayerName_001
  6
Continuous
 62
    30
370
    50
100
AcDbLine
 10
212.1578831716963
 20
396.9233541794672
 30
0.0
 11
184.1578831716963
 21
396.9233541794672
 31
0.0
  0
LINE
  5
182
330
1F
100
AcDbEntity
  8
NoLayerName_001
  6
Continuous
 62
    30
370
    50
100
AcDbLine
 10
222.1578831716963
 20
396.9233541794672
 30
0.0
 11
276.62432505584
 21
396.9233541794672
 31
0.0
  0
LINE
  5
183
330
1F
100
AcDbEntity
  8
NoLayerName_001
  6
Continuous
 62
    30
370
    50
100
AcDbLine
 10
75.02432505584005
 20
496.5096035387822
 30
0.0
 11
176.6578831716963
 21
496.5096035387822
 31
0.0
  0
LINE
  5
184
330
1F
100
AcDbEntity
  8
NoLayerName_001
  6
Continuous
 62
    30
370
    50
100
AcDbLine
 10
181.6578831716963
 20
496.5096035387822
 30
0.0
 11
214.6578831716963
 21
496.5096035387822
 31
0.0
  0
LINE
  5
185
330
1F
100
AcDbEntity
  8
NoLayerName_001
  6
Continuous
 62
    30
370
    50
100
AcDbLine
 10
219.6578831716963
 20
496.5096035387822
 30
0.0
 11
276.6243250558401
 21
496.5096035387822
 31
0.0
  0
LINE
  5
186
330
1F
100
AcDbEntity
  8
NoLayerName_001
  6
Continuous
 62
    30
370
    50
100
AcDbLine
 10
219.6578831716963
 20
466.5096035387822
 30
0.0
 11
276.6243250558401
 21
466.5096035387822
 31
0.0
  0
LINE
  5
187
330
1F
100
AcDbEntity
  8
NoLayerName_001
  6
Continuous
 62
    30
370
    50
100
AcDbLine
 10
75.02432505584005
 20
466.5096035387822
 30
0.0
 11
176.6578831716963
 21
466.5096035387822
 31
0.0
  0
LINE
  5
188
330
1F
100
AcDbEntity
  8
NoLayerName_001
  6
Continuous
 62
    30
370
    50
100
AcDbLine
 10
181.6578831716963
 20
466.5096035387822
 30
0.0
 11
214.6578831716963
 21
466.5096035387822
 31
0.0
  0
LINE
  5
189
330
1F
100
AcDbEntity
  8
NoLayerName_001
  6
Continuous
 62
    30
370
    50
100
AcDbLine
 10
75.02432505584005
 20
408.4233541794672
 30
0.0
 11
76.62432505583996
 21
408.4233541794672
 31
0.0
  0
LINE
  5
18A
330
1F
100
AcDbEntity
  8
NoLayerName_001
  6
Continuous
 62
    30
370
    50
100
AcDbLine
 10
75.02432505584005
 20
405.4233541794672
 30
0.0
 11
76.62432505583996
 21
405.4233541794672
 31
0.0
  0
LINE
  5
18B
330
1F
100
AcDbEntity
  8
NoLayerName_003
  6
Continuous
 62
     7
370
   100
100
AcDbLine
 10
372.0
 20
80.0
 30
0.0
 11
372.0
 21
40.0
 31
0.0
  0
LINE
  5
18C
330
1F
100
AcDbEntity
  8
NoLayerName_003
  6
Continuous
 62
     7
370
    25
100
AcDbLine
 10
253.0
 20
54.0
 30
0.0
 11
372.0
 21
54.0
 31
0.0
  0
LINE
  5
18D
330
1F
100
AcDbEntity
  8
NoLayerName_003
  6
Continuous
 62
     7
370
    25
100
AcDbLine
 10
275.0
 20
80.0
 30
0.0
 11
275.0
 21
40.0
 31
0.0
  0
LINE
  5
18E
330
1F
100
AcDbEntity
  8
NoLayerName_003
  6
Continuous
 62
     7
370
   100
100
AcDbLine
 10
253.0
 20
80.0
 30
0.0
 11
253.0
 21
40.0
 31
0.0
  0
LINE
  5
18F
330
1F
100
AcDbEntity
  8
NoLayerName_003
  6
Continuous
 62
     7
370
   100
100
AcDbLine
 10
253.0
 20
40.0
 30
0.0
 11
372.0
 21
40.0
 31
0.0
  0
LINE
  5
190
330
1F
100
AcDbEntity
  8
NoLayerName_003
  6
Continuous
 62
     7
370
   100
100
AcDbLine
 10
372.0
 20
80.0
 30
0.0
 11
253.0
 21
80.0
 31
0.0
  0
MTEXT
  5
191
330
1F
100
AcDbEntity
  8
NoLayerName_003
 62
     7
370
    50
100
AcDbMText
 10
255.2960004806519
 20
63.79999995231628
 30
0.0
 40
4.413793169218918
 41
0.0
 71
     7
 72
     5
  1
\fＭＳ Ｐゴシック|b0|c128|p50;\A1;品　名
 73
     1
 44
1.299389002163688
1001
ACAD
1000
ACAD_MTEXT_DEFINED_HEIGHT_BEGIN
1070
    46
1040
3.200000047683716
1000
ACAD_MTEXT_DEFINED_HEIGHT_END
  0
MTEXT
  5
192
330
1F
100
AcDbEntity
  8
NoLayerName_003
 62
     7
370
    50
100
AcDbMText
 10
255.2960004806519
 20
43.79999995231628
 30
0.0
 40
4.413793169218918
 41
0.0
 71
     7
 72
     5
  1
\fＭＳ Ｐゴシック|b0|c128|p50;\A1;品　番
 73
     1
 44
1.299389002163688
1001
ACAD
1000
ACAD_MTEXT_DEFINED_HEIGHT_BEGIN
1070
    46
1040
3.200000047683716
1000
ACAD_MTEXT_DEFINED_HEIGHT_END
  0
MTEXT
  5
193
330
1F
100
AcDbEntity
  8
NoLayerName_001
 62
     7
370
    50
100
AcDbMText
 10
323.5000003997808
 20
67.00000004768371
 30
0.0
 40
4.413793169218918
 41
0.0
 71
     5
 72
     5
  1
\fＭＳ Ｐゴシック|b0|c128|p50;\A1;間仕切用固定金具Ｅ型\Pスライドタイプ　３６用
 73
     1
 44
0.9745417487184044
1001
ACAD
1000
ACAD_MTEXT_DEFINED_HEIGHT_BEGIN
1070
    46
1040
6.400000095367432
1000
ACAD_MTEXT_DEFINED_HEIGHT_END
  0
MTEXT
  5
194
330
1F
100
AcDbEntity
  8
NoLayerName_001
 62
     7
370
    50
100
AcDbMText
 10
323.500000459948
 20
47.00000004768371
 30
0.0
 40
4.413793169218918
 41
0.0
 71
     5
 72
     5
  1
\fＭＳ Ｐゴシック|b0|c128|p50;\A1;ＫＣＥ３６Ｓ
 73
     1
 44
1.299389002163688
1001
ACAD
1000
ACAD_MTEXT_DEFINED_HEIGHT_BEGIN
1070
    46
1040
3.200000047683716
1000
ACAD_MTEXT_DEFINED_HEIGHT_END
  0
ENDSEC
  0
SECTION
  2
OBJECTS
  0
DICTIONARY
  5
C
330
0
100
AcDbDictionary
281
     1
  3
ACAD_GROUP
350
D
  3
ACAD_LAYOUT
350
1A
  3
ACAD_MATERIAL
350
3B
  3
ACAD_MLEADERSTYLE
350
1B9
  3
ACAD_MLINESTYLE
350
17
  3
ACAD_PLOTSETTINGS
350
19
  3
ACAD_PLOTSTYLENAME
350
E
  3
ACAD_SCALELIST
350
195
  3
ACAD_VISUALSTYLE
350
2A
  3
AcDbVariableDictionary
350
1B7
  3
DWGPROPS
350
1BF
  0
DICTIONARY
  5
D
102
{ACAD_REACTORS
330
C
102
}
330
C
100
AcDbDictionary
281
     1
  0
DICTIONARY
  5
1A
102
{ACAD_REACTORS
330
C
102
}
330
C
100
AcDbDictionary
281
     1
  3
Layout1
350
1E
  3
Model
350
22
  0
DICTIONARY
  5
3B
102
{ACAD_REACTORS
330
C
102
}
330
C
100
AcDbDictionary
281
     1
  3
ByBlock
350
3D
  3
ByLayer
350
3C
  3
Global
350
3E
  0
DICTIONARY
  5
1B9
102
{ACAD_REACTORS
330
C
102
}
330
C
100
AcDbDictionary
281
     1
  0
DICTIONARY
  5
17
102
{ACAD_REACTORS
330
C
102
}
330
C
100
AcDbDictionary
281
     1
  3
Standard
350
18
  0
DICTIONARY
  5
19
102
{ACAD_REACTORS
330
C
102
}
330
C
100
AcDbDictionary
281
     1
  0
ACDBDICTIONARYWDFLT
  5
E
102
{ACAD_REACTORS
330
C
102
}
330
C
100
AcDbDictionary
281
     1
  3
Normal
350
F
100
AcDbDictionaryWithDefault
340
F
  0
DICTIONARY
  5
195
102
{ACAD_REACTORS
330
C
102
}
330
C
100
AcDbDictionary
281
     1
  3
A0
350
196
  3
A1
350
197
  3
A2
350
198
  3
A3
350
199
  3
A4
350
19A
  3
A5
350
19B
  3
A6
350
19C
  3
A7
350
19D
  3
A8
350
19E
  3
A9
350
19F
  3
B0
350
1A0
  3
B1
350
1A1
  3
B2
350
1A2
  3
B3
350
1A3
  3
B4
350
1A4
  3
B5
350
1A5
  3
B6
350
1A6
  3
B7
350
1A7
  3
B8
350
1A8
  3
B9
350
1A9
  3
C0
350
1AA
  3
C1
350
1AB
  3
C2
350
1AC
  3
C3
350
1AD
  3
C4
350
1AE
  3
C5
350
1AF
  3
C6
350
1B0
  3
C7
350
1B1
  3
C8
350
1B2
  3
C9
350
1B3
  3
D0
350
1B4
  3
D1
350
1B5
  3
D2
350
1B6
  0
DICTIONARY
  5
2A
102
{ACAD_REACTORS
330
C
102
}
330
C
100
AcDbDictionary
281
     1
  3
2dWireframe
350
2F
  3
3D Hidden
350
31
  3
3dWireframe
350
30
  3
Basic
350
32
  3
Brighten
350
36
  3
ColorChange
350
3A
  3
Conceptual
350
34
  3
Dim
350
35
  3
Facepattern
350
39
  3
Flat
350
2B
  3
FlatWithEdges
350
2C
  3
Gouraud
350
2D
  3
GouraudWithEdges
350
2E
  3
Linepattern
350
38
  3
Realistic
350
33
  3
Thicken
350
37
  0
DICTIONARY
  5
1B7
102
{ACAD_REACTORS
330
C
102
}
330
C
100
AcDbDictionary
281
     1
  3
CANNOSCALE
350
1BC
  3
DIMASSOC
350
1BD
  3
HIDETEXT
350
1BE
  3
PSOLHEIGHT
350
1BB
  3
PSOLWIDTH
350
1BA
  0
XRECORD
  5
1BF
102
{ACAD_REACTORS
330
C
102
}
330
C
100
AcDbXrecord
280
     1
  1
DWGPROPS COOKIE
  2

  3

  4

  6
File was created by TR2_DExp
  7

  8

  9

300
=
301
=
302
=
303
=
304
=
305
=
306
=
307
=
308
=
309
=
 40
0.0
 41
2457922.346435891
 42
2457922.346436435
  1

 90
        0
  0
LAYOUT
  5
1E
102
{ACAD_REACTORS
330
1A
102
}
330
1A
100
AcDbPlotSettings
  1

  2
none_device
  4

  6

 40
0.0
 41
0.0
 42
0.0
 43
0.0
 44
0.0
 45
0.0
 46
0.0
 47
0.0
 48
0.0
 49
0.0
140
0.0
141
0.0
142
1.0
143
1.0
 70
   688
 72
     0
 73
     0
 74
     5
  7

 75
    16
147
1.0
148
0.0
149
0.0
100
AcDbLayout
  1
Layout1
 70
     0
 71
     1
 10
0.0
 20
0.0
 11
420.0
 21
297.0
 12
0.0
 22
0.0
 32
0.0
 14
1.000000000000000E+20
 24
1.000000000000000E+20
 34
1.000000000000000E+20
 15
-1.000000000000000E+20
 25
-1.000000000000000E+20
 35
-1.000000000000000E+20
146
0.0
 13
0.0
 23
0.0
 33
0.0
 16
1.0
 26
0.0
 36
0.0
 17
0.0
 27
1.0
 37
0.0
 76
     0
330
1B
  0
LAYOUT
  5
22
102
{ACAD_REACTORS
330
1A
102
}
330
1A
100
AcDbPlotSettings
  1

  2
none_device
  4

  6

 40
0.0
 41
0.0
 42
0.0
 43
0.0
 44
0.0
 45
0.0
 46
0.0
 47
0.0
 48
0.0
 49
0.0
140
0.0
141
0.0
142
1.0
143
1.0
 70
  1712
 72
     0
 73
     0
 74
     0
  7

 75
     0
147
1.0
148
0.0
149
0.0
100
AcDbLayout
  1
Model
 70
     1
 71
     0
 10
71.77593495181492
 20
40.0
 11
372.0
 21
498.7596035387823
 12
0.0
 22
0.0
 32
0.0
 14
71.77593495181492
 24
40.0
 34
0.0
 15
372.0
 25
498.7596035387823
 35
0.0
146
0.0
 13
0.0
 23
0.0
 33
0.0
 16
1.0
 26
0.0
 36
0.0
 17
0.0
 27
1.0
 37
0.0
 76
     0
330
1F
331
29
  0
MATERIAL
  5
3D
102
{ACAD_REACTORS
330
3B
102
}
102
{ACAD_XDICTIONARY
360
1E2
102
}
330
3B
100
AcDbMaterial
  1
ByBlock
  0
MATERIAL
  5
3C
102
{ACAD_REACTORS
330
3B
102
}
102
{ACAD_XDICTIONARY
360
1E0
102
}
330
3B
100
AcDbMaterial
  1
ByLayer
  0
MATERIAL
  5
3E
102
{ACAD_REACTORS
330
3B
102
}
102
{ACAD_XDICTIONARY
360
1E4
102
}
330
3B
100
AcDbMaterial
  1
Global
  0
MLINESTYLE
  5
18
102
{ACAD_REACTORS
330
17
102
}
330
17
100
AcDbMlineStyle
  2
Standard
 70
     0
  3

 62
   256
 51
90.0
 52
90.0
 71
     2
 49
0.5
 62
   256
  6
BYLAYER
 49
-0.5
 62
   256
  6
BYLAYER
  0
ACDBPLACEHOLDER
  5
F
102
{ACAD_REACTORS
330
E
102
}
330
E
  0
SCALE
  5
196
102
{ACAD_REACTORS
330
195
102
}
330
195
100
AcDbScale
 70
     0
300
1:1
140
1.0
141
1.0
290
     1
  0
SCALE
  5
197
102
{ACAD_REACTORS
330
195
102
}
330
195
100
AcDbScale
 70
     0
300
1:2
140
1.0
141
2.0
290
     0
  0
SCALE
  5
198
102
{ACAD_REACTORS
330
195
102
}
330
195
100
AcDbScale
 70
     0
300
1:4
140
1.0
141
4.0
290
     0
  0
SCALE
  5
199
102
{ACAD_REACTORS
330
195
102
}
330
195
100
AcDbScale
 70
     0
300
1:5
140
1.0
141
5.0
290
     0
  0
SCALE
  5
19A
102
{ACAD_REACTORS
330
195
102
}
330
195
100
AcDbScale
 70
     0
300
1:8
140
1.0
141
8.0
290
     0
  0
SCALE
  5
19B
102
{ACAD_REACTORS
330
195
102
}
330
195
100
AcDbScale
 70
     0
300
1:10
140
1.0
141
10.0
290
     0
  0
SCALE
  5
19C
102
{ACAD_REACTORS
330
195
102
}
330
195
100
AcDbScale
 70
     0
300
1:16
140
1.0
141
16.0
290
     0
  0
SCALE
  5
19D
102
{ACAD_REACTORS
330
195
102
}
330
195
100
AcDbScale
 70
     0
300
1:20
140
1.0
141
20.0
290
     0
  0
SCALE
  5
19E
102
{ACAD_REACTORS
330
195
102
}
330
195
100
AcDbScale
 70
     0
300
1:30
140
1.0
141
30.0
290
     0
  0
SCALE
  5
19F
102
{ACAD_REACTORS
330
195
102
}
330
195
100
AcDbScale
 70
     0
300
1:40
140
1.0
141
40.0
290
     0
  0
SCALE
  5
1A0
102
{ACAD_REACTORS
330
195
102
}
330
195
100
AcDbScale
 70
     0
300
1:50
140
1.0
141
50.0
290
     0
  0
SCALE
  5
1A1
102
{ACAD_REACTORS
330
195
102
}
330
195
100
AcDbScale
 70
     0
300
1:100
140
1.0
141
100.0
290
     0
  0
SCALE
  5
1A2
102
{ACAD_REACTORS
330
195
102
}
330
195
100
AcDbScale
 70
     0
300
2:1
140
2.0
141
1.0
290
     0
  0
SCALE
  5
1A3
102
{ACAD_REACTORS
330
195
102
}
330
195
100
AcDbScale
 70
     0
300
4:1
140
4.0
141
1.0
290
     0
  0
SCALE
  5
1A4
102
{ACAD_REACTORS
330
195
102
}
330
195
100
AcDbScale
 70
     0
300
8:1
140
8.0
141
1.0
290
     0
  0
SCALE
  5
1A5
102
{ACAD_REACTORS
330
195
102
}
330
195
100
AcDbScale
 70
     0
300
10:1
140
10.0
141
1.0
290
     0
  0
SCALE
  5
1A6
102
{ACAD_REACTORS
330
195
102
}
330
195
100
AcDbScale
 70
     0
300
100:1
140
100.0
141
1.0
290
     0
  0
SCALE
  5
1A7
102
{ACAD_REACTORS
330
195
102
}
330
195
100
AcDbScale
 70
     0
300
1/128" = 1'-0"
140
0.0078125
141
12.0
290
     0
  0
SCALE
  5
1A8
102
{ACAD_REACTORS
330
195
102
}
330
195
100
AcDbScale
 70
     0
300
1/64" = 1'-0"
140
0.015625
141
12.0
290
     0
  0
SCALE
  5
1A9
102
{ACAD_REACTORS
330
195
102
}
330
195
100
AcDbScale
 70
     0
300
1/32" = 1'-0"
140
0.03125
141
12.0
290
     0
  0
SCALE
  5
1AA
102
{ACAD_REACTORS
330
195
102
}
330
195
100
AcDbScale
 70
     0
300
1/16" = 1'-0"
140
0.0625
141
12.0
290
     0
  0
SCALE
  5
1AB
102
{ACAD_REACTORS
330
195
102
}
330
195
100
AcDbScale
 70
     0
300
3/32" = 1'-0"
140
0.09375
141
12.0
290
     0
  0
SCALE
  5
1AC
102
{ACAD_REACTORS
330
195
102
}
330
195
100
AcDbScale
 70
     0
300
1/8" = 1'-0"
140
0.125
141
12.0
290
     0
  0
SCALE
  5
1AD
102
{ACAD_REACTORS
330
195
102
}
330
195
100
AcDbScale
 70
     0
300
3/16" = 1'-0"
140
0.1875
141
12.0
290
     0
  0
SCALE
  5
1AE
102
{ACAD_REACTORS
330
195
102
}
330
195
100
AcDbScale
 70
     0
300
1/4" = 1'-0"
140
0.25
141
12.0
290
     0
  0
SCALE
  5
1AF
102
{ACAD_REACTORS
330
195
102
}
330
195
100
AcDbScale
 70
     0
300
3/8" = 1'-0"
140
0.375
141
12.0
290
     0
  0
SCALE
  5
1B0
102
{ACAD_REACTORS
330
195
102
}
330
195
100
AcDbScale
 70
     0
300
1/2" = 1'-0"
140
0.5
141
12.0
290
     0
  0
SCALE
  5
1B1
102
{ACAD_REACTORS
330
195
102
}
330
195
100
AcDbScale
 70
     0
300
3/4" = 1'-0"
140
0.75
141
12.0
290
     0
  0
SCALE
  5
1B2
102
{ACAD_REACTORS
330
195
102
}
330
195
100
AcDbScale
 70
     0
300
1" = 1'-0"
140
1.0
141
12.0
290
     0
  0
SCALE
  5
1B3
102
{ACAD_REACTORS
330
195
102
}
330
195
100
AcDbScale
 70
     0
300
1-1/2" = 1'-0"
140
1.5
141
12.0
290
     0
  0
SCALE
  5
1B4
102
{ACAD_REACTORS
330
195
102
}
330
195
100
AcDbScale
 70
     0
300
3" = 1'-0"
140
3.0
141
12.0
290
     0
  0
SCALE
  5
1B5
102
{ACAD_REACTORS
330
195
102
}
330
195
100
AcDbScale
 70
     0
300
6" = 1'-0"
140
6.0
141
12.0
290
     0
  0
SCALE
  5
1B6
102
{ACAD_REACTORS
330
195
102
}
330
195
100
AcDbScale
 70
     0
300
1'-0" = 1'-0"
140
12.0
141
12.0
290
     0
  0
VISUALSTYLE
  5
2F
102
{ACAD_REACTORS
330
2A
102
}
102
{ACAD_XDICTIONARY
360
1C8
102
}
330
2A
100
AcDbVisualStyle
  2
2dWireframe
 70
     4
 71
     0
 72
     2
 73
     0
 90
        0
 40
-0.6
 41
-30.0
 62
     5
 63
     7
 74
     1
 91
        4
 64
     7
 65
   257
 75
     1
175
     1
 42
1.0
 92
        0
 66
   257
 43
1.0
 76
     1
 77
     6
 78
     2
 67
     7
 79
     5
170
     0
171
     0
290
     0
174
     0
 93
        1
 44
0.0
173
     0
291
     0
 45
0.0
1001
ACAD
1000
AcDbSavedByObjectVersion
1070
     0
  0
VISUALSTYLE
  5
31
102
{ACAD_REACTORS
330
2A
102
}
102
{ACAD_XDICTIONARY
360
1CC
102
}
330
2A
100
AcDbVisualStyle
  2
3D Hidden
 70
     6
 71
     1
 72
     2
 73
     2
 90
        0
 40
-0.6
 41
-30.0
 62
     5
 63
     7
 74
     2
 91
        2
 64
     7
 65
   257
 75
     2
175
     1
 42
40.0
 92
        0
 66
   257
 43
1.0
 76
     1
 77
     6
 78
     2
 67
     7
 79
     3
170
     0
171
     0
290
     0
174
     0
 93
        1
 44
0.0
173
     0
291
     0
 45
0.0
1001
ACAD
1000
AcDbSavedByObjectVersion
1070
     0
  0
VISUALSTYLE
  5
30
102
{ACAD_REACTORS
330
2A
102
}
102
{ACAD_XDICTIONARY
360
1CA
102
}
330
2A
100
AcDbVisualStyle
  2
3dWireframe
 70
     5
 71
     0
 72
     2
 73
     0
 90
        0
 40
-0.6
 41
-30.0
 62
     5
 63
     7
 74
     1
 91
        4
 64
     7
 65
   257
 75
     1
175
     1
 42
1.0
 92
        0
 66
   257
 43
1.0
 76
     1
 77
     6
 78
     2
 67
     7
 79
     5
170
     0
171
     0
290
     0
174
     0
 93
        1
 44
0.0
173
     0
291
     0
 45
0.0
1001
ACAD
1000
AcDbSavedByObjectVersion
1070
     0
  0
VISUALSTYLE
  5
32
102
{ACAD_REACTORS
330
2A
102
}
102
{ACAD_XDICTIONARY
360
1CE
102
}
330
2A
100
AcDbVisualStyle
  2
Basic
 70
     7
 71
     1
 72
     0
 73
     1
 90
        0
 40
-0.6
 41
-30.0
 62
     5
 63
     7
 74
     0
 91
        4
 64
     7
 65
   257
 75
     1
175
     1
 42
1.0
 92
        8
 66
     7
 43
1.0
 76
     1
 77
     6
 78
     2
 67
     7
 79
     5
170
     0
171
     0
290
     0
174
     0
 93
        1
 44
0.0
173
     0
291
     1
 45
0.0
1001
ACAD
1000
AcDbSavedByObjectVersion
1070
     0
  0
VISUALSTYLE
  5
36
102
{ACAD_REACTORS
330
2A
102
}
102
{ACAD_XDICTIONARY
360
1D6
102
}
330
2A
100
AcDbVisualStyle
  2
Brighten
 70
    12
 71
     2
 72
     2
 73
     0
 90
        0
 40
-0.6
 41
-30.0
 62
     5
 63
     7
 74
     1
 91
        4
 64
     7
 65
   257
 75
     1
175
     1
 42
1.0
 92
        8
 66
     7
 43
1.0
 76
     1
 77
     6
 78
     2
 67
     7
 79
     5
170
     0
171
     0
290
     0
174
     0
 93
        1
 44
50.0
173
     0
291
     1
 45
0.0
1001
ACAD
1000
AcDbSavedByObjectVersion
1070
     0
  0
VISUALSTYLE
  5
3A
102
{ACAD_REACTORS
330
2A
102
}
102
{ACAD_XDICTIONARY
360
1DE
102
}
330
2A
100
AcDbVisualStyle
  2
ColorChange
 70
    16
 71
     2
 72
     2
 73
     3
 90
        0
 40
-0.6
 41
-30.0
 62
     5
 63
     8
 74
     1
 91
        4
 64
     7
 65
   257
 75
     1
175
     1
 42
1.0
 92
        8
 66
     8
 43
1.0
 76
     1
 77
     6
 78
     2
 67
     7
 79
     5
170
     0
171
     0
290
     0
174
     0
 93
        1
 44
0.0
173
     0
291
     1
 45
0.0
1001
ACAD
1000
AcDbSavedByObjectVersion
1070
     0
  0
VISUALSTYLE
  5
34
102
{ACAD_REACTORS
330
2A
102
}
102
{ACAD_XDICTIONARY
360
1D2
102
}
330
2A
100
AcDbVisualStyle
  2
Conceptual
 70
     9
 71
     3
 72
     2
 73
     0
 90
        0
 40
-0.6
 41
-30.0
 62
     5
 63
     7
 74
     2
 91
        2
 64
     7
 65
   257
 75
     1
175
     1
 42
40.0
 92
        8
 66
     7
 43
1.0
 76
     1
 77
     6
 78
     2
 67
     7
 79
     3
170
     0
171
     0
290
     0
174
     0
 93
        1
 44
0.0
173
     0
291
     0
 45
0.0
1001
ACAD
1000
AcDbSavedByObjectVersion
1070
     0
  0
VISUALSTYLE
  5
35
102
{ACAD_REACTORS
330
2A
102
}
102
{ACAD_XDICTIONARY
360
1D4
102
}
330
2A
100
AcDbVisualStyle
  2
Dim
 70
    11
 71
     2
 72
     2
 73
     0
 90
        0
 40
-0.6
 41
-30.0
 62
     5
 63
     7
 74
     1
 91
        4
 64
     7
 65
   257
 75
     1
175
     1
 42
1.0
 92
        8
 66
     7
 43
1.0
 76
     1
 77
     6
 78
     2
 67
     7
 79
     5
170
     0
171
     0
290
     0
174
     0
 93
        1
 44
-50.0
173
     0
291
     1
 45
0.0
1001
ACAD
1000
AcDbSavedByObjectVersion
1070
     0
  0
VISUALSTYLE
  5
39
102
{ACAD_REACTORS
330
2A
102
}
102
{ACAD_XDICTIONARY
360
1DC
102
}
330
2A
100
AcDbVisualStyle
  2
Facepattern
 70
    15
 71
     2
 72
     2
 73
     0
 90
        0
 40
-0.6
 41
-30.0
 62
     5
 63
     7
 74
     1
 91
        4
 64
     7
 65
   257
 75
     1
175
     1
 42
1.0
 92
        8
 66
     7
 43
1.0
 76
     1
 77
     6
 78
     2
 67
     7
 79
     5
170
     0
171
     0
290
     0
174
     0
 93
        1
 44
0.0
173
     0
291
     1
 45
0.0
1001
ACAD
1000
AcDbSavedByObjectVersion
1070
     0
  0
VISUALSTYLE
  5
2B
102
{ACAD_REACTORS
330
2A
102
}
102
{ACAD_XDICTIONARY
360
1C0
102
}
330
2A
100
AcDbVisualStyle
  2
Flat
 70
     0
 71
     2
 72
     1
 73
     1
 90
        2
 40
-0.6
 41
30.0
 62
     5
 63
     7
 74
     0
 91
        4
 64
     7
 65
   257
 75
     1
175
     1
 42
1.0
 92
        8
 66
     7
 43
1.0
 76
     1
 77
     6
 78
     2
 67
     7
 79
     5
170
     0
171
     0
290
     0
174
     0
 93
       13
 44
0.0
173
     0
291
     1
 45
0.0
1001
ACAD
1000
AcDbSavedByObjectVersion
1070
     0
  0
VISUALSTYLE
  5
2C
102
{ACAD_REACTORS
330
2A
102
}
102
{ACAD_XDICTIONARY
360
1C2
102
}
330
2A
100
AcDbVisualStyle
  2
FlatWithEdges
 70
     1
 71
     2
 72
     1
 73
     1
 90
        2
 40
-0.6
 41
30.0
 62
     5
 63
     7
 74
     1
 91
        4
 64
     7
 65
   257
 75
     1
175
     1
 42
1.0
 92
        0
 66
   257
 43
1.0
 76
     1
 77
     6
 78
     2
 67
     7
 79
     5
170
     0
171
     0
290
     0
174
     0
 93
       13
 44
0.0
173
     0
291
     1
 45
0.0
1001
ACAD
1000
AcDbSavedByObjectVersion
1070
     0
  0
VISUALSTYLE
  5
2D
102
{ACAD_REACTORS
330
2A
102
}
102
{ACAD_XDICTIONARY
360
1C4
102
}
330
2A
100
AcDbVisualStyle
  2
Gouraud
 70
     2
 71
     2
 72
     2
 73
     1
 90
        2
 40
-0.6
 41
30.0
 62
     5
 63
     7
 74
     0
 91
        4
 64
     7
 65
   257
 75
     1
175
     1
 42
1.0
 92
        0
 66
     7
 43
1.0
 76
     1
 77
     6
 78
     2
 67
     7
 79
     5
170
     0
171
     0
290
     0
174
     0
 93
       13
 44
0.0
173
     0
291
     1
 45
0.0
1001
ACAD
1000
AcDbSavedByObjectVersion
1070
     0
  0
VISUALSTYLE
  5
2E
102
{ACAD_REACTORS
330
2A
102
}
102
{ACAD_XDICTIONARY
360
1C6
102
}
330
2A
100
AcDbVisualStyle
  2
GouraudWithEdges
 70
     3
 71
     2
 72
     2
 73
     1
 90
        2
 40
-0.6
 41
30.0
 62
     5
 63
     7
 74
     1
 91
        4
 64
     7
 65
   257
 75
     1
175
     1
 42
1.0
 92
        0
 66
   257
 43
1.0
 76
     1
 77
     6
 78
     2
 67
     7
 79
     5
170
     0
171
     0
290
     0
174
     0
 93
       13
 44
0.0
173
     0
291
     1
 45
0.0
1001
ACAD
1000
AcDbSavedByObjectVersion
1070
     0
  0
VISUALSTYLE
  5
38
102
{ACAD_REACTORS
330
2A
102
}
102
{ACAD_XDICTIONARY
360
1DA
102
}
330
2A
100
AcDbVisualStyle
  2
Linepattern
 70
    14
 71
     2
 72
     2
 73
     0
 90
        0
 40
-0.6
 41
-30.0
 62
     5
 63
     7
 74
     1
 91
        4
 64
     7
 65
   257
 75
     7
175
     7
 42
1.0
 92
        8
 66
     7
 43
1.0
 76
     1
 77
     6
 78
     2
 67
     7
 79
     5
170
     0
171
     0
290
     0
174
     0
 93
        1
 44
0.0
173
     0
291
     1
 45
0.0
1001
ACAD
1000
AcDbSavedByObjectVersion
1070
     0
  0
VISUALSTYLE
  5
33
102
{ACAD_REACTORS
330
2A
102
}
102
{ACAD_XDICTIONARY
360
1D0
102
}
330
2A
100
AcDbVisualStyle
  2
Realistic
 70
     8
 71
     2
 72
     2
 73
     0
 90
        0
 40
-0.6
 41
-30.0
 62
     5
 63
     7
 74
     1
 91
        0
 64
     7
 65
   257
 75
     1
175
     1
 42
1.0
 92
        8
 66
     8
 43
1.0
 76
     1
 77
     6
 78
     2
 67
     7
 79
     5
170
     0
171
     0
290
     0
174
     0
 93
       13
 44
0.0
173
     0
291
     0
 45
0.0
1001
ACAD
1000
AcDbSavedByObjectVersion
1070
     0
  0
VISUALSTYLE
  5
37
102
{ACAD_REACTORS
330
2A
102
}
102
{ACAD_XDICTIONARY
360
1D8
102
}
330
2A
100
AcDbVisualStyle
  2
Thicken
 70
    13
 71
     2
 72
     2
 73
     0
 90
        0
 40
-0.6
 41
-30.0
 62
     5
 63
     7
 74
     1
 91
        4
 64
     7
 65
   257
 75
     1
175
     1
 42
1.0
 92
       12
 66
     7
 43
1.0
 76
     1
 77
     6
 78
     2
 67
     7
 79
     5
170
     0
171
     0
290
     0
174
     0
 93
        1
 44
0.0
173
     0
291
     1
 45
0.0
1001
ACAD
1000
AcDbSavedByObjectVersion
1070
     0
  0
DICTIONARYVAR
  5
1BC
102
{ACAD_REACTORS
330
1B7
102
}
330
1B7
100
DictionaryVariables
280
     0
  1
1:1
  0
DICTIONARYVAR
  5
1BD
102
{ACAD_REACTORS
330
1B7
102
}
330
1B7
100
DictionaryVariables
280
     0
  1
2
  0
DICTIONARYVAR
  5
1BE
102
{ACAD_REACTORS
330
1B7
102
}
330
1B7
100
DictionaryVariables
280
     0
  1
1
  0
DICTIONARYVAR
  5
1BB
102
{ACAD_REACTORS
330
1B7
102
}
330
1B7
100
DictionaryVariables
280
     0
  1
80.000000
  0
DICTIONARYVAR
  5
1BA
102
{ACAD_REACTORS
330
1B7
102
}
330
1B7
100
DictionaryVariables
280
     0
  1
5.000000
  0
DICTIONARY
  5
1E2
330
3D
100
AcDbDictionary
280
     1
281
     1
  3
ACAD_XREC_ROUNDTRIP
360
1E3
  0
DICTIONARY
  5
1E0
330
3C
100
AcDbDictionary
280
     1
281
     1
  3
ACAD_XREC_ROUNDTRIP
360
1E1
  0
DICTIONARY
  5
1E4
330
3E
100
AcDbDictionary
280
     1
281
     1
  3
ACAD_XREC_ROUNDTRIP
360
1E5
  0
DICTIONARY
  5
1C8
330
2F
100
AcDbDictionary
280
     1
281
     1
  3
ACAD_XREC_ROUNDTRIP
360
1C9
  0
DICTIONARY
  5
1CC
330
31
100
AcDbDictionary
280
     1
281
     1
  3
ACAD_XREC_ROUNDTRIP
360
1CD
  0
DICTIONARY
  5
1CA
330
30
100
AcDbDictionary
280
     1
281
     1
  3
ACAD_XREC_ROUNDTRIP
360
1CB
  0
DICTIONARY
  5
1CE
330
32
100
AcDbDictionary
280
     1
281
     1
  3
ACAD_XREC_ROUNDTRIP
360
1CF
  0
DICTIONARY
  5
1D6
330
36
100
AcDbDictionary
280
     1
281
     1
  3
ACAD_XREC_ROUNDTRIP
360
1D7
  0
DICTIONARY
  5
1DE
330
3A
100
AcDbDictionary
280
     1
281
     1
  3
ACAD_XREC_ROUNDTRIP
360
1DF
  0
DICTIONARY
  5
1D2
330
34
100
AcDbDictionary
280
     1
281
     1
  3
ACAD_XREC_ROUNDTRIP
360
1D3
  0
DICTIONARY
  5
1D4
330
35
100
AcDbDictionary
280
     1
281
     1
  3
ACAD_XREC_ROUNDTRIP
360
1D5
  0
DICTIONARY
  5
1DC
330
39
100
AcDbDictionary
280
     1
281
     1
  3
ACAD_XREC_ROUNDTRIP
360
1DD
  0
DICTIONARY
  5
1C0
330
2B
100
AcDbDictionary
280
     1
281
     1
  3
ACAD_XREC_ROUNDTRIP
360
1C1
  0
DICTIONARY
  5
1C2
330
2C
100
AcDbDictionary
280
     1
281
     1
  3
ACAD_XREC_ROUNDTRIP
360
1C3
  0
DICTIONARY
  5
1C4
330
2D
100
AcDbDictionary
280
     1
281
     1
  3
ACAD_XREC_ROUNDTRIP
360
1C5
  0
DICTIONARY
  5
1C6
330
2E
100
AcDbDictionary
280
     1
281
     1
  3
ACAD_XREC_ROUNDTRIP
360
1C7
  0
DICTIONARY
  5
1DA
330
38
100
AcDbDictionary
280
     1
281
     1
  3
ACAD_XREC_ROUNDTRIP
360
1DB
  0
DICTIONARY
  5
1D0
330
33
100
AcDbDictionary
280
     1
281
     1
  3
ACAD_XREC_ROUNDTRIP
360
1D1
  0
DICTIONARY
  5
1D8
330
37
100
AcDbDictionary
280
     1
281
     1
  3
ACAD_XREC_ROUNDTRIP
360
1D9
  0
XRECORD
  5
1E3
102
{ACAD_REACTORS
330
1E2
102
}
330
1E2
100
AcDbXrecord
280
     1
102
MATERIAL
148
0.0
149
0.0
149
0.0
 93
        0
 94
      127
282
     0
 72
     1
 77
     1
171
     1
175
     1
179
     1
273
     0
  0
XRECORD
  5
1E1
102
{ACAD_REACTORS
330
1E0
102
}
330
1E0
100
AcDbXrecord
280
     1
102
MATERIAL
148
0.0
149
0.0
149
0.0
 93
        0
 94
      127
282
     0
 72
     1
 77
     1
171
     1
175
     1
179
     1
273
     0
  0
XRECORD
  5
1E5
102
{ACAD_REACTORS
330
1E4
102
}
330
1E4
100
AcDbXrecord
280
     1
102
MATERIAL
148
0.0
149
0.0
149
0.0
 93
        0
 94
      127
282
     0
 72
     1
 77
     1
171
     1
175
     1
179
     1
273
     0
  0
XRECORD
  5
1C9
102
{ACAD_REACTORS
330
1C8
102
}
330
1C8
100
AcDbXrecord
280
     1
102
RTVSPropertyOp0
 70
     1
102
RTVSPropertyOp1
 70
     1
102
RTVSPropertyOp2
 70
     1
102
RTVSPropertyOp3
 70
     1
102
RTVSPropertyOp4
 70
     1
102
RTVSPropertyOp5
 70
     1
102
RTVSPropertyOp6
 70
     1
102
RTVSPropertyOp7
 70
     1
102
RTVSPropertyOp8
 70
     1
102
RTVSPropertyOp9
 70
     1
102
RTVSPropertyOp10
 70
     1
102
RTVSPropertyOp11
 70
     1
102
RTVSPropertyOp12
 70
     1
102
RTVSPropertyOp13
 70
     1
102
RTVSPropertyOp14
 70
     1
102
RTVSPropertyOp15
 70
     1
102
RTVSPropertyOp16
 70
     1
102
RTVSPropertyOp17
 70
     1
102
RTVSPropertyOp18
 70
     1
102
RTVSPropertyOp19
 70
     1
102
RTVSPropertyOp20
 70
     1
102
RTVSPropertyOp21
 70
     1
102
RTVSPropertyOp22
 70
     1
102
RTVSPropertyOp23
 70
     1
102
RTVSPropertyOp24
 70
     1
102
RTVSPropertyOp25
 70
     1
102
RTVSPropertyOp26
 70
     1
102
RTVSPropertyOp27
 70
     1
102
RTVSPropertyOp28
 70
     1
102
RTVSPropertyOp29
 70
     1
102
RTVSPropertyOp30
 70
     1
102
RTVSPropertyOp31
 70
     1
102
RTVSPropertyOp32
 70
     1
  0
XRECORD
  5
1CD
102
{ACAD_REACTORS
330
1CC
102
}
330
1CC
100
AcDbXrecord
280
     1
102
RTVSPropertyOp0
 70
     1
102
RTVSPropertyOp1
 70
     1
102
RTVSPropertyOp2
 70
     1
102
RTVSPropertyOp3
 70
     1
102
RTVSPropertyOp4
 70
     1
102
RTVSPropertyOp5
 70
     1
102
RTVSPropertyOp6
 70
     1
102
RTVSPropertyOp7
 70
     1
102
RTVSPropertyOp8
 70
     1
102
RTVSPropertyOp9
 70
     1
102
RTVSPropertyOp10
 70
     1
102
RTVSPropertyOp11
 70
     1
102
RTVSPropertyOp12
 70
     1
102
RTVSPropertyOp13
 70
     1
102
RTVSPropertyOp14
 70
     1
102
RTVSPropertyOp15
 70
     1
102
RTVSPropertyOp16
 70
     1
102
RTVSPropertyOp17
 70
     1
102
RTVSPropertyOp18
 70
     1
102
RTVSPropertyOp19
 70
     1
102
RTVSPropertyOp20
 70
     1
102
RTVSPropertyOp21
 70
     1
102
RTVSPropertyOp22
 70
     1
102
RTVSPropertyOp23
 70
     1
102
RTVSPropertyOp24
 70
     1
102
RTVSPropertyOp25
 70
     1
102
RTVSPropertyOp26
 70
     1
102
RTVSPropertyOp27
 70
     1
102
RTVSPropertyOp28
 70
     1
102
RTVSPropertyOp29
 70
     1
102
RTVSPropertyOp30
 70
     1
102
RTVSPropertyOp31
 70
     1
102
RTVSPropertyOp32
 70
     1
  0
XRECORD
  5
1CB
102
{ACAD_REACTORS
330
1CA
102
}
330
1CA
100
AcDbXrecord
280
     1
102
RTVSPropertyOp0
 70
     1
102
RTVSPropertyOp1
 70
     1
102
RTVSPropertyOp2
 70
     1
102
RTVSPropertyOp3
 70
     1
102
RTVSPropertyOp4
 70
     1
102
RTVSPropertyOp5
 70
     1
102
RTVSPropertyOp6
 70
     1
102
RTVSPropertyOp7
 70
     1
102
RTVSPropertyOp8
 70
     1
102
RTVSPropertyOp9
 70
     1
102
RTVSPropertyOp10
 70
     1
102
RTVSPropertyOp11
 70
     1
102
RTVSPropertyOp12
 70
     1
102
RTVSPropertyOp13
 70
     1
102
RTVSPropertyOp14
 70
     1
102
RTVSPropertyOp15
 70
     1
102
RTVSPropertyOp16
 70
     1
102
RTVSPropertyOp17
 70
     1
102
RTVSPropertyOp18
 70
     1
102
RTVSPropertyOp19
 70
     1
102
RTVSPropertyOp20
 70
     1
102
RTVSPropertyOp21
 70
     1
102
RTVSPropertyOp22
 70
     1
102
RTVSPropertyOp23
 70
     1
102
RTVSPropertyOp24
 70
     1
102
RTVSPropertyOp25
 70
     1
102
RTVSPropertyOp26
 70
     1
102
RTVSPropertyOp27
 70
     1
102
RTVSPropertyOp28
 70
     1
102
RTVSPropertyOp29
 70
     1
102
RTVSPropertyOp30
 70
     1
102
RTVSPropertyOp31
 70
     1
102
RTVSPropertyOp32
 70
     1
  0
XRECORD
  5
1CF
102
{ACAD_REACTORS
330
1CE
102
}
330
1CE
100
AcDbXrecord
280
     1
102
RTVSPropertyOp0
 70
     1
102
RTVSPropertyOp1
 70
     1
102
RTVSPropertyOp2
 70
     1
102
RTVSPropertyOp3
 70
     1
102
RTVSPropertyOp4
 70
     1
102
RTVSPropertyOp5
 70
     1
102
RTVSPropertyOp6
 70
     1
102
RTVSPropertyOp7
 70
     1
102
RTVSPropertyOp8
 70
     1
102
RTVSPropertyOp9
 70
     1
102
RTVSPropertyOp10
 70
     1
102
RTVSPropertyOp11
 70
     1
102
RTVSPropertyOp12
 70
     1
102
RTVSPropertyOp13
 70
     1
102
RTVSPropertyOp14
 70
     1
102
RTVSPropertyOp15
 70
     1
102
RTVSPropertyOp16
 70
     1
102
RTVSPropertyOp17
 70
     1
102
RTVSPropertyOp18
 70
     1
102
RTVSPropertyOp19
 70
     1
102
RTVSPropertyOp20
 70
     1
102
RTVSPropertyOp21
 70
     1
102
RTVSPropertyOp22
 70
     1
102
RTVSPropertyOp23
 70
     1
102
RTVSPropertyOp24
 70
     1
102
RTVSPropertyOp25
 70
     1
102
RTVSPropertyOp26
 70
     1
102
RTVSPropertyOp27
 70
     1
102
RTVSPropertyOp28
 70
     1
102
RTVSPropertyOp29
 70
     1
102
RTVSPropertyOp30
 70
     1
102
RTVSPropertyOp31
 70
     1
102
RTVSPropertyOp32
 70
     1
  0
XRECORD
  5
1D7
102
{ACAD_REACTORS
330
1D6
102
}
330
1D6
100
AcDbXrecord
280
     1
102
RTVSPropertyOp0
 70
     1
102
RTVSPropertyOp1
 70
     1
102
RTVSPropertyOp2
 70
     1
102
RTVSPropertyOp3
 70
     1
102
RTVSPropertyOp4
 70
     1
102
RTVSPropertyOp5
 70
     1
102
RTVSPropertyOp6
 70
     1
102
RTVSPropertyOp7
 70
     1
102
RTVSPropertyOp8
 70
     1
102
RTVSPropertyOp9
 70
     1
102
RTVSPropertyOp10
 70
     1
102
RTVSPropertyOp11
 70
     1
102
RTVSPropertyOp12
 70
     1
102
RTVSPropertyOp13
 70
     1
102
RTVSPropertyOp14
 70
     1
102
RTVSPropertyOp15
 70
     1
102
RTVSPropertyOp16
 70
     1
102
RTVSPropertyOp17
 70
     1
102
RTVSPropertyOp18
 70
     1
102
RTVSPropertyOp19
 70
     1
102
RTVSPropertyOp20
 70
     1
102
RTVSPropertyOp21
 70
     1
102
RTVSPropertyOp22
 70
     1
102
RTVSPropertyOp23
 70
     1
102
RTVSPropertyOp24
 70
     1
102
RTVSPropertyOp25
 70
     1
102
RTVSPropertyOp26
 70
     1
102
RTVSPropertyOp27
 70
     1
102
RTVSPropertyOp28
 70
     1
102
RTVSPropertyOp29
 70
     1
102
RTVSPropertyOp30
 70
     1
102
RTVSPropertyOp31
 70
     1
102
RTVSPropertyOp32
 70
     1
  0
XRECORD
  5
1DF
102
{ACAD_REACTORS
330
1DE
102
}
330
1DE
100
AcDbXrecord
280
     1
102
RTVSPropertyOp0
 70
     1
102
RTVSPropertyOp1
 70
     1
102
RTVSPropertyOp2
 70
     1
102
RTVSPropertyOp3
 70
     1
102
RTVSPropertyOp4
 70
     1
102
RTVSPropertyOp5
 70
     1
102
RTVSPropertyOp6
 70
     1
102
RTVSPropertyOp7
 70
     1
102
RTVSPropertyOp8
 70
     1
102
RTVSPropertyOp9
 70
     1
102
RTVSPropertyOp10
 70
     1
102
RTVSPropertyOp11
 70
     1
102
RTVSPropertyOp12
 70
     1
102
RTVSPropertyOp13
 70
     1
102
RTVSPropertyOp14
 70
     1
102
RTVSPropertyOp15
 70
     1
102
RTVSPropertyOp16
 70
     1
102
RTVSPropertyOp17
 70
     1
102
RTVSPropertyOp18
 70
     1
102
RTVSPropertyOp19
 70
     1
102
RTVSPropertyOp20
 70
     1
102
RTVSPropertyOp21
 70
     1
102
RTVSPropertyOp22
 70
     1
102
RTVSPropertyOp23
 70
     1
102
RTVSPropertyOp24
 70
     1
102
RTVSPropertyOp25
 70
     1
102
RTVSPropertyOp26
 70
     1
102
RTVSPropertyOp27
 70
     1
102
RTVSPropertyOp28
 70
     1
102
RTVSPropertyOp29
 70
     1
102
RTVSPropertyOp30
 70
     1
102
RTVSPropertyOp31
 70
     1
102
RTVSPropertyOp32
 70
     1
  0
XRECORD
  5
1D3
102
{ACAD_REACTORS
330
1D2
102
}
330
1D2
100
AcDbXrecord
280
     1
102
RTVSPropertyOp0
 70
     1
102
RTVSPropertyOp1
 70
     1
102
RTVSPropertyOp2
 70
     1
102
RTVSPropertyOp3
 70
     1
102
RTVSPropertyOp4
 70
     1
102
RTVSPropertyOp5
 70
     1
102
RTVSPropertyOp6
 70
     1
102
RTVSPropertyOp7
 70
     1
102
RTVSPropertyOp8
 70
     1
102
RTVSPropertyOp9
 70
     1
102
RTVSPropertyOp10
 70
     1
102
RTVSPropertyOp11
 70
     1
102
RTVSPropertyOp12
 70
     1
102
RTVSPropertyOp13
 70
     1
102
RTVSPropertyOp14
 70
     1
102
RTVSPropertyOp15
 70
     1
102
RTVSPropertyOp16
 70
     1
102
RTVSPropertyOp17
 70
     1
102
RTVSPropertyOp18
 70
     1
102
RTVSPropertyOp19
 70
     1
102
RTVSPropertyOp20
 70
     1
102
RTVSPropertyOp21
 70
     1
102
RTVSPropertyOp22
 70
     1
102
RTVSPropertyOp23
 70
     1
102
RTVSPropertyOp24
 70
     1
102
RTVSPropertyOp25
 70
     1
102
RTVSPropertyOp26
 70
     1
102
RTVSPropertyOp27
 70
     1
102
RTVSPropertyOp28
 70
     1
102
RTVSPropertyOp29
 70
     1
102
RTVSPropertyOp30
 70
     1
102
RTVSPropertyOp31
 70
     1
102
RTVSPropertyOp32
 70
     1
  0
XRECORD
  5
1D5
102
{ACAD_REACTORS
330
1D4
102
}
330
1D4
100
AcDbXrecord
280
     1
102
RTVSPropertyOp0
 70
     1
102
RTVSPropertyOp1
 70
     1
102
RTVSPropertyOp2
 70
     1
102
RTVSPropertyOp3
 70
     1
102
RTVSPropertyOp4
 70
     1
102
RTVSPropertyOp5
 70
     1
102
RTVSPropertyOp6
 70
     1
102
RTVSPropertyOp7
 70
     1
102
RTVSPropertyOp8
 70
     1
102
RTVSPropertyOp9
 70
     1
102
RTVSPropertyOp10
 70
     1
102
RTVSPropertyOp11
 70
     1
102
RTVSPropertyOp12
 70
     1
102
RTVSPropertyOp13
 70
     1
102
RTVSPropertyOp14
 70
     1
102
RTVSPropertyOp15
 70
     1
102
RTVSPropertyOp16
 70
     1
102
RTVSPropertyOp17
 70
     1
102
RTVSPropertyOp18
 70
     1
102
RTVSPropertyOp19
 70
     1
102
RTVSPropertyOp20
 70
     1
102
RTVSPropertyOp21
 70
     1
102
RTVSPropertyOp22
 70
     1
102
RTVSPropertyOp23
 70
     1
102
RTVSPropertyOp24
 70
     1
102
RTVSPropertyOp25
 70
     1
102
RTVSPropertyOp26
 70
     1
102
RTVSPropertyOp27
 70
     1
102
RTVSPropertyOp28
 70
     1
102
RTVSPropertyOp29
 70
     1
102
RTVSPropertyOp30
 70
     1
102
RTVSPropertyOp31
 70
     1
102
RTVSPropertyOp32
 70
     1
  0
XRECORD
  5
1DD
102
{ACAD_REACTORS
330
1DC
102
}
330
1DC
100
AcDbXrecord
280
     1
102
RTVSPropertyOp0
 70
     1
102
RTVSPropertyOp1
 70
     1
102
RTVSPropertyOp2
 70
     1
102
RTVSPropertyOp3
 70
     1
102
RTVSPropertyOp4
 70
     1
102
RTVSPropertyOp5
 70
     1
102
RTVSPropertyOp6
 70
     1
102
RTVSPropertyOp7
 70
     1
102
RTVSPropertyOp8
 70
     1
102
RTVSPropertyOp9
 70
     1
102
RTVSPropertyOp10
 70
     1
102
RTVSPropertyOp11
 70
     1
102
RTVSPropertyOp12
 70
     1
102
RTVSPropertyOp13
 70
     1
102
RTVSPropertyOp14
 70
     1
102
RTVSPropertyOp15
 70
     1
102
RTVSPropertyOp16
 70
     1
102
RTVSPropertyOp17
 70
     1
102
RTVSPropertyOp18
 70
     1
102
RTVSPropertyOp19
 70
     1
102
RTVSPropertyOp20
 70
     1
102
RTVSPropertyOp21
 70
     1
102
RTVSPropertyOp22
 70
     1
102
RTVSPropertyOp23
 70
     1
102
RTVSPropertyOp24
 70
     1
102
RTVSPropertyOp25
 70
     1
102
RTVSPropertyOp26
 70
     1
102
RTVSPropertyOp27
 70
     1
102
RTVSPropertyOp28
 70
     1
102
RTVSPropertyOp29
 70
     1
102
RTVSPropertyOp30
 70
     1
102
RTVSPropertyOp31
 70
     1
102
RTVSPropertyOp32
 70
     1
  0
XRECORD
  5
1C1
102
{ACAD_REACTORS
330
1C0
102
}
330
1C0
100
AcDbXrecord
280
     1
102
RTVSPropertyOp0
 70
     1
102
RTVSPropertyOp1
 70
     1
102
RTVSPropertyOp2
 70
     1
102
RTVSPropertyOp3
 70
     1
102
RTVSPropertyOp4
 70
     1
102
RTVSPropertyOp5
 70
     1
102
RTVSPropertyOp6
 70
     1
102
RTVSPropertyOp7
 70
     1
102
RTVSPropertyOp8
 70
     1
102
RTVSPropertyOp9
 70
     1
102
RTVSPropertyOp10
 70
     1
102
RTVSPropertyOp11
 70
     1
102
RTVSPropertyOp12
 70
     1
102
RTVSPropertyOp13
 70
     1
102
RTVSPropertyOp14
 70
     1
102
RTVSPropertyOp15
 70
     1
102
RTVSPropertyOp16
 70
     1
102
RTVSPropertyOp17
 70
     1
102
RTVSPropertyOp18
 70
     1
102
RTVSPropertyOp19
 70
     1
102
RTVSPropertyOp20
 70
     1
102
RTVSPropertyOp21
 70
     1
102
RTVSPropertyOp22
 70
     1
102
RTVSPropertyOp23
 70
     1
102
RTVSPropertyOp24
 70
     1
102
RTVSPropertyOp25
 70
     1
102
RTVSPropertyOp26
 70
     1
102
RTVSPropertyOp27
 70
     1
102
RTVSPropertyOp28
 70
     1
102
RTVSPropertyOp29
 70
     1
102
RTVSPropertyOp30
 70
     1
102
RTVSPropertyOp31
 70
     1
102
RTVSPropertyOp32
 70
     1
  0
XRECORD
  5
1C3
102
{ACAD_REACTORS
330
1C2
102
}
330
1C2
100
AcDbXrecord
280
     1
102
RTVSPropertyOp0
 70
     1
102
RTVSPropertyOp1
 70
     1
102
RTVSPropertyOp2
 70
     1
102
RTVSPropertyOp3
 70
     1
102
RTVSPropertyOp4
 70
     1
102
RTVSPropertyOp5
 70
     1
102
RTVSPropertyOp6
 70
     1
102
RTVSPropertyOp7
 70
     1
102
RTVSPropertyOp8
 70
     1
102
RTVSPropertyOp9
 70
     1
102
RTVSPropertyOp10
 70
     1
102
RTVSPropertyOp11
 70
     1
102
RTVSPropertyOp12
 70
     1
102
RTVSPropertyOp13
 70
     1
102
RTVSPropertyOp14
 70
     1
102
RTVSPropertyOp15
 70
     1
102
RTVSPropertyOp16
 70
     1
102
RTVSPropertyOp17
 70
     1
102
RTVSPropertyOp18
 70
     1
102
RTVSPropertyOp19
 70
     1
102
RTVSPropertyOp20
 70
     1
102
RTVSPropertyOp21
 70
     1
102
RTVSPropertyOp22
 70
     1
102
RTVSPropertyOp23
 70
     1
102
RTVSPropertyOp24
 70
     1
102
RTVSPropertyOp25
 70
     1
102
RTVSPropertyOp26
 70
     1
102
RTVSPropertyOp27
 70
     1
102
RTVSPropertyOp28
 70
     1
102
RTVSPropertyOp29
 70
     1
102
RTVSPropertyOp30
 70
     1
102
RTVSPropertyOp31
 70
     1
102
RTVSPropertyOp32
 70
     1
  0
XRECORD
  5
1C5
102
{ACAD_REACTORS
330
1C4
102
}
330
1C4
100
AcDbXrecord
280
     1
102
RTVSPropertyOp0
 70
     1
102
RTVSPropertyOp1
 70
     1
102
RTVSPropertyOp2
 70
     1
102
RTVSPropertyOp3
 70
     1
102
RTVSPropertyOp4
 70
     1
102
RTVSPropertyOp5
 70
     1
102
RTVSPropertyOp6
 70
     1
102
RTVSPropertyOp7
 70
     1
102
RTVSPropertyOp8
 70
     1
102
RTVSPropertyOp9
 70
     1
102
RTVSPropertyOp10
 70
     1
102
RTVSPropertyOp11
 70
     1
102
RTVSPropertyOp12
 70
     1
102
RTVSPropertyOp13
 70
     1
102
RTVSPropertyOp14
 70
     1
102
RTVSPropertyOp15
 70
     1
102
RTVSPropertyOp16
 70
     1
102
RTVSPropertyOp17
 70
     1
102
RTVSPropertyOp18
 70
     1
102
RTVSPropertyOp19
 70
     1
102
RTVSPropertyOp20
 70
     1
102
RTVSPropertyOp21
 70
     1
102
RTVSPropertyOp22
 70
     1
102
RTVSPropertyOp23
 70
     1
102
RTVSPropertyOp24
 70
     1
102
RTVSPropertyOp25
 70
     1
102
RTVSPropertyOp26
 70
     1
102
RTVSPropertyOp27
 70
     1
102
RTVSPropertyOp28
 70
     1
102
RTVSPropertyOp29
 70
     1
102
RTVSPropertyOp30
 70
     1
102
RTVSPropertyOp31
 70
     1
102
RTVSPropertyOp32
 70
     1
  0
XRECORD
  5
1C7
102
{ACAD_REACTORS
330
1C6
102
}
330
1C6
100
AcDbXrecord
280
     1
102
RTVSPropertyOp0
 70
     1
102
RTVSPropertyOp1
 70
     1
102
RTVSPropertyOp2
 70
     1
102
RTVSPropertyOp3
 70
     1
102
RTVSPropertyOp4
 70
     1
102
RTVSPropertyOp5
 70
     1
102
RTVSPropertyOp6
 70
     1
102
RTVSPropertyOp7
 70
     1
102
RTVSPropertyOp8
 70
     1
102
RTVSPropertyOp9
 70
     1
102
RTVSPropertyOp10
 70
     1
102
RTVSPropertyOp11
 70
     1
102
RTVSPropertyOp12
 70
     1
102
RTVSPropertyOp13
 70
     1
102
RTVSPropertyOp14
 70
     1
102
RTVSPropertyOp15
 70
     1
102
RTVSPropertyOp16
 70
     1
102
RTVSPropertyOp17
 70
     1
102
RTVSPropertyOp18
 70
     1
102
RTVSPropertyOp19
 70
     1
102
RTVSPropertyOp20
 70
     1
102
RTVSPropertyOp21
 70
     1
102
RTVSPropertyOp22
 70
     1
102
RTVSPropertyOp23
 70
     1
102
RTVSPropertyOp24
 70
     1
102
RTVSPropertyOp25
 70
     1
102
RTVSPropertyOp26
 70
     1
102
RTVSPropertyOp27
 70
     1
102
RTVSPropertyOp28
 70
     1
102
RTVSPropertyOp29
 70
     1
102
RTVSPropertyOp30
 70
     1
102
RTVSPropertyOp31
 70
     1
102
RTVSPropertyOp32
 70
     1
  0
XRECORD
  5
1DB
102
{ACAD_REACTORS
330
1DA
102
}
330
1DA
100
AcDbXrecord
280
     1
102
RTVSPropertyOp0
 70
     1
102
RTVSPropertyOp1
 70
     1
102
RTVSPropertyOp2
 70
     1
102
RTVSPropertyOp3
 70
     1
102
RTVSPropertyOp4
 70
     1
102
RTVSPropertyOp5
 70
     1
102
RTVSPropertyOp6
 70
     1
102
RTVSPropertyOp7
 70
     1
102
RTVSPropertyOp8
 70
     1
102
RTVSPropertyOp9
 70
     1
102
RTVSPropertyOp10
 70
     1
102
RTVSPropertyOp11
 70
     1
102
RTVSPropertyOp12
 70
     1
102
RTVSPropertyOp13
 70
     1
102
RTVSPropertyOp14
 70
     1
102
RTVSPropertyOp15
 70
     1
102
RTVSPropertyOp16
 70
     1
102
RTVSPropertyOp17
 70
     1
102
RTVSPropertyOp18
 70
     1
102
RTVSPropertyOp19
 70
     1
102
RTVSPropertyOp20
 70
     1
102
RTVSPropertyOp21
 70
     1
102
RTVSPropertyOp22
 70
     1
102
RTVSPropertyOp23
 70
     1
102
RTVSPropertyOp24
 70
     1
102
RTVSPropertyOp25
 70
     1
102
RTVSPropertyOp26
 70
     1
102
RTVSPropertyOp27
 70
     1
102
RTVSPropertyOp28
 70
     1
102
RTVSPropertyOp29
 70
     1
102
RTVSPropertyOp30
 70
     1
102
RTVSPropertyOp31
 70
     1
102
RTVSPropertyOp32
 70
     1
  0
XRECORD
  5
1D1
102
{ACAD_REACTORS
330
1D0
102
}
330
1D0
100
AcDbXrecord
280
     1
102
RTVSPropertyOp0
 70
     1
102
RTVSPropertyOp1
 70
     1
102
RTVSPropertyOp2
 70
     1
102
RTVSPropertyOp3
 70
     1
102
RTVSPropertyOp4
 70
     1
102
RTVSPropertyOp5
 70
     1
102
RTVSPropertyOp6
 70
     1
102
RTVSPropertyOp7
 70
     1
102
RTVSPropertyOp8
 70
     1
102
RTVSPropertyOp9
 70
     1
102
RTVSPropertyOp10
 70
     1
102
RTVSPropertyOp11
 70
     1
102
RTVSPropertyOp12
 70
     1
102
RTVSPropertyOp13
 70
     1
102
RTVSPropertyOp14
 70
     1
102
RTVSPropertyOp15
 70
     1
102
RTVSPropertyOp16
 70
     1
102
RTVSPropertyOp17
 70
     1
102
RTVSPropertyOp18
 70
     1
102
RTVSPropertyOp19
 70
     1
102
RTVSPropertyOp20
 70
     1
102
RTVSPropertyOp21
 70
     1
102
RTVSPropertyOp22
 70
     1
102
RTVSPropertyOp23
 70
     1
102
RTVSPropertyOp24
 70
     1
102
RTVSPropertyOp25
 70
     1
102
RTVSPropertyOp26
 70
     1
102
RTVSPropertyOp27
 70
     1
102
RTVSPropertyOp28
 70
     1
102
RTVSPropertyOp29
 70
     1
102
RTVSPropertyOp30
 70
     1
102
RTVSPropertyOp31
 70
     1
102
RTVSPropertyOp32
 70
     1
  0
XRECORD
  5
1D9
102
{ACAD_REACTORS
330
1D8
102
}
330
1D8
100
AcDbXrecord
280
     1
102
RTVSPropertyOp0
 70
     1
102
RTVSPropertyOp1
 70
     1
102
RTVSPropertyOp2
 70
     1
102
RTVSPropertyOp3
 70
     1
102
RTVSPropertyOp4
 70
     1
102
RTVSPropertyOp5
 70
     1
102
RTVSPropertyOp6
 70
     1
102
RTVSPropertyOp7
 70
     1
102
RTVSPropertyOp8
 70
     1
102
RTVSPropertyOp9
 70
     1
102
RTVSPropertyOp10
 70
     1
102
RTVSPropertyOp11
 70
     1
102
RTVSPropertyOp12
 70
     1
102
RTVSPropertyOp13
 70
     1
102
RTVSPropertyOp14
 70
     1
102
RTVSPropertyOp15
 70
     1
102
RTVSPropertyOp16
 70
     1
102
RTVSPropertyOp17
 70
     1
102
RTVSPropertyOp18
 70
     1
102
RTVSPropertyOp19
 70
     1
102
RTVSPropertyOp20
 70
     1
102
RTVSPropertyOp21
 70
     1
102
RTVSPropertyOp22
 70
     1
102
RTVSPropertyOp23
 70
     1
102
RTVSPropertyOp24
 70
     1
102
RTVSPropertyOp25
 70
     1
102
RTVSPropertyOp26
 70
     1
102
RTVSPropertyOp27
 70
     1
102
RTVSPropertyOp28
 70
     1
102
RTVSPropertyOp29
 70
     1
102
RTVSPropertyOp30
 70
     1
102
RTVSPropertyOp31
 70
     1
102
RTVSPropertyOp32
 70
     1
  0
ENDSEC
  0
SECTION
  2
THUMBNAILIMAGE
 90
    16364
310
28000000B40000005500000001000800000000000000000000000000000000000000000000000000FFFFFF00FF000000FFFF000000FF000000FFFF000000FF00FF00FF000000000080808000C0C0C000FF000000FF7F7F00A5000000A55252007F0000007F3F3F004C0000004C2626002600000026131300FF3F0000FF9F7F
310
00A5290000A56752007F1F00007F4F3F004C1300004C2F26002609000026171300FF7F0000FFBF7F00A5520000A57C52007F3F00007F5F3F004C2600004C39260026130000261C1300FFBF0000FFDF7F00A57C0000A59152007F5F00007F6F3F004C3900004C422600261C000026211300FFFF0000FFFF7F00A5A50000A5A5
310
52007F7F00007F7F3F004C4C00004C4C26002626000026261300BFFF0000DFFF7F007CA5000091A552005F7F00006F7F3F00394C0000424C26001C260000212613007FFF0000BFFF7F0052A500007CA552003F7F00005F7F3F00264C0000394C2600132600001C2613003FFF00009FFF7F0029A5000067A552001F7F00004F
310
7F3F00134C00002F4C2600092600001726130000FF00007FFF7F0000A5000052A55200007F00003F7F3F00004C0000264C2600002600001326130000FF3F007FFF9F0000A5290052A56700007F1F003F7F4F00004C1300264C2F00002609001326170000FF7F007FFFBF0000A5520052A57C00007F3F003F7F5F00004C2600
310
264C39000026130013261C0000FFBF007FFFDF0000A57C0052A59100007F5F003F7F6F00004C3900264C420000261C001326210000FFFF007FFFFF0000A5A50052A5A500007F7F003F7F7F00004C4C00264C4C00002626001326260000BFFF007FDFFF00007CA5005291A500005F7F003F6F7F0000394C0026424C00001C26
310
0013212600007FFF007FBFFF000052A500527CA500003F7F003F5F7F0000264C0026394C0000132600131C2600003FFF007F9FFF000029A5005267A500001F7F003F4F7F0000134C00262F4C0000092600131726000000FF007F7FFF000000A5005252A50000007F003F3F7F0000004C0026264C0000002600131326003F00
310
FF009F7FFF002900A5006752A5001F007F004F3F7F0013004C002F264C0009002600171326007F00FF00BF7FFF005200A5007C52A5003F007F005F3F7F0026004C0039264C00130026001C132600BF00FF00DF7FFF007C00A5009152A5005F007F006F3F7F0039004C0042264C001C00260021132600FF00FF00FF7FFF00A5
310
00A500A552A5007F007F007F3F7F004C004C004C264C002600260026132600FF00BF00FF7FDF00A5007C00A55291007F005F007F3F6F004C0039004C26420026001C0026132100FF007F00FF7FBF00A5005200A5527C007F003F007F3F5F004C0026004C2639002600130026131C00FF003F00FF7F9F00A5002900A5526700
310
7F001F007F3F4F004C0013004C262F002600090026131700000000002D2D2D005B5B5B0089898900B7B7B700B3B3B30000000000000000000000000000000000000000000000000000000000000000000000000000000000000000000000000000000000000000000000000000000000000000000000000000000000000000
310
00000000000000000000000000000000000000000000000000000000000000000000000000000000000000000000000000000000000000000000000000000000000000000000000000000000000000000000000000000000000000000000000000000000000000000000000000000000000000000000000000000000000000
310
00000000000000000000000000000000000000000000000000000000000000000000000000000000000000000000000000000000000000000000000000000000000000000000000000000000000000000000000000000000000000000000000000000000000000000000000000000000000000000000000000000000000000
310
00000000000000000000000000000000000000000000000000000000000000000000000000000000000000000000000000000000000000000000000000000000000000000000000000000000000000000000000000000000000000000000000000000000000000000000000000000000000000000000000000000000000000
310
00000000000000000000000000000000000000000000000000000000000000000000000000000000000000000000000000000000000000000000000000000000000000000000000000000000000000000000000000000000000000000000000000000000000000000000000000000000000000000000000000000000000000
310
00000000000000000000000000000000000000000000000000000000000000000000000000000000000000000000000000000000000000000000000000000000000000000000000000000000000000000000000000000000000000000000000000000000000000000000000000000000000000000000000000000000000000
310
00000000000000000000000000000000000000000000000000000000000000000000000000000000000000000000000000000000000000000000000000000000000000000000000000000000000000000000000000000000000000000000000000000000000707070707070707070707070707070707070707070000000000
310
00000000000000000000000000000000000000000000000000000000000000000000000000000000000000000000000000000000000000000000000000000000000000000000000000000000000000000000000000000000000000000000000000000000000000000000000000000000000000000000000000000000000000
310
00000000000000000000000000000000000000000000000000000007000007070000000000000000000000000000000700000000000000000000000000000000000000000000000000000000000000000000000000000000000000000000000000000000000000000000000000000000000000000000000000000000000000
310
00000000000000000000000000000000000000000000000000000000000000000000000000000000000000000000000000000000000000000000000000000000000000000000000000000000000000000707070707070707070707070707070707070707070000000000000000000000000000000000000000000000000000
310
00000000000000000000000000000000000000000000000000000000000000000000000000000000000000000000000000000000000000000000000000000000000000000000000000000000000000000000000000000000000000000000000000000000000000000000000000000000000000000000000000000000000000
310
00000000000007070707070000000707070707070707070700000700000000000000000000000000000000000000000000000000000000000000000000000000000000000000000000000000000000000000000000000000000000000000000000000000000000000000000000000000000000000000000000000000000000
310
00000000000000000000000000000000000000000000000000000000000000000000000000000000000000000000000000000000000000000000000707070707000007070707070707070707070000070000000000000000000000000000000000000000000000000000000000000000000000000000000000000000000000
310
00000000000000000000000000000000000000000000000000000000000000000000000000000000000000000000000000000000000000000000000000000000000000000000000000000000000000000000000000000000000000000000000000000000000000000000000000000000070000000700000707070707070707
310
07070700000700000000000000000000000000000000000000000000000000000000000000000000000000000000000000000000000000000000000000000000000000000000000000000000000000000000000000000000000000000000000000000000000000000000000000000000000000000000000000000000000000
310
00000000000000000000000000000000000000000000000000000000000000000000000000000700000007000000000000000000000000000000070000000000000000000000000000000000000000000000000000000000000000000000000000000000000000000000000000000000000000000000000000000000000000
310
00000000000000000000000000000000000000000000000000000000000000000000000000000000000000000000000000000000000000000000000000000000000000000000000000000000000000000000000000000000000000070707070707070707070707070707070707070707000000000000000000000000000000
310
00000000000000000000000000000000000000000000000000000000000000000000000000000000000000000000000000000000000000000000000000000000000000000000000000000000000000000000000000000000000000000000000000000000000000000000000000000000000000000000000000000000000000
310
00000000000000000000000000000000000000000000000000000000000000000000000000000000000000000000000000000000000000000000000000000000000000000000000000000000000000000000000000000000000000000000000000000000000000000000000000000000000000000000000000000000000000
310
00000000000000000000000000000000000000000000000000000000000000000000000000000000000000000000000000000000000000000000000000000000000000000000000000000000000000000000000000000000000000000000000000000000000000000000000000000000000000000000000000000000000000
310
00000000000000000000000000000000000000000000000000000000000000000000000000000000000000000000000000000000000000000000000000000000000000000000000000000000000000000000000000000000000000000000000000000000000000000000000000000000000000000000000000000000000000
310
00000000000000000000000000000000000000000000000000000000000000000000000000000000000000000000000000000000000000000000000000000000000000000000000000000000000000000000000000000000000000000000000000000000000000000000000000000000000000000000000000000000000000
310
00000000000000000000000000000000000000000000000000000000000000000000000000000000000000000000000000000000000000000000000000000000000000000000000000000000000000000000000000000000000000000000000000000000000000000000000000000000000000000000000000000000000000
310
00000000000000000000000000000000000000000000000000000000000000000000000000000000000000000000000000000000000000000000000000000000000000000000000000000000000000000000000000000000000000000000000000000000000000000000000000000000000000000000000000000000000000
310
00000000000000000000000000000000000000000000000000000000000000000000000000000000000000000000000000000000000000000000000000000000000000000000000000000000000000000000000000000000000000000000000000000000000000000000000000000000000000000000000000000000000000
310
00000000000000000000000000000000000000000000000000000000000000000000000000000000000000000000000000000000000000000000000000000000000000000000000000000000000000000000000000000000000000000000000000000000000000000000000000000000000000000000000000000000000000
310
00000000000000000000000000000000000000000000000000000000000000000000000000000000000000000000000000000000000000000000000000000000000000000000000000000000000000000000000000000000000000000000000000000000000000000000000000000000000000000000000000000000000000
310
00000000000000000000000000000000000000000000000000000000000000000000000000000000000000000000000000000000000000000000000000000000000000000000000000000000000000000000000000000000000000000000000000000000000000000000000000000000000000000000000000000000000000
310
00000000000000000000000000000000000000000000000000000000000000000000000000000000000000000000000000000000000000000000000000000000000000000000000000000000000000000000000000000000000000000000000000000000000000000000000000000000000000000000000000000000000000
310
00000000000000000000000000000000000000000000000000000000000000000000000000000000000000000000000000000000000000000000000000000000000000000000000000000000000000000000000000000000000000000000000000000000000000000000000000000000000000000000000000000000000000
310
00000000000000000000000000000000000000000000000000000000000000000000000000000000000000000000000000000000000000000000000000000000000000000000000000000000000000000000000000000000000000000000000000000000000000000000000000000000000000000000000000000000000000
310
00000000000000000000000000000000000000000000000000000000000000000000000000000000000000000000000000000000000000000000000000000000000000000000000000000000000000000000000000000000000000000000000000000000000000000000000000000000000000000000000000000000000000
310
00000000000000000000000000000000000000000000000000000000000000000000000000000000000000000000000000000000000000000000000000000000000000000000000000000000000000000000000000000000000000000000000000000000000000000000000000000000000000000000000000000000000000
310
00000000000000000000000000000000000000000000000000000000000000000000000000000000000000000000000000000000000000000000000000000000000000000000000000000000000000000000000000000000000000000000000000000000000000000000000000000000000000000000000000000000000000
310
00000000000000000000000000000000000000000000000000000000000000000000000000000000000000000000000000000000000000000000000000000000000000000000000000000000000000000000000000000000000000000000000000000000000000000000000000000000000000000000000000000000000000
310
00000000000000000000000000000000000000000000000000000000000000000000000000000000000000000000000000000000000000000000000000000000000000000000000000000000000000000000000000000000000000000000000000000000000000000000000000000000000000000000000000000000000000
310
00000000000000000000000000000000000000000000000000000000000000000000000000000000000000000000000000000000000000000000000000000000000000000000000000000000000000000000000000000000000000000000000000000000000000000000000000000000000000000000000000000000000000
310
00000000000000000000000000000000000000000000000000000000000000000000000000000000000000000000000000000000000000000000000000000000000000000000000000000000000000000000000000000000000000000000000000000000000000000000000000000000000000000000000000000000000000
310
00000000000000000000000000000000000000000000000000000000000000000000000000000000000000000000000000000000000000000000000000000000000000000000000000000000000000000000000000000000000000000000000000000000000000000000000000000000000000000000000000000000000000
310
00000000000000000000000000000000000000000000000000000000000000000000000000000000000000000000000000000000000000000000000000000000000000000000000000000000000000000000000000000000000000000000000000000000000000000000000000000000000000000000000000000000000000
310
00000000000000000000000000000000000000000000000000000000000000000000000000000000000000000000000000000000000000000000000000000000000000000000000000000000000000000000000000000000000000000000000000000000000000000000000000000000000000000000000000000000000000
310
00000000000000000000000000000000000000000000000000000000000000000000000000000000000000000000000000000000000000000000000000000000000000000000000000000000000000000000000000000000000000000000000000000000000000000000000000000000000000000000000000000000000000
310
00000000000000000000000000000000000000000000000000000000000000000000000000000000000000000000000000000000000000000000000000000000000000000000000000000000000000000000000000000000000000000000000000000000000000000000000000000000000000000000000000000000000000
310
00000000000000000000000000000000000000000000000000000000000000000000000000000000000000000000000000000000000000000096000000000000000000000000000000000000000000000000000000000000000000000000000000000000000000000000000000000000000000000000000000000000000000
310
00000000000000000000000000000000000000000000000000000000000000000000000000000000000000000000000000000000000000000000000000000000000000000000000000000000000000000000000000000000000000000000000000000000000000000000000000009600000000000000000000000000000000
310
00000000000000000000000000000000000000000000000000000000000000000000000000000000000000000000000000000000000000000000000000000000000000000000000000000000000000000000000000000000000000000000000000000000000000000000000000000000000000000000000000000000000000
310
00000000000000000000000000000000000000000000000000000000000000000000009696000000000000000000000000000000000000000000000000000000000000000000000000000000000000000000000000000000000000000000000000000000000000000000000000000000000000000000000000000000000000
310
00000000000000000000000000000000000000000000000000000000000000000000000000000000000000000000000000000000000000000000000000000000000000000000000000000000000000000000000000000000969600000000000000000000000000000000000000000000000000000000000000000000000000
310
00000000000000000000000000000000000000000000000000000000000000000000000000000000000000000000000000000000000000000000000000000000000000000000000000000000000000000000000000000000000000000000000000000000000000000000000000000000000000000000000000000000000000
310
00000000000000000000000000009696960000000000000000000000000000000000000000000000000000000000000000000000000000000000000000000000000000000000000000000000000000000000000000000000000000000000000000000000000000000000000000000000000000000000000000000000000000
310
00000000000000000000000000000000000000000000000000000000000000000000000000000000000000000000000000000000000000000000000000000000000000960000969600000000000000000000000000000000000000000000000000000000000000000000000000000000000000000000000000000000000000
310
00000000000000000000000000000000000000000000000000000000000000000000000000000000000000000000000000000000000000000000000000000000000000000000000000000000000000000000000000000000000000000000000000000000000000000000000000000000000000000000000096969696009696
310
00000000000000000000000000000000000000000000000000000000000000000000000000000000000000000000000000000000000000000000000000000000000000000000000000000000000000000000000000000000000000000000000000000000000000000000000000000000000000000000000000000000000000
310
00000000000000000000000000000000000000000000000000000000000000000000000000000000000000000000009696969696960000000000000000000000000000000000000000000000000000000000000000000000000000000000000000000000000000000000000000000000000000000000000000000000000000
310
00000000000000000000000000000000000000000000000000000000000000000000000000000000000000000000000000000000000000000000000000000000000000000000000000000000000000000000000000000000000000000000000000000000969696969696000000000000000000000000000000000000000000
310
00000000000000000000000000000000000000000000000000000000000000000000000000000000000000000000000000000000000000000000000000000000000000000000000000000000000000000000000000000000000000000000000000000000000000000000000000000000000000000000000000000000000000
310
00000000000000000000000000000000000000000000000000000000000007070007000000000000000000000000000000000000000000000000000000000000000000000000000000000000000000000000000000000000000000000000000000000000000000000000000000000000000000000000000000000000000000
310
00000000000000000000000000000000000000000000000000000000000000000000000000000000000000000000000000000000000000000000000000000000000000000000000000000000000000000000079696000707070000000000000000000000000000000000000000000000000000000000000000000000000000
310
00000000000000000000000000000000000000000000000000000000000000000000000000000000000000000000000000000000000000000000000000000000000000000000000000000000000000000000000000000000000000000000000000000000000000000000000000000000000000000000000000000000000000
310
00000000000096969607960096960000000000000000000000000000000000000000000000000000000000000000000000000000000000000000000000000000000000000000000000000000000000000000000000000000000000000000000000000000000000000000000000000000000000000000000000000000000000
310
00000000000000000000000000000000000000000000000000000000000000000000000000000000000000000000000000000000000000000096969600000096000096969696969600000000000000000000000000000000000000000000000000000000000000000000000000000000000000000000000000000000000000
310
00000000000000000000000000000000000000000000000000000000000000000000000000000000000000000000000000000000000000000000000000000000000000000000000000000000000000000000000000000000000000000000000000000000000000000000000000000303030303039600039603030396969696
310
00000000000000000000000000000000000000000000000000000000000000000000000000000000000000000000000000000000000000000000000000000000000000000000000000000000000000000000000000000000000000000000000000000000000000000000000000000000000000000000000000000000000000
310
00000000000000000000000000000000000000000000000000000000000000000000000096969696000096000096969696969696960000000000000000000000000000000000000000000000000000000000000000000000000000000000000000000000000000000000000000000000000000000000000000000000000000
310
00000000000000000000000000000000000000000000000000000000000000000000000000000000000000000000000000000000000000000000000000000000000000000000000000000000000000000000000000000000009696960000009600009696000000000000000000000000000000000000000000000000000000
310
00000000000000000000000000000000000000000000000000000000000000000000000000000000000000000000000000000000000000000000000000000000000000000000000000000000000000000000000000000000000000000000000000000000000000000000000000000000000000000000000000000000000000
310
00000000000000000000000000000000009696969696009607070700000000000000000000000000000000000000000000000000000000000000000000000000000000000000000000000000000000000000000000000000000000000000000000000000000000000000000000000000000000000000000000000000000000
310
00000000000000000000000000000000000000000000000000000000000000000000000000000000000000000000000000000000000000000000000000000000000000000000000007070700070707070700000000000000000000000000000000000000000000000000000000000000000000000000000000000000000000
310
00000000000000000000000000000000000000000000000000000000000000000000000000000000000000000000000000000000000000000000000000000000000000000000000000000000000000000000000000000000000000000000000000000000000000000000000000000000000000000000000000000000000007
310
00000700000000000000000000000000000000000000000000000000000000000000000000000000000000000000000000000000000000000000000000000000000000000000000000000000000000000000000000000000000000000000000000000000000000000000000000000000000000000000000000000000000000
310
00000000000000000000000000000000000000000000000000000000000000000000000000000000000000000000000000000000000000000000000000000000000000000000000000000000000000000000000000000000000000000000000000000000000000000000000000000000000000000000000000000000000000
310
00000000000000000000000000000000000000000000000000000000000000000000000000000000000000000000000000000000000000000000000000000000000000000000000000000000000000000000000000000000000000000000000000000000000000000000000000000000000000000000000000000000000000
310
00000000000000000000000000000000000000000000000000000000000000000000000000000000000000000000000000000000000000000000000000000000000000000000000000000000000000000000000000000000000000000000000000000000000000000000000000000000000000000000000000000000000000
310
00000000000000000000000000000000000000000000000000000000000000000000000000000000000000000000000000000000000000000000000000000000000000000000000000000000000000000000000000000000000000000000000000000000000000000000000000000000000000000000000000000000000000
310
00000000000000000000000000000000000000000000000000000000000000000000000000000000000000000000000000000000000000000000000000000000000000000000000000000000000000000000000000000000000000000000000000000000000000000000000000000000000000000000000000000000000000
310
00000000000000000000000000000000000000000000000000000000000000000000000000000000000000000000000000000000000000000000000000000000000000000000000000000000000000000000000000000000000000000000000000000000000000000000000000000000000000000000000000000000000000
310
00000000000000000000000000000000000000000000000000000000000000000000000000000000000000000000000000000000000000000000000000000000000000000000000000000000000000000000000000000000000000000000000000000000000000000000000000000000000000000000000000000000000000
310
00000000000000000000000000000000000000000000000000000000000000000000000000000000000000000000000000000000000000000000000000000000000000000000000000000000000000000000000000000000000000000000000000000000000000000000000000000000000000000000000000000000000000
310
00000000000000000000000000000000000000000000000000000000000000000000000000000000000000000000000000000000000000000000000000000000000000000000000000000000000000000000000000000000000000000000000000000000000000000000000000000000000000000000000000000000000000
310
00000000000000000000000000000000000000000000000000000000000000000000000000000000000000000000000000000000000000000000000000000000000000000000000000000000000000000000000000000000000000000000000000000000000000000000000000000000000000000000000000000000000000
310
00000000000000000000000000000000000000000000000000000000000000000000000000000000000000000000000000000000000000000000000000000000000000000000000000000000000000000000000000000000000000000000000000000000000000000000000000000000000000000000000000000000000000
310
00000000000000000000000000000000000000000000000000000000000000000000000000000000000000000000000000000000000000000000000000000000000000000000000000000000000000000000000000000000000000000000000000000000000000000000000000000000000000000000000000000000000000
310
00000000000000000000000000000000000000000000000000000000000000000000000000000000000000000000000000000000000000000000000000000000000000000000000000000000000000000000000000000000000000000000000000000000000000000000000000000000000000000000000000000000000000
310
00000000000000000000000000000000000000000000000000000000000000000000000000000000000000000000000000000000000000000000000000000000000000000000000000000000000000000000000000000000000000000000000000000000000000000000000000000000000000000000000000000000000000
310
00000000000000000000000000000000000000000000000000000000000000000000000000000000000000000000000000000000000000000000000000000000000000000000000000000000000000000000000000000000000000000000000000000000000000000000000000000000000000000000000000000000000000
310
00000000000000000000000000000000000000000000000000000000000000000000000000000000000000000000000000000000000000000000000000000000000000000000000000000000000000000000000000000000000000000000000000000000000000000000000000000000000000000000000000000000000000
310
00000000000000000000000000000000000000000000000000000000000000000000000000000000000000000000000000000000000000000000000000000000000000000000000000000000000000000000000000000000000000000000000000000000000000000000000000000000000000000000000000000000000000
310
00000000000000000000000000000000000000000000000000000000000000000000000000000000000000000000000000000000000000000000000000000000000000000000000000000000000000000000000000000000000000000000000000000000000000000000000000000000000000000000000000000000000000
310
00000000000000000000000000000000000000000000000000000000000000000000000000000000000000000000000000000000000000000000000000000000000000000000000000000000000000000000000000000000000000000000000000000000000000000000000000000000000000000000000000000000000000
310
00000000000000000000000000000000000000000000000000000000000000000000000000000000000000000000000000000000000000000000000000000000000000000000000000000000000000000000000000000000000000000000000000000000000000000000000000000000000000000000000000000000000000
310
00000000000000000000000000000000000000000000000000000000000000000000000000000000969696969696969696969600000000000000000000000000000000000000000000000000000000000000000000000000000000000000000000000000000000000000000000000000000000000000000000000000000000
310
00000000000000000000000000000000000000000000000000000000000000000000000000000000000000000000000000000000000000000000000000000000000000000000000000000000969696969696969696969696969696969696969696969696969696969696969696969600000000000000000000000000000000
310
00000000000000000000000000000000000000000000000000000000000000000000000000000000000000000000000000000000000000000000000000000000000000000000000000000000000000000000000000000000000000000000000000000000000000000000000000000000000000000000000000000000000000
310
00009696000000000000000000000000000000009600000000000000000000000000000000000000000000000000000000000000000000000000000000000000000000000000000000000000000000000000000000000000000000000000000000000000000000000000000000000000000000000000000000000000000000
310
00000000000000000000000000000000000000000000000000000000000000000000000000000000000000000000000000000000000000969600000000000000000000000000000000000000000000000000000000000000000000000000000000000000000000000000000000000000000000000000000000000000000000
310
00000000000000000000000000000000000000000000000000000000000000000000000000000000000000000000000000000000000000000000000000000000000000000000000000000000000000000000000000000000000000000000000000000000000000000000000096960000000000000000000000000000000000
310
00000000000000000000000000000000000000000000000000000000000000000000000000000000000000000000000000000000000000000000000000000000000000000000000000000000000000000000000000000000000000000000000000000000000000000000000000000000000000000000000000000000000000
310
00000000000000000000000000000000000000000000000000000000000000000000969600000000000000000000000000000000000000000000000000000000000000000000000000000000000000000000000000000000000000000000000000000000000000000000000000000000000000000000000000000000000000
310
00000000000000000000000000000000000000000000000000000000000000000000000000000000000000000000000000000000000000000000000000000000000000000000000000000000000000000000000000000096960000000000000000000000000000000000000000000000000000000000000000000000000000
310
00000000000000000000000000000000000000000000000000000000000000000000000000000000000000000000000000000000000000000000000000000000000000000000000000000000000000000000000000000000000000000000000000000000000000000000000000000000000000000000000000000000000000
310
00000000000000000000000000969600000000000000000000000000000000000000000000000000000000000000000000000000000000000000000000000000000000000000000000000000000000000000000000000000000000000000000000000000000000000000000000000000000000000000000000000000000000
310
00000000000000000000000000000000000000000000000000000000000000000000000000000000000000000000000000000000000000000000000000000000000000000000000000000000000000000000000000000000000000000000000000000000000000000000000000000000000000000000000000000000000000
310
00000000000000000000000000000000000000000000000000000000000000000000000000000000000000000000000000000000000000000000000000000000000000000000000000000000000000000000000000000000000000000000000000000000000000000000000000000000000000000000000000000000000000
310
00000000000000000000000000000000000000000000000000000000000000000000000000000000000000000000000000000000000000000000000000000000000000000000000000000000000000000000000000000000000000000000000000000000000000000000000000000000000000000000000000000000000000
310
00000000000000000000000000000000000000000000000000000000000000000000000000000000000000000000000000000000000000000000000000000000000000000000000000000000000000000000000000000000000000000000000000000000000000000000000000000000000000000000000000000000000000
310
00000000000000000000000000000000000000000000000000000000000000000000000000000000000000000000000000000000000000000000000000000000000000000000000000000000000000000000000000000000000000000000000000000000000000000000000000000000000000000000000000000000000000
310
00000000000000000000000000000000000000000000000000000000000000000000000000000000000000000000000000000000000000000000000000000000000000000000000000000000000000000000000000000000000000000000000000000000000000000000000000000000000000000000000000000000000000
310
00000000000000000000000000000000000000000000000000000000000000000000000000000000009696960000009696960000000000000000000000000000000000000000009696000000000000000000000000000000000000000000000000000000000000000000000000000000000000000000000000000000000000
310
00000000000000000000000000000000000000000000000000000000000000000000000000000000000000000000000000000000000000000000000000000000000000000000000000000000009696969696969696969696969696969696969696969696969696969696969696969696000000000000969696969696969600
310
00000000000000000000000000000000000000000000000000000000000000000000000000000000000000000000000000000000000000000000000000000000000000000000000000000000000000000000000000000000000000000000000000000000000000000000000000000000000000000000000000000000000000
310
00000096960000000000000000000000000000000000000000000000000000000000000000960000000000009600000096969696000000000000000000000000000000000000000000000000000000000000000000000000000000000000000000000000000000000000000000000000000000000000000000000000000000
310
00000000000000000000000000000000000000000000000000000000000000000000000000000000000000000000000000000000000000009696960303030303030303030303030303969603030303969603969603030303039603030000000000969696969696969600000000000000000000000000000000000000000000
310
00000000000000000000000000000000000000000000000000000000000000000000000000000000000000000000000000000000000000000000000000000000000000000000000000000000000000000000000000000000000000000000000000000000000000000000000000969696969696969696969696969696969696
310
96969696969696969696969696969696960000000000009600969600969696000000000000000000000000000000000000000000000000000000000000000000000000000000000000000000000000000000000000000000000000000000000000000000000000000000000000000000000000000000000000000000000000
310
00000000000000000000000000000000000000000000000000000000000000000000009696000000000000000000000000000000000000000000000000000000000000000096000000000000960000009696969600000000000000000000000000000000000000000000000000000000000000000000000000000000000000
310
00000000000000000000000000000000000000000000000000000000000000000000000000000000000000000000000000000000000000000000000000000000000000000000000000000000000000000000000000000000969696969696969696969696969696969696969696969696969696969696969696969600000000
310
00009696969696969696000000000000000000000000000000000000000000000000000000000000000000000000000000000000000000000000000000000000000000000000000000000000000000000000000000000000000000000000000000000000000000000000000000000000000000000000000000000000000000
310
00000000000000000000000000000000000000000000000000000000000000000000000000000000000000000000000000000000000000000000000000000000000000000000000000000000000000000000000000000000000000000000000000000000000000000000000000000000000000000000000000000000000000
310
00000000000000000000000000000000000000000000000000000000000000000000000000000000000000000000000000000000000000000000000000000000000000000000000000000000000000000000000000000000000000000000000000000000000000000000000000000000000000000000000000000000000000
310
00000000000000000000000000000000000000000000000000000000000000000000000000000000000000000000000000000000000000000000000000000000000000000000000000000000000000000000000000000000000000000000000000000000000000000000000000000000000000000000000000000000000000
310
000000000000000000000000000000000000000000000000000000000000000000000000000000000000000000000000000000000000000000000000000000000000000000000000000000000000000000000000000000000000000000000000000000000000000000000000
  0
ENDSEC
  0
EOF
