  0
SECTION
  2
HEADER
  9
$ACADVER
  1
AC1015
  9
$ACADMAINTVER
 70
     6
  9
$DWGCODEPAGE
  3
ANSI_932
  9
$INSBASE
 10
0.0
 20
0.0
 30
0.0
  9
$EXTMIN
 10
25.80454391121117
 20
13.0
 30
0.0
  9
$EXTMAX
 10
196.0
 20
263.7181056422594
 30
0.0
  9
$LIMMIN
 10
25.80454391121117
 20
13.0
  9
$LIMMAX
 10
196.0
 20
263.7181056422594
  9
$ORTHOMODE
 70
     0
  9
$REGENMODE
 70
     1
  9
$FILLMODE
 70
     1
  9
$QTEXTMODE
 70
     0
  9
$MIRRTEXT
 70
     1
  9
$LTSCALE
 40
0.1447716095572102
  9
$ATTMODE
 70
     1
  9
$TEXTSIZE
 40
2.5
  9
$TRACEWID
 40
1.0
  9
$TEXTSTYLE
  7
Standard
  9
$CLAYER
  8
0
  9
$CELTYPE
  6
ByLayer
  9
$CECOLOR
 62
   256
  9
$CELTSCALE
 40
1.0
  9
$DISPSILH
 70
     0
  9
$DIMSCALE
 40
1.0
  9
$DIMASZ
 40
2.5
  9
$DIMEXO
 40
0.625
  9
$DIMDLI
 40
3.75
  9
$DIMRND
 40
0.0
  9
$DIMDLE
 40
0.0
  9
$DIMEXE
 40
1.25
  9
$DIMTP
 40
0.0
  9
$DIMTM
 40
0.0
  9
$DIMTXT
 40
2.5
  9
$DIMCEN
 40
2.5
  9
$DIMTSZ
 40
0.0
  9
$DIMTOL
 70
     0
  9
$DIMLIM
 70
     0
  9
$DIMTIH
 70
     0
  9
$DIMTOH
 70
     0
  9
$DIMSE1
 70
     0
  9
$DIMSE2
 70
     0
  9
$DIMTAD
 70
     1
  9
$DIMZIN
 70
     0
  9
$DIMBLK
  1

  9
$DIMASO
 70
     1
  9
$DIMSHO
 70
     1
  9
$DIMPOST
  1

  9
$DIMAPOST
  1

  9
$DIMALT
 70
     0
  9
$DIMALTD
 70
     3
  9
$DIMALTF
 40
0.03937007874016
  9
$DIMLFAC
 40
1.0
  9
$DIMTOFL
 70
     1
  9
$DIMTVP
 40
0.0
  9
$DIMTIX
 70
     0
  9
$DIMSOXD
 70
     0
  9
$DIMSAH
 70
     0
  9
$DIMBLK1
  1

  9
$DIMBLK2
  1

  9
$DIMSTYLE
  2
Standard
  9
$DIMCLRD
 70
     0
  9
$DIMCLRE
 70
     0
  9
$DIMCLRT
 70
     0
  9
$DIMTFAC
 40
0.75
  9
$DIMGAP
 40
0.625
  9
$DIMJUST
 70
     0
  9
$DIMSD1
 70
     0
  9
$DIMSD2
 70
     0
  9
$DIMTOLJ
 70
     0
  9
$DIMTZIN
 70
     8
  9
$DIMALTZ
 70
     0
  9
$DIMALTTZ
 70
     0
  9
$DIMUPT
 70
     0
  9
$DIMDEC
 70
     2
  9
$DIMTDEC
 70
     2
  9
$DIMALTU
 70
     2
  9
$DIMALTTD
 70
     3
  9
$DIMTXSTY
  7
Standard
  9
$DIMAUNIT
 70
     0
  9
$DIMADEC
 70
     0
  9
$DIMALTRND
 40
0.0
  9
$DIMAZIN
 70
     0
  9
$DIMDSEP
 70
    46
  9
$DIMATFIT
 70
     3
  9
$DIMFRAC
 70
     0
  9
$DIMLDRBLK
  1

  9
$DIMLUNIT
 70
     2
  9
$DIMLWD
 70
    -2
  9
$DIMLWE
 70
    -2
  9
$DIMTMOVE
 70
     0
  9
$LUNITS
 70
     2
  9
$LUPREC
 70
     4
  9
$SKETCHINC
 40
1.0
  9
$FILLETRAD
 40
10.0
  9
$AUNITS
 70
     0
  9
$AUPREC
 70
     0
  9
$MENU
  1
.
  9
$ELEVATION
 40
0.0
  9
$PELEVATION
 40
0.0
  9
$THICKNESS
 40
0.0
  9
$LIMCHECK
 70
     0
  9
$CHAMFERA
 40
10.0
  9
$CHAMFERB
 40
10.0
  9
$CHAMFERC
 40
20.0
  9
$CHAMFERD
 40
0.0
  9
$SKPOLY
 70
     0
  9
$TDCREATE
 40
2455188.75
  9
$TDUCREATE
 40
2455188.375
  9
$TDUPDATE
 40
2455188.75
  9
$TDUUPDATE
 40
2455188.375
  9
$TDINDWG
 40
0.0000000116
  9
$TDUSRTIMER
 40
0.0000000116
  9
$USRTIMER
 70
     1
  9
$ANGBASE
 50
0.0
  9
$ANGDIR
 70
     0
  9
$PDMODE
 70
     0
  9
$PDSIZE
 40
0.0
  9
$PLINEWID
 40
0.0
  9
$SPLFRAME
 70
     0
  9
$SPLINETYPE
 70
     6
  9
$SPLINESEGS
 70
     8
  9
$HANDSEED
  5
258
  9
$SURFTAB1
 70
     6
  9
$SURFTAB2
 70
     6
  9
$SURFTYPE
 70
     6
  9
$SURFU
 70
     6
  9
$SURFV
 70
     6
  9
$UCSBASE
  2

  9
$UCSNAME
  2

  9
$UCSORG
 10
0.0
 20
0.0
 30
0.0
  9
$UCSXDIR
 10
1.0
 20
0.0
 30
0.0
  9
$UCSYDIR
 10
0.0
 20
1.0
 30
0.0
  9
$UCSORTHOREF
  2

  9
$UCSORTHOVIEW
 70
     0
  9
$UCSORGTOP
 10
0.0
 20
0.0
 30
0.0
  9
$UCSORGBOTTOM
 10
0.0
 20
0.0
 30
0.0
  9
$UCSORGLEFT
 10
0.0
 20
0.0
 30
0.0
  9
$UCSORGRIGHT
 10
0.0
 20
0.0
 30
0.0
  9
$UCSORGFRONT
 10
0.0
 20
0.0
 30
0.0
  9
$UCSORGBACK
 10
0.0
 20
0.0
 30
0.0
  9
$PUCSBASE
  2

  9
$PUCSNAME
  2

  9
$PUCSORG
 10
0.0
 20
0.0
 30
0.0
  9
$PUCSXDIR
 10
1.0
 20
0.0
 30
0.0
  9
$PUCSYDIR
 10
0.0
 20
1.0
 30
0.0
  9
$PUCSORTHOREF
  2

  9
$PUCSORTHOVIEW
 70
     0
  9
$PUCSORGTOP
 10
0.0
 20
0.0
 30
0.0
  9
$PUCSORGBOTTOM
 10
0.0
 20
0.0
 30
0.0
  9
$PUCSORGLEFT
 10
0.0
 20
0.0
 30
0.0
  9
$PUCSORGRIGHT
 10
0.0
 20
0.0
 30
0.0
  9
$PUCSORGFRONT
 10
0.0
 20
0.0
 30
0.0
  9
$PUCSORGBACK
 10
0.0
 20
0.0
 30
0.0
  9
$USERI1
 70
     0
  9
$USERI2
 70
     0
  9
$USERI3
 70
     0
  9
$USERI4
 70
     0
  9
$USERI5
 70
     0
  9
$USERR1
 40
0.0
  9
$USERR2
 40
0.0
  9
$USERR3
 40
0.0
  9
$USERR4
 40
0.0
  9
$USERR5
 40
0.0
  9
$WORLDVIEW
 70
     1
  9
$SHADEDGE
 70
     3
  9
$SHADEDIF
 70
    70
  9
$TILEMODE
 70
     1
  9
$MAXACTVP
 70
    64
  9
$PINSBASE
 10
0.0
 20
0.0
 30
0.0
  9
$PLIMCHECK
 70
     0
  9
$PEXTMIN
 10
1.000000000000000E+20
 20
1.000000000000000E+20
 30
1.000000000000000E+20
  9
$PEXTMAX
 10
-1.000000000000000E+20
 20
-1.000000000000000E+20
 30
-1.000000000000000E+20
  9
$PLIMMIN
 10
0.0
 20
0.0
  9
$PLIMMAX
 10
420.0
 20
297.0
  9
$UNITMODE
 70
     0
  9
$VISRETAIN
 70
     1
  9
$PLINEGEN
 70
     0
  9
$PSLTSCALE
 70
     0
  9
$TREEDEPTH
 70
  3020
  9
$CMLSTYLE
  2
Standard
  9
$CMLJUST
 70
     0
  9
$CMLSCALE
 40
20.0
  9
$PROXYGRAPHICS
 70
     1
  9
$MEASUREMENT
 70
     1
  9
$CELWEIGHT
370
    -1
  9
$ENDCAPS
280
     0
  9
$JOINSTYLE
280
     0
  9
$LWDISPLAY
290
     0
  9
$INSUNITS
 70
     4
  9
$HYPERLINKBASE
  1

  9
$STYLESHEET
  1

  9
$XEDIT
290
     1
  9
$CEPSNTYPE
380
     0
  9
$PSTYLEMODE
290
     1
  9
$FINGERPRINTGUID
  2
{BB6E68E7-3088-4276-99C9-EA207E5D3E2B}
  9
$VERSIONGUID
  2
{FAEB1C32-E019-11D5-929B-00C0DF256EC4}
  9
$EXTNAMES
290
     1
  9
$PSVPSCALE
 40
0.0
  9
$OLESTARTUP
290
     0
  0
ENDSEC
  0
SECTION
  2
CLASSES
  0
CLASS
  1
ACDBDICTIONARYWDFLT
  2
AcDbDictionaryWithDefault
  3
ObjectDBX Classes
 90
        0
280
     0
281
     0
  0
CLASS
  1
VISUALSTYLE
  2
AcDbVisualStyle
  3
ObjectDBX Classes
 90
     4095
280
     0
281
     0
  0
CLASS
  1
MATERIAL
  2
AcDbMaterial
  3
ObjectDBX Classes
 90
     1153
280
     0
281
     0
  0
CLASS
  1
SCALE
  2
AcDbScale
  3
ObjectDBX Classes
 90
     1153
280
     0
281
     0
  0
CLASS
  1
SUN
  2
AcDbSun
  3
SCENEOE
 90
     1153
280
     0
281
     0
  0
CLASS
  1
DICTIONARYVAR
  2
AcDbDictionaryVar
  3
ObjectDBX Classes
 90
        0
280
     0
281
     0
  0
CLASS
  1
ACDBPLACEHOLDER
  2
AcDbPlaceHolder
  3
ObjectDBX Classes
 90
        0
280
     0
281
     0
  0
CLASS
  1
LAYOUT
  2
AcDbLayout
  3
ObjectDBX Classes
 90
        0
280
     0
281
     0
  0
ENDSEC
  0
SECTION
  2
TABLES
  0
TABLE
  2
VPORT
  5
8
330
0
100
AcDbSymbolTable
 70
     1
  0
VPORT
  5
29
330
8
100
AcDbSymbolTableRecord
100
AcDbViewportTableRecord
  2
*Active
 70
     0
 10
0.0
 20
0.0
 11
1.0
 21
1.0
 12
110.9022719556056
 22
138.3590528211297
 13
0.0
 23
0.0
 14
10.0
 24
10.0
 15
10.0
 25
10.0
 16
0.0
 26
0.0
 36
1.0
 17
0.0
 27
0.0
 37
0.0
 40
275.7899162064854
 41
1.333333333333333
 42
50.0
 43
0.0
 44
0.0
 50
0.0
 51
0.0
 71
     0
 72
 20000
 73
     1
 74
     3
 75
     0
 76
     0
 77
     0
 78
     0
281
     0
 65
     1
110
0.0
120
0.0
130
0.0
111
1.0
121
0.0
131
0.0
112
0.0
122
1.0
132
0.0
 79
     0
146
0.0
  0
ENDTAB
  0
TABLE
  2
LTYPE
  5
5
330
0
100
AcDbSymbolTable
 70
     7
  0
LTYPE
  5
14
330
5
100
AcDbSymbolTableRecord
100
AcDbLinetypeTableRecord
  2
ByBlock
 70
     0
  3

 72
    65
 73
     0
 40
0.0
  0
LTYPE
  5
15
330
5
100
AcDbSymbolTableRecord
100
AcDbLinetypeTableRecord
  2
ByLayer
 70
     0
  3

 72
    65
 73
     0
 40
0.0
  0
LTYPE
  5
16
330
5
100
AcDbSymbolTableRecord
100
AcDbLinetypeTableRecord
  2
Continuous
 70
     0
  3
Solid line
 72
    65
 73
     0
 40
0.0
  0
LTYPE
  5
6B
330
5
100
AcDbSymbolTableRecord
100
AcDbLinetypeTableRecord
  2
DASHED
 70
     0
  3
ICAD/SX(2) Dashed __ __ __ __ __ __ __ __ __ __ __ __ __ _
 72
    65
 73
     2
 40
19.05
 49
12.7
 74
     0
 49
-6.35
 74
     0
  0
LTYPE
  5
6C
330
5
100
AcDbSymbolTableRecord
100
AcDbLinetypeTableRecord
  2
CENTER
 70
     0
  3
ICAD/SX(3) Center ____ _ ____ _ ____ _ ____ _ ____ _ ____
 72
    65
 73
     4
 40
50.8
 49
31.75
 74
     0
 49
-6.35
 74
     0
 49
6.35
 74
     0
 49
-6.35
 74
     0
  0
LTYPE
  5
6D
330
5
100
AcDbSymbolTableRecord
100
AcDbLinetypeTableRecord
  2
PHANTOM
 70
     0
  3
ICAD/SX(4) Phantom ______  __  __  ______  __  __  ______
 72
    65
 73
     6
 40
63.5
 49
31.75
 74
     0
 49
-6.35
 74
     0
 49
6.35
 74
     0
 49
-6.35
 74
     0
 49
6.35
 74
     0
 49
-6.35
 74
     0
  0
LTYPE
  5
6E
330
5
100
AcDbSymbolTableRecord
100
AcDbLinetypeTableRecord
  2
DOT
 70
     0
  3
ICAD/SX(5) Dot . . . . . . . . . . . . . . . . . . . . . . . .
 72
    65
 73
     2
 40
6.35
 49
0.0
 74
     0
 49
-6.35
 74
     0
  0
LTYPE
  5
6F
330
5
100
AcDbSymbolTableRecord
100
AcDbLinetypeTableRecord
  2
HIDDEN
 70
     0
  3
ICAD/SX(6) Hidden __ __ __ __ __ __ __ __ __ __ __ __ __ __
 72
    65
 73
     2
 40
9.525
 49
6.35
 74
     0
 49
-3.175
 74
     0
  0
LTYPE
  5
70
330
5
100
AcDbSymbolTableRecord
100
AcDbLinetypeTableRecord
  2
DOTSX
 70
     0
  3
ICAD/SX(5) Dot . . . . . . . . . . . . . . . . . . . . . . . .
 72
    65
 73
     2
 40
6.35
 49
3.175
 74
     0
 49
-3.175
 74
     0
  0
ENDTAB
  0
TABLE
  2
LAYER
  5
2
330
0
100
AcDbSymbolTable
 70
     4
  0
LAYER
  5
10
330
2
100
AcDbSymbolTableRecord
100
AcDbLayerTableRecord
  2
0
 70
     0
 62
     7
  6
Continuous
370
    -3
390
F
  0
LAYER
  5
71
330
2
100
AcDbSymbolTableRecord
100
AcDbLayerTableRecord
  2
NoLayerName_001
 70
     0
 62
     7
  6
Continuous
370
    -3
390
F
  0
LAYER
  5
72
330
2
100
AcDbSymbolTableRecord
100
AcDbLayerTableRecord
  2
NoLayerName_002
 70
     0
 62
     7
  6
Continuous
370
    -3
390
F
  0
LAYER
  5
73
330
2
100
AcDbSymbolTableRecord
100
AcDbLayerTableRecord
  2
Defpoints
 70
     0
 62
     7
  6
Continuous
290
     0
370
    -3
390
F
  0
ENDTAB
  0
TABLE
  2
STYLE
  5
3
330
0
100
AcDbSymbolTable
 70
     2
  0
STYLE
  5
11
330
3
100
AcDbSymbolTableRecord
100
AcDbTextStyleTableRecord
  2
Standard
 70
     0
 40
0.0
 41
1.0
 50
0.0
 71
     0
 42
2.5
  3
txt
  4
extfont2
  0
STYLE
  5
6A
330
3
100
AcDbSymbolTableRecord
100
AcDbTextStyleTableRecord
  2

 70
     1
 40
0.0
 41
1.0
 50
0.0
 71
     0
 42
2.5
  3
ltypeshp.shx
  4

  0
ENDTAB
  0
TABLE
  2
VIEW
  5
6
330
0
100
AcDbSymbolTable
 70
     0
  0
ENDTAB
  0
TABLE
  2
UCS
  5
7
330
0
100
AcDbSymbolTable
 70
     0
  0
ENDTAB
  0
TABLE
  2
APPID
  5
9
330
0
100
AcDbSymbolTable
 70
     1
  0
APPID
  5
12
330
9
100
AcDbSymbolTableRecord
100
AcDbRegAppTableRecord
  2
ACAD
 70
     0
  0
ENDTAB
  0
TABLE
  2
DIMSTYLE
  5
A
330
0
100
AcDbSymbolTable
 70
     1
100
AcDbDimStyleTable
  0
DIMSTYLE
105
27
330
A
100
AcDbSymbolTableRecord
100
AcDbDimStyleTableRecord
  2
Standard
 70
     0
 41
2.5
 42
0.625
 43
3.75
 44
1.25
 73
     0
 74
     0
 77
     1
140
2.5
141
2.5
143
0.03937007874016
146
0.75
147
0.625
171
     3
172
     1
178
     0
271
     2
272
     2
274
     3
283
     0
284
     8
340
11
  0
ENDTAB
  0
TABLE
  2
BLOCK_RECORD
  5
1
330
0
100
AcDbSymbolTable
 70
     1
  0
BLOCK_RECORD
  5
1F
330
1
100
AcDbSymbolTableRecord
100
AcDbBlockTableRecord
  2
*Model_Space
340
22
  0
BLOCK_RECORD
  5
1B
330
1
100
AcDbSymbolTableRecord
100
AcDbBlockTableRecord
  2
*Paper_Space
340
1E
  0
BLOCK_RECORD
  5
23
330
1
100
AcDbSymbolTableRecord
100
AcDbBlockTableRecord
  2
*Paper_Space0
340
0
  0
ENDTAB
  0
ENDSEC
  0
SECTION
  2
BLOCKS
  0
BLOCK
  5
20
330
1F
100
AcDbEntity
  8
0
100
AcDbBlockBegin
  2
*Model_Space
 70
     0
 10
0.0
 20
0.0
 30
0.0
  3
*Model_Space
  1
*Model_Space
  0
ENDBLK
  5
21
330
1F
100
AcDbEntity
  8
0
100
AcDbBlockEnd
  0
BLOCK
  5
1C
330
1B
100
AcDbEntity
 67
     1
  8
0
100
AcDbBlockBegin
  2
*Paper_Space
 70
     0
 10
0.0
 20
0.0
 30
0.0
  3
*Paper_Space
  1
*Paper_Space
  0
ENDBLK
  5
1D
330
1B
100
AcDbEntity
 67
     1
  8
0
100
AcDbBlockEnd
  0
BLOCK
  5
24
330
23
100
AcDbEntity
  8
0
100
AcDbBlockBegin
  2
*Paper_Space0
 70
     0
 10
0.0
 20
0.0
 30
0.0
  3
*Paper_Space0
  1
*Paper_Space0
  0
ENDBLK
  5
25
330
23
100
AcDbEntity
  8
0
100
AcDbBlockEnd
  0
ENDSEC
  0
SECTION
  2
ENTITIES
  0
POINT
  5
74
330
1F
100
AcDbEntity
  8
NoLayerName_001
  6
Continuous
 62
     7
 60
     1
370
    50
100
AcDbPoint
 10
0.0
 20
0.0
 30
0.0
  0
LINE
  5
75
330
1F
100
AcDbEntity
  8
NoLayerName_001
  6
Continuous
 62
     3
370
    50
100
AcDbLine
 10
82.79390776721579
 20
170.5481709977413
 30
0.0
 11
104.2862232868635
 21
162.725607883132
 31
0.0
  0
LINE
  5
76
330
1F
100
AcDbEntity
  8
NoLayerName_001
  6
Continuous
 62
     3
370
    50
100
AcDbLine
 10
91.34441135035757
 20
194.040486517389
 30
0.0
 11
82.79390776721587
 21
170.5481709977413
 31
0.0
  0
LINE
  5
77
330
1F
100
AcDbEntity
  8
NoLayerName_001
  6
Continuous
 62
     3
370
    50
100
AcDbLine
 10
181.2280352233694
 20
194.040486517389
 30
0.0
 11
189.7785388065111
 21
170.5481709977413
 31
0.0
  0
LINE
  5
78
330
1F
100
AcDbEntity
  8
NoLayerName_001
  6
Continuous
 62
     3
370
    50
100
AcDbLine
 10
104.2862232868635
 20
158.4976674145996
 30
0.0
 11
104.2862232868635
 21
176.0278300390809
 31
0.0
  0
LINE
  5
79
330
1F
100
AcDbEntity
  8
NoLayerName_001
  6
Continuous
 62
     3
370
    50
100
AcDbLine
 10
168.2862232868635
 20
158.4976674145996
 30
0.0
 11
168.2862232868635
 21
176.0278300390809
 31
0.0
  0
LINE
  5
7A
330
1F
100
AcDbEntity
  8
NoLayerName_001
  6
Continuous
 62
     3
370
    50
100
AcDbLine
 10
168.2862232868635
 20
162.725607883132
 30
0.0
 11
189.7785388065112
 21
170.5481709977413
 31
0.0
  0
LINE
  5
7B
330
1F
100
AcDbEntity
  8
NoLayerName_001
  6
Continuous
 62
     3
370
    50
100
AcDbLine
 10
110.2862232868635
 20
187.1462307894326
 30
0.0
 11
110.2862232868635
 21
187.5575775871429
 31
0.0
  0
LINE
  5
7C
330
1F
100
AcDbEntity
  8
NoLayerName_001
  6
Continuous
 62
     3
370
    50
100
AcDbLine
 10
110.2862232868635
 20
187.5575775871429
 30
0.0
 11
111.7862232868635
 21
187.5575775871429
 31
0.0
  0
ARC
  5
7D
330
1F
100
AcDbEntity
  8
NoLayerName_001
  6
Continuous
 62
     3
370
    50
100
AcDbCircle
 10
111.2862232868635
 20
188.4109147607367
 30
0.0
 40
0.5
100
AcDbArc
 50
0.0
 51
83.55046529615767
  0
LINE
  5
7E
330
1F
100
AcDbEntity
  8
NoLayerName_001
  6
Continuous
 62
     3
370
    50
100
AcDbLine
 10
102.7903625622237
 20
189.8745009734066
 30
0.0
 11
111.3423873099691
 21
188.9077503497484
 31
0.0
  0
LINE
  5
7F
330
1F
100
AcDbEntity
  8
NoLayerName_001
  6
Continuous
 62
     3
370
    50
100
AcDbLine
 10
111.7862232868635
 20
188.4109147607367
 30
0.0
 11
111.7862232868635
 21
187.5575775871429
 31
0.0
  0
LINE
  5
80
330
1F
100
AcDbEntity
  8
NoLayerName_001
  6
Continuous
 62
     3
370
    50
100
AcDbLine
 10
162.2862232868635
 20
187.1462307894326
 30
0.0
 11
162.2862232868635
 21
187.5575775871429
 31
0.0
  0
LINE
  5
81
330
1F
100
AcDbEntity
  8
NoLayerName_001
  6
Continuous
 62
     3
370
    50
100
AcDbLine
 10
162.2862232868635
 20
187.5575775871429
 30
0.0
 11
160.7862232868635
 21
187.5575775871429
 31
0.0
  0
ARC
  5
82
330
1F
100
AcDbEntity
  8
NoLayerName_001
  6
Continuous
 62
     3
370
    50
100
AcDbCircle
 10
161.2862232868635
 20
188.4109147607367
 30
0.0
 40
0.5
100
AcDbArc
 50
96.44953470384235
 51
180.0
  0
LINE
  5
83
330
1F
100
AcDbEntity
  8
NoLayerName_001
  6
Continuous
 62
     3
370
    50
100
AcDbLine
 10
169.7820840115032
 20
189.8745009734066
 30
0.0
 11
161.2300592637578
 21
188.9077503497484
 31
0.0
  0
LINE
  5
84
330
1F
100
AcDbEntity
  8
NoLayerName_001
  6
Continuous
 62
     3
370
    50
100
AcDbLine
 10
160.7862232868635
 20
188.4109147607367
 30
0.0
 11
160.7862232868635
 21
187.5575775871429
 31
0.0
  0
ELLIPSE
  5
85
330
1F
100
AcDbEntity
  8
NoLayerName_001
  6
Continuous
 62
     7
370
    50
100
AcDbEllipse
 10
48.90454391121119
 20
182.2943287575651
 30
0.0
 11
12.50000000000001
 21
-7.657177843178879E-16
 31
0.0
210
0.0
220
0.0
230
1.0
 40
0.9395999999999999
 41
0.0
 42
6.283185307179586
  0
ELLIPSE
  5
86
330
1F
100
AcDbEntity
  8
NoLayerName_001
  6
Continuous
 62
     3
370
    50
100
AcDbEllipse
 10
48.90454391121119
 20
173.7455976926755
 30
0.0
 11
10.5
 21
0.0
 31
0.0
210
0.0
220
0.0
230
1.0
 40
0.9395238095238095
 41
1.074478964669428
 42
2.067113688920364
  0
LINE
  5
87
330
1F
100
AcDbEntity
  8
NoLayerName_001
  6
Continuous
 62
     3
370
    50
100
AcDbLine
 10
53.90454391121119
 20
181.3848843845619
 30
0.0
 11
53.90454391121119
 21
182.420308078818
 31
0.0
  0
LINE
  5
88
330
1F
100
AcDbEntity
  8
NoLayerName_001
  6
Continuous
 62
     3
370
    50
100
AcDbLine
 10
43.90454391121119
 20
181.3848495120554
 30
0.0
 11
43.90454391121119
 21
182.420308078818
 31
0.0
  0
ELLIPSE
  5
89
330
1F
100
AcDbEntity
  8
NoLayerName_001
  6
Continuous
 62
     7
370
    50
100
AcDbEllipse
 10
48.90454391121119
 20
177.0183995229955
 30
0.0
 11
12.50000000000001
 21
-7.657177843178879E-16
 31
0.0
210
0.0
220
0.0
230
1.0
 40
0.9395999999999999
 41
4.632279296527418
 42
4.792498664235945
  0
ARC
  5
8A
330
1F
100
AcDbEntity
  8
NoLayerName_001
  6
Continuous
 62
     3
370
    50
100
AcDbCircle
 10
44.20454391120342
 20
181.3848495120554
 30
0.0
 40
0.3
100
AcDbArc
 50
180.0
 51
292.6239505782007
  0
ELLIPSE
  5
8B
330
1F
100
AcDbEntity
  8
NoLayerName_001
  6
Continuous
 62
     3
370
    50
100
AcDbEllipse
 10
48.90454391121119
 20
172.2455976926757
 30
0.0
 11
10.5
 21
0.0
 31
0.0
210
0.0
220
0.0
230
1.0
 40
0.9395238095238095
 41
1.118355622951764
 42
2.023203335688953
  0
ARC
  5
8C
330
1F
100
AcDbEntity
  8
NoLayerName_001
  6
Continuous
 62
     3
370
    50
100
AcDbCircle
 10
53.6045439112242
 20
181.3848843845619
 30
0.0
 40
0.3
100
AcDbArc
 50
247.3709309781351
 51
359.9999999999891
  0
LINE
  5
8D
330
1F
100
AcDbEntity
  8
NoLayerName_001
  6
CENTER
 62
    30
370
    25
100
AcDbLine
 10
48.90454391121119
 20
150.6173567566427
 30
0.0
 11
48.9045439112112
 21
195.7406319630936
 31
0.0
  0
ELLIPSE
  5
8E
330
1F
100
AcDbEntity
  8
NoLayerName_001
  6
Continuous
 62
     7
370
    50
100
AcDbEllipse
 10
48.90454391121119
 20
182.2943287575651
 30
0.0
 11
12.50000000000001
 21
-7.657177843178879E-16
 31
0.0
210
0.0
220
0.0
230
1.0
 40
0.9395999999999999
 41
0.0
 42
6.283185307179586
  0
LINE
  5
8F
330
1F
100
AcDbEntity
  8
NoLayerName_001
  6
Continuous
 62
     7
370
    50
100
AcDbLine
 10
49.90454391121119
 20
156.9976674145996
 30
0.0
 11
49.90454391121119
 21
163.3141012134708
 31
0.0
  0
LINE
  5
90
330
1F
100
AcDbEntity
  8
NoLayerName_001
  6
Continuous
 62
     7
370
    50
100
AcDbLine
 10
47.90454391121119
 20
156.9976674145996
 30
0.0
 11
47.90454391121119
 21
163.3141012134708
 31
0.0
  0
LINE
  5
91
330
1F
100
AcDbEntity
  8
NoLayerName_001
  6
Continuous
 62
     3
370
    50
100
AcDbLine
 10
70.00454391121121
 20
156.9976674145996
 30
0.0
 11
48.90454391121128
 21
156.9976674145996
 31
0.0
  0
ELLIPSE
  5
92
330
1F
100
AcDbEntity
  8
NoLayerName_001
  6
Continuous
 62
     3
370
    50
100
AcDbEllipse
 10
48.90454391121119
 20
175.6260365490269
 30
0.0
 11
10.5
 21
0.0
 31
0.0
210
0.0
220
0.0
230
1.0
 40
0.9395238095238095
 41
1.074842725448818
 42
2.067113688920361
  0
ELLIPSE
  5
93
330
1F
100
AcDbEntity
  8
NoLayerName_001
  6
Continuous
 62
     3
370
    50
100
AcDbEllipse
 10
48.90454391121119
 20
174.3619694680148
 30
0.0
 11
10.5
 21
0.0
 31
0.0
210
0.0
220
0.0
230
1.0
 40
0.9395238095238095
 41
1.074563074044254
 42
2.067113688920357
  0
ELLIPSE
  5
94
330
1F
100
AcDbEntity
  8
NoLayerName_001
  6
Continuous
 62
     3
370
    50
100
AcDbEllipse
 10
48.90454391121119
 20
174.1373008572645
 30
0.0
 11
10.5
 21
0.0
 31
0.0
210
0.0
220
0.0
230
1.0
 40
0.9395238095238095
 41
1.074563074044258
 42
2.067113688920357
  0
ELLIPSE
  5
95
330
1F
100
AcDbEntity
  8
NoLayerName_001
  6
Continuous
 62
     3
370
    50
100
AcDbEllipse
 10
48.90454391121119
 20
172.7755232783411
 30
0.0
 11
12.50000000000001
 21
-7.657177843178879E-16
 31
0.0
210
0.0
220
0.0
230
1.0
 40
0.9395999999999999
 41
1.133527534352665
 42
1.160055810470177
  0
ELLIPSE
  5
96
330
1F
100
AcDbEntity
  8
NoLayerName_001
  6
Continuous
 62
     3
370
    50
100
AcDbEllipse
 10
48.90454391121119
 20
172.7755232783411
 30
0.0
 11
12.50000000000001
 21
-7.657177843178879E-16
 31
0.0
210
0.0
220
0.0
230
1.0
 40
0.9395999999999999
 41
2.00806511923712
 42
8.264722150299194
  0
LINE
  5
97
330
1F
100
AcDbEntity
  8
NoLayerName_001
  6
Continuous
 62
     3
370
    50
100
AcDbLine
 10
127.6152132152006
 20
180.8389942656191
 30
0.0
 11
91.34441135035752
 21
194.040486517389
 31
0.0
  0
ELLIPSE
  5
98
330
1F
100
AcDbEntity
  8
NoLayerName_001
  6
Continuous
 62
     3
370
    50
100
AcDbEllipse
 10
87.06915955878665
 20
240.6181056422595
 30
0.0
 11
6.429395695523611E-16
 21
10.50000000000001
 31
0.0
210
0.0
220
0.0
230
1.0
 40
0.3419047619047619
 41
0.0
 42
6.283185307179586
  0
ELLIPSE
  5
99
330
1F
100
AcDbEntity
  8
NoLayerName_001
  6
Continuous
 62
     3
370
    50
100
AcDbEllipse
 10
87.06915955878671
 20
240.6181056422595
 30
0.0
 11
7.654042494670967E-16
 21
12.50000000000002
 31
0.0
210
0.0
220
0.0
230
1.0
 40
0.342
 41
3.141592653589793
 42
6.283185307179586
  0
ELLIPSE
  5
9A
330
1F
100
AcDbEntity
  8
NoLayerName_001
  6
Continuous
 62
     3
370
    50
100
AcDbEllipse
 10
87.06915955878671
 20
240.6181056422595
 30
0.0
 11
7.654042494670967E-16
 21
12.50000000000002
 31
0.0
210
0.0
220
0.0
230
1.0
 40
0.342
 41
0.0
 42
3.141592653589793
  0
LINE
  5
9B
330
1F
100
AcDbEntity
  8
NoLayerName_001
  6
Continuous
 62
     3
370
    50
100
AcDbLine
 10
144.9572333585264
 20
180.8389942656191
 30
0.0
 11
181.2280352233695
 21
194.040486517389
 31
0.0
  0
LINE
  5
9C
330
1F
100
AcDbEntity
  8
NoLayerName_001
  6
CENTER
 62
    30
370
    25
100
AcDbLine
 10
136.2862232868634
 20
220.5332531094438
 30
0.0
 11
136.2862232868634
 21
253.7179625346067
 31
0.0
  0
LINE
  5
9D
330
1F
100
AcDbEntity
  8
NoLayerName_001
  6
Continuous
 62
     7
370
    50
100
AcDbLine
 10
110.2862232868635
 20
245.6181056422595
 30
0.0
 11
110.2862232868635
 21
247.1181056422595
 31
0.0
  0
LINE
  5
9E
330
1F
100
AcDbEntity
  8
NoLayerName_001
  6
Continuous
 62
     7
370
    50
100
AcDbLine
 10
106.2862232868635
 20
247.1181056422594
 30
0.0
 11
110.2862232868635
 21
247.1181056422594
 31
0.0
  0
LINE
  5
9F
330
1F
100
AcDbEntity
  8
NoLayerName_001
  6
Continuous
 62
     7
370
    50
100
AcDbLine
 10
111.7862232868635
 20
245.6181056422595
 30
0.0
 11
111.7862232868635
 21
240.6181056422595
 31
0.0
  0
LINE
  5
A0
330
1F
100
AcDbEntity
  8
NoLayerName_001
  6
Continuous
 62
     7
370
    50
100
AcDbLine
 10
110.2862232868634
 20
235.6181056422595
 30
0.0
 11
110.2862232868634
 21
234.1181056422595
 31
0.0
  0
LINE
  5
A1
330
1F
100
AcDbEntity
  8
NoLayerName_001
  6
Continuous
 62
     7
370
    50
100
AcDbLine
 10
106.2862232868634
 20
234.1181056422595
 30
0.0
 11
110.2862232868634
 21
234.1181056422595
 31
0.0
  0
LINE
  5
A2
330
1F
100
AcDbEntity
  8
NoLayerName_001
  6
Continuous
 62
     7
370
    50
100
AcDbLine
 10
111.7862232868634
 20
235.6181056422595
 30
0.0
 11
111.7862232868634
 21
240.6181056422594
 31
0.0
  0
LINE
  5
A3
330
1F
100
AcDbEntity
  8
NoLayerName_001
  6
Continuous
 62
     7
370
    50
100
AcDbLine
 10
36.40454391121119
 20
174.4717656429558
 30
0.0
 11
35.40454391121119
 21
158.4976674145996
 31
0.0
  0
LINE
  5
A4
330
1F
100
AcDbEntity
  8
NoLayerName_001
  6
Continuous
 62
     7
370
    50
100
AcDbLine
 10
61.40454391121119
 20
174.471765642956
 30
0.0
 11
62.40454391121119
 21
158.4976674145998
 31
0.0
  0
ARC
  5
A5
330
1F
100
AcDbEntity
  8
NoLayerName_001
  6
Continuous
 62
     3
370
    50
100
AcDbCircle
 10
117.2862232868633
 20
257.7181056422594
 30
0.0
 40
6.0
100
AcDbArc
 50
0.0
 51
180.0
  0
LINE
  5
A6
330
1F
100
AcDbEntity
  8
NoLayerName_001
  6
Continuous
 62
     3
370
    50
100
AcDbLine
 10
123.2862232868634
 20
255.7581056422593
 30
0.0
 11
123.2862232868634
 21
257.7181056422593
 31
0.0
  0
LINE
  5
A7
330
1F
100
AcDbEntity
  8
NoLayerName_001
  6
Continuous
 62
     3
370
    50
100
AcDbLine
 10
149.286223286864
 20
168.4976674145996
 30
0.0
 11
155.2862232868634
 21
168.4976674145996
 31
0.0
  0
LINE
  5
A8
330
1F
100
AcDbEntity
  8
NoLayerName_001
  6
Continuous
 62
     3
370
    50
100
AcDbLine
 10
161.2862232868635
 20
168.4976674145996
 30
0.0
 11
155.2862232868636
 21
168.4976674145996
 31
0.0
  0
LINE
  5
A9
330
1F
100
AcDbEntity
  8
NoLayerName_001
  6
Continuous
 62
     3
370
    50
100
AcDbLine
 10
27.80454391121117
 20
156.9976674145996
 30
0.0
 11
48.90454391121111
 21
156.9976674145996
 31
0.0
  0
LINE
  5
AA
330
1F
100
AcDbEntity
  8
NoLayerName_001
  6
Continuous
 62
     3
370
    50
100
AcDbLine
 10
25.80454391121117
 20
168.4976674145996
 30
0.0
 11
36.03055733976568
 21
168.4976674145996
 31
0.0
  0
LINE
  5
AB
330
1F
100
AcDbEntity
  8
NoLayerName_001
  6
Continuous
 62
     7
370
    50
100
AcDbLine
 10
36.40454391121119
 20
174.4717656429558
 30
0.0
 11
36.40454391121119
 21
182.2943287575651
 31
0.0
  0
LINE
  5
AC
330
1F
100
AcDbEntity
  8
NoLayerName_001
  6
Continuous
 62
     7
370
    50
100
AcDbLine
 10
61.40454391121119
 20
174.4717656429558
 30
0.0
 11
61.40454391121119
 21
182.2943287575651
 31
0.0
  0
LINE
  5
AD
330
1F
100
AcDbEntity
  8
NoLayerName_001
  6
Continuous
 62
     3
370
    50
100
AcDbLine
 10
149.286223286864
 20
166.4976674145996
 30
0.0
 11
161.2862232868635
 21
166.4976674145996
 31
0.0
  0
LINE
  5
AE
330
1F
100
AcDbEntity
  8
NoLayerName_001
  6
Continuous
 62
     3
370
    50
100
AcDbLine
 10
123.286223286863
 20
168.4976674145996
 30
0.0
 11
117.2862232868636
 21
168.4976674145996
 31
0.0
  0
LINE
  5
AF
330
1F
100
AcDbEntity
  8
NoLayerName_001
  6
Continuous
 62
     3
370
    50
100
AcDbLine
 10
111.2862232868635
 20
168.4976674145996
 30
0.0
 11
117.2862232868634
 21
168.4976674145996
 31
0.0
  0
LINE
  5
B0
330
1F
100
AcDbEntity
  8
NoLayerName_001
  6
Continuous
 62
     3
370
    50
100
AcDbLine
 10
123.286223286863
 20
166.4976674145996
 30
0.0
 11
111.2862232868635
 21
166.4976674145996
 31
0.0
  0
LINE
  5
B1
330
1F
100
AcDbEntity
  8
NoLayerName_001
  6
Continuous
 62
     7
370
    50
100
AcDbLine
 10
104.2862232868635
 20
158.4976674145996
 30
0.0
 11
104.2862232868635
 21
156.9976674145996
 31
0.0
  0
LINE
  5
B2
330
1F
100
AcDbEntity
  8
NoLayerName_001
  6
Continuous
 62
     7
370
    50
100
AcDbLine
 10
168.2862232868635
 20
158.4976674145996
 30
0.0
 11
168.2862232868635
 21
156.9976674145996
 31
0.0
  0
LINE
  5
B3
330
1F
100
AcDbEntity
  8
NoLayerName_001
  6
CENTER
 62
    30
370
    25
100
AcDbLine
 10
102.8862232868635
 20
161.5974127894433
 30
0.0
 11
102.8862232868635
 21
156.9976674145996
 31
0.0
  0
ARC
  5
B4
330
1F
100
AcDbEntity
  8
NoLayerName_001
  6
Continuous
 62
     3
370
    50
100
AcDbCircle
 10
117.2862232868633
 20
223.5181056422594
 30
0.0
 40
6.0
100
AcDbArc
 50
180.0
 51
0.0
  0
LINE
  5
B5
330
1F
100
AcDbEntity
  8
NoLayerName_001
  6
Continuous
 62
     3
370
    50
100
AcDbLine
 10
104.2862232868635
 20
226.6181056422595
 30
0.0
 11
104.2862232868635
 21
228.1181056422595
 31
0.0
  0
ELLIPSE
  5
B6
330
1F
100
AcDbEntity
  8
NoLayerName_001
  6
Continuous
 62
     3
370
    50
100
AcDbEllipse
 10
185.5032870149402
 20
240.6181056422593
 30
0.0
 11
-1.928818708657083E-15
 21
-10.50000000000001
 31
0.0
210
0.0
220
0.0
230
1.0
 40
0.3419047619047619
 41
0.0
 42
6.283185307179586
  0
ELLIPSE
  5
B7
330
1F
100
AcDbEntity
  8
NoLayerName_001
  6
Continuous
 62
     3
370
    50
100
AcDbEllipse
 10
185.5032870149402
 20
240.6181056422593
 30
0.0
 11
-2.296212748401290E-15
 21
-12.50000000000002
 31
0.0
210
0.0
220
0.0
230
1.0
 40
0.342
 41
3.141592653589797
 42
6.283185307179586
  0
ELLIPSE
  5
B8
330
1F
100
AcDbEntity
  8
NoLayerName_001
  6
Continuous
 62
     3
370
    50
100
AcDbEllipse
 10
185.5032870149402
 20
240.6181056422593
 30
0.0
 11
-2.296212748401290E-15
 21
-12.50000000000002
 31
0.0
210
0.0
220
0.0
230
1.0
 40
0.342
 41
0.0
 42
3.141592653589797
  0
LINE
  5
B9
330
1F
100
AcDbEntity
  8
NoLayerName_001
  6
Continuous
 62
     7
370
    50
100
AcDbLine
 10
162.2862232868635
 20
245.6181056422595
 30
0.0
 11
162.2862232868635
 21
247.1181056422595
 31
0.0
  0
LINE
  5
BA
330
1F
100
AcDbEntity
  8
NoLayerName_001
  6
Continuous
 62
     7
370
    50
100
AcDbLine
 10
166.2862232868635
 20
247.1181056422594
 30
0.0
 11
162.2862232868635
 21
247.1181056422594
 31
0.0
  0
LINE
  5
BB
330
1F
100
AcDbEntity
  8
NoLayerName_001
  6
Continuous
 62
     7
370
    50
100
AcDbLine
 10
160.7862232868635
 20
245.6181056422595
 30
0.0
 11
160.7862232868635
 21
240.6181056422595
 31
0.0
  0
LINE
  5
BC
330
1F
100
AcDbEntity
  8
NoLayerName_001
  6
Continuous
 62
     7
370
    50
100
AcDbLine
 10
162.2862232868635
 20
235.6181056422595
 30
0.0
 11
162.2862232868635
 21
234.1181056422595
 31
0.0
  0
LINE
  5
BD
330
1F
100
AcDbEntity
  8
NoLayerName_001
  6
Continuous
 62
     7
370
    50
100
AcDbLine
 10
166.2862232868635
 20
234.1181056422595
 30
0.0
 11
162.2862232868635
 21
234.1181056422595
 31
0.0
  0
LINE
  5
BE
330
1F
100
AcDbEntity
  8
NoLayerName_001
  6
Continuous
 62
     7
370
    50
100
AcDbLine
 10
160.7862232868635
 20
235.6181056422595
 30
0.0
 11
160.7862232868635
 21
240.6181056422594
 31
0.0
  0
ARC
  5
BF
330
1F
100
AcDbEntity
  8
NoLayerName_001
  6
Continuous
 62
     3
370
    50
100
AcDbCircle
 10
155.2862232868637
 20
257.7181056422594
 30
0.0
 40
6.0
100
AcDbArc
 50
359.9999999999999
 51
179.9999999999999
  0
LINE
  5
C0
330
1F
100
AcDbEntity
  8
NoLayerName_001
  6
Continuous
 62
     3
370
    50
100
AcDbLine
 10
111.2862232868638
 20
253.1181056422595
 30
0.0
 11
111.2862232868638
 21
257.7181056422594
 31
0.0
  0
LINE
  5
C1
330
1F
100
AcDbEntity
  8
NoLayerName_001
  6
Continuous
 62
     3
370
    50
100
AcDbLine
 10
136.2862232868635
 20
253.1181056422595
 30
0.0
 11
87.0691595587868
 21
253.1181056422596
 31
0.0
  0
LINE
  5
C2
330
1F
100
AcDbEntity
  8
NoLayerName_001
  6
Continuous
 62
     7
370
    50
100
AcDbLine
 10
136.2862232868635
 20
253.1181056422595
 30
0.0
 11
185.5032870149402
 21
253.1181056422595
 31
0.0
  0
LINE
  5
C3
330
1F
100
AcDbEntity
  8
NoLayerName_001
  6
Continuous
 62
     3
370
    50
100
AcDbLine
 10
111.2862232868638
 20
228.1181056422593
 30
0.0
 11
111.2862232868638
 21
223.5181056422595
 31
0.0
  0
LINE
  5
C4
330
1F
100
AcDbEntity
  8
NoLayerName_001
  6
Continuous
 62
     3
370
    50
100
AcDbLine
 10
136.2862232868635
 20
228.1181056422593
 30
0.0
 11
87.0691595587868
 21
228.1181056422593
 31
0.0
  0
ARC
  5
C5
330
1F
100
AcDbEntity
  8
NoLayerName_001
  6
Continuous
 62
     3
370
    50
100
AcDbCircle
 10
155.2862232868636
 20
223.5181056422594
 30
0.0
 40
6.0
100
AcDbArc
 50
179.9999999999999
 51
359.9999999999999
  0
LINE
  5
C6
330
1F
100
AcDbEntity
  8
NoLayerName_001
  6
Continuous
 62
     3
370
    50
100
AcDbLine
 10
136.2862232868634
 20
228.1181056422593
 30
0.0
 11
185.5032870149401
 21
228.1181056422593
 31
0.0
  0
CIRCLE
  5
C7
330
1F
100
AcDbEntity
  8
NoLayerName_001
  6
Continuous
 62
     7
370
    50
100
AcDbCircle
 10
155.2862232868636
 20
223.5181056422593
 30
0.0
 40
1.0
  0
CIRCLE
  5
C8
330
1F
100
AcDbEntity
  8
NoLayerName_001
  6
Continuous
 62
     7
370
    50
100
AcDbCircle
 10
117.2862232868633
 20
223.5181056422593
 30
0.0
 40
1.0
  0
CIRCLE
  5
C9
330
1F
100
AcDbEntity
  8
NoLayerName_001
  6
Continuous
 62
     7
370
    50
100
AcDbCircle
 10
155.2862232868636
 20
257.7181056422594
 30
0.0
 40
1.0
  0
CIRCLE
  5
CA
330
1F
100
AcDbEntity
  8
NoLayerName_001
  6
Continuous
 62
     7
370
    50
100
AcDbCircle
 10
117.2862232868633
 20
257.7181056422594
 30
0.0
 40
1.0
  0
ARC
  5
CB
330
1F
100
AcDbEntity
  8
NoLayerName_001
  6
Continuous
 62
     3
370
    50
100
AcDbCircle
 10
127.7862232868635
 20
181.308840576012
 30
0.0
 40
0.5
100
AcDbArc
 50
250.0
 51
0.0
  0
ARC
  5
CC
330
1F
100
AcDbEntity
  8
NoLayerName_001
  6
Continuous
 62
     3
370
    50
100
AcDbCircle
 10
144.7862232868635
 20
181.308840576012
 30
0.0
 40
0.5
100
AcDbArc
 50
180.0
 51
289.9999999999999
  0
LINE
  5
CD
330
1F
100
AcDbEntity
  8
NoLayerName_001
  6
Continuous
 62
     3
370
    50
100
AcDbLine
 10
99.2862232868635
 20
164.545459054463
 30
0.0
 11
99.2862232868635
 21
156.9976674145996
 31
0.0
  0
LINE
  5
CE
330
1F
100
AcDbEntity
  8
NoLayerName_001
  6
Continuous
 62
     7
370
    50
100
AcDbLine
 10
173.2862232868635
 20
164.545459054463
 30
0.0
 11
173.2862232868635
 21
156.9976674145996
 31
0.0
  0
LINE
  5
CF
330
1F
100
AcDbEntity
  8
NoLayerName_001
  6
Continuous
 62
     7
370
    50
100
AcDbLine
 10
47.90454391121119
 20
156.9976674145996
 30
0.0
 11
47.90454391121119
 21
165.3145815302958
 31
0.0
  0
LINE
  5
D0
330
1F
100
AcDbEntity
  8
NoLayerName_001
  6
Continuous
 62
     7
370
    50
100
AcDbLine
 10
49.90454391121119
 20
156.9976674145996
 30
0.0
 11
49.90454391121119
 21
165.3145815302959
 31
0.0
  0
LINE
  5
D1
330
1F
100
AcDbEntity
  8
NoLayerName_001
  6
Continuous
 62
     7
370
    50
100
AcDbLine
 10
51.90454391121119
 20
164.545459054463
 30
0.0
 11
51.90454391121119
 21
156.9976674145996
 31
0.0
  0
LINE
  5
D2
330
1F
100
AcDbEntity
  8
NoLayerName_001
  6
Continuous
 62
     7
370
    50
100
AcDbLine
 10
45.90454391121119
 20
164.545459054463
 30
0.0
 11
45.90454391121119
 21
156.9976674145996
 31
0.0
  0
ELLIPSE
  5
D3
330
1F
100
AcDbEntity
  8
NoLayerName_001
  6
Continuous
 62
     7
370
    50
100
AcDbEllipse
 10
48.90454391121119
 20
174.4717656429559
 30
0.0
 11
12.50000000000001
 21
-7.657177843178879E-16
 31
0.0
210
0.0
220
0.0
230
1.0
 40
0.9395999999999999
 41
3.1415926535898
 42
4.470357010476233
  0
ELLIPSE
  5
D4
330
1F
100
AcDbEntity
  8
NoLayerName_001
  6
Continuous
 62
     7
370
    50
100
AcDbEllipse
 10
48.90454391121119
 20
174.4717656429559
 30
0.0
 11
12.50000000000001
 21
-7.657177843178879E-16
 31
0.0
210
0.0
220
0.0
230
1.0
 40
0.9395999999999999
 41
4.95494759229111
 42
6.283185307179586
  0
LINE
  5
D5
330
1F
100
AcDbEntity
  8
NoLayerName_001
  6
Continuous
 62
     7
370
    50
100
AcDbLine
 10
45.90454391121119
 20
164.545459054463
 30
0.0
 11
47.90454391121119
 21
164.545459054463
 31
0.0
  0
LINE
  5
D6
330
1F
100
AcDbEntity
  8
NoLayerName_001
  6
Continuous
 62
     7
370
    50
100
AcDbLine
 10
49.90454391121119
 20
164.545459054463
 30
0.0
 11
51.90454391121119
 21
164.545459054463
 31
0.0
  0
LINE
  5
D7
330
1F
100
AcDbEntity
  8
NoLayerName_001
  6
Continuous
 62
     7
370
    50
100
AcDbLine
 10
115.2862232868634
 20
236.6181056422595
 30
0.0
 11
116.7862232868634
 21
236.6181056422595
 31
0.0
  0
LINE
  5
D8
330
1F
100
AcDbEntity
  8
NoLayerName_001
  6
Continuous
 62
     7
370
    50
100
AcDbLine
 10
115.2862232868634
 20
236.6181056422595
 30
0.0
 11
115.2862232868634
 21
240.6181056422594
 31
0.0
  0
LINE
  5
D9
330
1F
100
AcDbEntity
  8
NoLayerName_001
  6
Continuous
 62
     7
370
    50
100
AcDbLine
 10
116.7862232868634
 20
236.6181056422595
 30
0.0
 11
116.7862232868634
 21
240.6181056422594
 31
0.0
  0
LINE
  5
DA
330
1F
100
AcDbEntity
  8
NoLayerName_001
  6
Continuous
 62
     7
370
    50
100
AcDbLine
 10
115.2862232868634
 20
244.6181056422595
 30
0.0
 11
116.7862232868634
 21
244.6181056422595
 31
0.0
  0
LINE
  5
DB
330
1F
100
AcDbEntity
  8
NoLayerName_001
  6
Continuous
 62
     7
370
    50
100
AcDbLine
 10
115.2862232868634
 20
244.6181056422595
 30
0.0
 11
115.2862232868634
 21
240.6181056422595
 31
0.0
  0
LINE
  5
DC
330
1F
100
AcDbEntity
  8
NoLayerName_001
  6
Continuous
 62
     7
370
    50
100
AcDbLine
 10
116.7862232868634
 20
244.6181056422595
 30
0.0
 11
116.7862232868634
 21
240.6181056422595
 31
0.0
  0
LINE
  5
DD
330
1F
100
AcDbEntity
  8
NoLayerName_001
  6
Continuous
 62
     7
370
    50
100
AcDbLine
 10
157.2862232868635
 20
236.6181056422595
 30
0.0
 11
155.7862232868635
 21
236.6181056422595
 31
0.0
  0
LINE
  5
DE
330
1F
100
AcDbEntity
  8
NoLayerName_001
  6
Continuous
 62
     7
370
    50
100
AcDbLine
 10
157.2862232868635
 20
236.6181056422595
 30
0.0
 11
157.2862232868635
 21
240.6181056422594
 31
0.0
  0
LINE
  5
DF
330
1F
100
AcDbEntity
  8
NoLayerName_001
  6
Continuous
 62
     7
370
    50
100
AcDbLine
 10
155.7862232868635
 20
236.6181056422595
 30
0.0
 11
155.7862232868635
 21
240.6181056422594
 31
0.0
  0
LINE
  5
E0
330
1F
100
AcDbEntity
  8
NoLayerName_001
  6
Continuous
 62
     7
370
    50
100
AcDbLine
 10
157.2862232868635
 20
244.6181056422595
 30
0.0
 11
155.7862232868635
 21
244.6181056422595
 31
0.0
  0
LINE
  5
E1
330
1F
100
AcDbEntity
  8
NoLayerName_001
  6
Continuous
 62
     7
370
    50
100
AcDbLine
 10
157.2862232868635
 20
244.6181056422595
 30
0.0
 11
157.2862232868635
 21
240.6181056422595
 31
0.0
  0
LINE
  5
E2
330
1F
100
AcDbEntity
  8
NoLayerName_001
  6
Continuous
 62
     7
370
    50
100
AcDbLine
 10
155.7862232868635
 20
244.6181056422595
 30
0.0
 11
155.7862232868635
 21
240.6181056422595
 31
0.0
  0
LINE
  5
E3
330
1F
100
AcDbEntity
  8
NoLayerName_001
  6
Continuous
 62
     7
370
    50
100
AcDbLine
 10
111.7862232868635
 20
192.2575775871429
 30
0.0
 11
111.7862232868635
 21
187.5575775871429
 31
0.0
  0
LINE
  5
E4
330
1F
100
AcDbEntity
  8
NoLayerName_001
  6
Continuous
 62
     7
370
    50
100
AcDbLine
 10
111.4862232868634
 20
192.557577587143
 30
0.0
 11
110.8862232868635
 21
192.557577587143
 31
0.0
  0
ARC
  5
E5
330
1F
100
AcDbEntity
  8
NoLayerName_001
  6
Continuous
 62
     7
370
    50
100
AcDbCircle
 10
110.8862232868635
 20
192.2575775871429
 30
0.0
 40
0.3
100
AcDbArc
 50
90.0
 51
180.0
  0
ARC
  5
E6
330
1F
100
AcDbEntity
  8
NoLayerName_001
  6
Continuous
 62
     7
370
    50
100
AcDbCircle
 10
111.4862232868634
 20
192.2575775871429
 30
0.0
 40
0.3
100
AcDbArc
 50
0.0
 51
90.0
  0
ARC
  5
E7
330
1F
100
AcDbEntity
  8
NoLayerName_001
  6
Continuous
 62
     7
370
    50
100
AcDbCircle
 10
110.0862232868635
 20
189.5529360657231
 30
0.0
 40
0.5
100
AcDbArc
 50
263.5504652961577
 51
0.0
  0
LINE
  5
E8
330
1F
100
AcDbEntity
  8
NoLayerName_001
  6
Continuous
 62
     7
370
    50
100
AcDbLine
 10
110.5862232868635
 20
189.5529360657231
 30
0.0
 11
110.5862232868635
 21
192.2575775871429
 31
0.0
  0
LINE
  5
E9
330
1F
100
AcDbEntity
  8
NoLayerName_001
  6
Continuous
 62
     7
370
    50
100
AcDbLine
 10
113.7862232868637
 20
169.0976674145996
 30
0.0
 11
114.9479546966453
 21
169.0976674145996
 31
0.0
  0
LINE
  5
EA
330
1F
100
AcDbEntity
  8
NoLayerName_001
  6
Continuous
 62
     7
370
    50
100
AcDbLine
 10
113.7862232868637
 20
169.0976674145996
 30
0.0
 11
113.7862232868637
 21
168.4976674145996
 31
0.0
  0
LINE
  5
EB
330
1F
100
AcDbEntity
  8
NoLayerName_001
  6
Continuous
 62
     7
370
    50
100
AcDbLine
 10
114.9479546966454
 20
169.0976674145996
 30
0.0
 11
114.9479546966454
 21
168.4976674145996
 31
0.0
  0
LINE
  5
EC
330
1F
100
AcDbEntity
  8
NoLayerName_001
  6
Continuous
 62
     7
370
    50
100
AcDbLine
 10
120.7862232868632
 20
169.0976674145996
 30
0.0
 11
119.6244918770816
 21
169.0976674145996
 31
0.0
  0
LINE
  5
ED
330
1F
100
AcDbEntity
  8
NoLayerName_001
  6
Continuous
 62
     7
370
    50
100
AcDbLine
 10
120.7862232868632
 20
169.0976674145996
 30
0.0
 11
120.7862232868632
 21
168.4976674145996
 31
0.0
  0
LINE
  5
EE
330
1F
100
AcDbEntity
  8
NoLayerName_001
  6
Continuous
 62
     7
370
    50
100
AcDbLine
 10
119.6244918770817
 20
169.0976674145996
 30
0.0
 11
119.6244918770817
 21
168.4976674145996
 31
0.0
  0
LINE
  5
EF
330
1F
100
AcDbEntity
  8
NoLayerName_001
  6
Continuous
 62
     7
370
    50
100
AcDbLine
 10
158.7862232868632
 20
169.0976674145996
 30
0.0
 11
157.6244918770816
 21
169.0976674145996
 31
0.0
  0
LINE
  5
F0
330
1F
100
AcDbEntity
  8
NoLayerName_001
  6
Continuous
 62
     7
370
    50
100
AcDbLine
 10
158.7862232868632
 20
169.0976674145996
 30
0.0
 11
158.7862232868632
 21
168.4976674145996
 31
0.0
  0
LINE
  5
F1
330
1F
100
AcDbEntity
  8
NoLayerName_001
  6
Continuous
 62
     7
370
    50
100
AcDbLine
 10
157.6244918770815
 20
169.0976674145996
 30
0.0
 11
157.6244918770815
 21
168.4976674145996
 31
0.0
  0
LINE
  5
F2
330
1F
100
AcDbEntity
  8
NoLayerName_001
  6
Continuous
 62
     7
370
    50
100
AcDbLine
 10
151.7862232868638
 20
169.0976674145996
 30
0.0
 11
152.9479546966454
 21
169.0976674145996
 31
0.0
  0
LINE
  5
F3
330
1F
100
AcDbEntity
  8
NoLayerName_001
  6
Continuous
 62
     7
370
    50
100
AcDbLine
 10
151.7862232868638
 20
169.0976674145996
 30
0.0
 11
151.7862232868638
 21
168.4976674145996
 31
0.0
  0
LINE
  5
F4
330
1F
100
AcDbEntity
  8
NoLayerName_001
  6
Continuous
 62
     7
370
    50
100
AcDbLine
 10
152.9479546966452
 20
169.0976674145996
 30
0.0
 11
152.9479546966452
 21
168.4976674145996
 31
0.0
  0
LINE
  5
F5
330
1F
100
AcDbEntity
  8
NoLayerName_001
  6
Continuous
 62
     3
370
    50
100
AcDbLine
 10
25.80454391121117
 20
168.4976674145996
 30
0.0
 11
25.80454391121117
 21
166.4976674145996
 31
0.0
  0
LINE
  5
F6
330
1F
100
AcDbEntity
  8
NoLayerName_001
  6
Continuous
 62
     7
370
    50
100
AcDbLine
 10
33.30454391121117
 20
169.0976674145996
 30
0.0
 11
33.30454391121117
 21
168.4976674145996
 31
0.0
  0
LINE
  5
F7
330
1F
100
AcDbEntity
  8
NoLayerName_001
  6
Continuous
 62
     7
370
    50
100
AcDbLine
 10
30.05454391121117
 20
169.0976674145996
 30
0.0
 11
30.05454391121117
 21
168.4976674145996
 31
0.0
  0
LINE
  5
F8
330
1F
100
AcDbEntity
  8
NoLayerName_001
  6
Continuous
 62
     7
370
    50
100
AcDbLine
 10
30.05454391121117
 20
169.0976674145996
 30
0.0
 11
33.30454391121117
 21
169.0976674145996
 31
0.0
  0
LINE
  5
F9
330
1F
100
AcDbEntity
  8
NoLayerName_001
  6
Continuous
 62
     3
370
    50
100
AcDbLine
 10
63.90454391121119
 20
158.4976674145996
 30
0.0
 11
63.90454391121119
 21
156.9976674145996
 31
0.0
  0
LINE
  5
FA
330
1F
100
AcDbEntity
  8
NoLayerName_001
  6
Continuous
 62
     3
370
    50
100
AcDbLine
 10
72.00454391121121
 20
168.4976674145996
 30
0.0
 11
61.77853048265671
 21
168.4976674145996
 31
0.0
  0
LINE
  5
FB
330
1F
100
AcDbEntity
  8
NoLayerName_001
  6
Continuous
 62
     3
370
    50
100
AcDbLine
 10
72.00454391121121
 20
168.4976674145996
 30
0.0
 11
72.00454391121121
 21
166.4976674145996
 31
0.0
  0
LINE
  5
FC
330
1F
100
AcDbEntity
  8
NoLayerName_001
  6
Continuous
 62
     7
370
    50
100
AcDbLine
 10
64.50454391121121
 20
169.0976674145996
 30
0.0
 11
64.50454391121121
 21
168.4976674145996
 31
0.0
  0
LINE
  5
FD
330
1F
100
AcDbEntity
  8
NoLayerName_001
  6
Continuous
 62
     7
370
    50
100
AcDbLine
 10
67.75454391121121
 20
169.0976674145996
 30
0.0
 11
67.75454391121121
 21
168.4976674145996
 31
0.0
  0
LINE
  5
FE
330
1F
100
AcDbEntity
  8
NoLayerName_001
  6
Continuous
 62
     7
370
    50
100
AcDbLine
 10
67.75454391121121
 20
169.0976674145996
 30
0.0
 11
64.50454391121121
 21
169.0976674145996
 31
0.0
  0
LINE
  5
FF
330
1F
100
AcDbEntity
  8
NoLayerName_001
  6
Continuous
 62
     3
370
    50
100
AcDbLine
 10
63.90454391121119
 20
166.4976674145996
 30
0.0
 11
63.90454391121119
 21
158.4976674145996
 31
0.0
  0
LINE
  5
100
330
1F
100
AcDbEntity
  8
NoLayerName_001
  6
Continuous
 62
     3
370
    50
100
AcDbLine
 10
70.00454391121121
 20
166.4976674145996
 30
0.0
 11
70.00454391121121
 21
156.9976674145996
 31
0.0
  0
LINE
  5
101
330
1F
100
AcDbEntity
  8
NoLayerName_001
  6
Continuous
 62
     3
370
    50
100
AcDbLine
 10
27.80454391121117
 20
166.4976674145996
 30
0.0
 11
27.80454391121117
 21
156.9976674145996
 31
0.0
  0
LINE
  5
102
330
1F
100
AcDbEntity
  8
NoLayerName_001
  6
Continuous
 62
     7
370
    50
100
AcDbLine
 10
160.7862232868634
 20
192.2575775871429
 30
0.0
 11
160.7862232868634
 21
187.5575775871429
 31
0.0
  0
LINE
  5
103
330
1F
100
AcDbEntity
  8
NoLayerName_001
  6
Continuous
 62
     7
370
    50
100
AcDbLine
 10
161.0862232868636
 20
192.557577587143
 30
0.0
 11
161.6862232868635
 21
192.557577587143
 31
0.0
  0
ARC
  5
104
330
1F
100
AcDbEntity
  8
NoLayerName_001
  6
Continuous
 62
     7
370
    50
100
AcDbCircle
 10
161.6862232868635
 20
192.2575775871429
 30
0.0
 40
0.3
100
AcDbArc
 50
0.0000000000000127
 51
90.00000000000001
  0
ARC
  5
105
330
1F
100
AcDbEntity
  8
NoLayerName_001
  6
Continuous
 62
     7
370
    50
100
AcDbCircle
 10
161.0862232868636
 20
192.2575775871429
 30
0.0
 40
0.3
100
AcDbArc
 50
90.0
 51
180.0
  0
ARC
  5
106
330
1F
100
AcDbEntity
  8
NoLayerName_001
  6
Continuous
 62
     7
370
    50
100
AcDbCircle
 10
162.4862232868634
 20
189.5529360657231
 30
0.0
 40
0.5
100
AcDbArc
 50
180.0
 51
276.4495347038423
  0
LINE
  5
107
330
1F
100
AcDbEntity
  8
NoLayerName_001
  6
Continuous
 62
     7
370
    50
100
AcDbLine
 10
161.9862232868634
 20
189.5529360657231
 30
0.0
 11
161.9862232868634
 21
192.2575775871429
 31
0.0
  0
LINE
  5
108
330
1F
100
AcDbEntity
  8
NoLayerName_001
  6
Continuous
 62
     7
370
    50
100
AcDbLine
 10
120.7862232868626
 20
225.0181056422591
 30
0.0
 11
120.7862232868626
 21
223.5181056422591
 31
0.0
  0
LINE
  5
109
330
1F
100
AcDbEntity
  8
NoLayerName_001
  6
Continuous
 62
     7
370
    50
100
AcDbLine
 10
119.9862232868625
 20
225.0181056422591
 30
0.0
 11
120.7862232868625
 21
225.0181056422591
 31
0.0
  0
LINE
  5
10A
330
1F
100
AcDbEntity
  8
NoLayerName_001
  6
Continuous
 62
     7
370
    50
100
AcDbLine
 10
113.7862232868637
 20
225.0181056422591
 30
0.0
 11
113.7862232868637
 21
223.5181056422591
 31
0.0
  0
LINE
  5
10B
330
1F
100
AcDbEntity
  8
NoLayerName_001
  6
Continuous
 62
     7
370
    50
100
AcDbLine
 10
114.5862232868638
 20
225.0181056422591
 30
0.0
 11
113.7862232868638
 21
225.0181056422591
 31
0.0
  0
LINE
  5
10C
330
1F
100
AcDbEntity
  8
NoLayerName_001
  6
Continuous
 62
     3
370
    50
100
AcDbLine
 10
111.2862232868638
 20
225.6181056422595
 30
0.0
 11
111.2862232868638
 21
223.5181056422595
 31
0.0
  0
LINE
  5
10D
330
1F
100
AcDbEntity
  8
NoLayerName_001
  6
Continuous
 62
     7
370
    50
100
AcDbLine
 10
105.2862232868635
 20
225.6181056422595
 30
0.0
 11
111.2862232868639
 21
225.6181056422595
 31
0.0
  0
LINE
  5
10E
330
1F
100
AcDbEntity
  8
NoLayerName_001
  6
Continuous
 62
     7
370
    50
100
AcDbLine
 10
123.2862232868634
 20
225.6181056422595
 30
0.0
 11
136.2862232868634
 21
225.6181056422595
 31
0.0
  0
ARC
  5
10F
330
1F
100
AcDbEntity
  8
NoLayerName_001
  6
Continuous
 62
     7
370
    50
100
AcDbCircle
 10
117.2862232868632
 20
223.5181056422591
 30
0.0
 40
3.499999999999403
100
AcDbArc
 50
330.0000000000002
 51
0.0
  0
LINE
  5
110
330
1F
100
AcDbEntity
  8
NoLayerName_001
  6
Continuous
 62
     7
370
    50
100
AcDbLine
 10
119.624491877081
 20
222.1681056422592
 30
0.0
 11
120.3173122001081
 21
221.7681056422594
 31
0.0
  0
ARC
  5
111
330
1F
100
AcDbEntity
  8
NoLayerName_001
  6
Continuous
 62
     7
370
    50
100
AcDbCircle
 10
117.2862232868632
 20
223.5181056422591
 30
0.0
 40
3.499999999999403
100
AcDbArc
 50
180.0
 51
209.9999999999999
  0
LINE
  5
112
330
1F
100
AcDbEntity
  8
NoLayerName_001
  6
Continuous
 62
     7
370
    50
100
AcDbLine
 10
114.9479546966454
 20
222.1681056422592
 30
0.0
 11
114.2551343736182
 21
221.7681056422594
 31
0.0
  0
LINE
  5
113
330
1F
100
AcDbEntity
  8
NoLayerName_001
  6
Continuous
 62
     7
370
    50
100
AcDbLine
 10
114.586223286863
 20
225.0181056422591
 30
0.0
 11
114.586223286863
 21
223.5181056422591
 31
0.0
  0
ARC
  5
114
330
1F
100
AcDbEntity
  8
NoLayerName_001
  6
Continuous
 62
     7
370
    50
100
AcDbCircle
 10
117.2862232868628
 20
223.5181056422594
 30
0.0
 40
2.700000000000216
100
AcDbArc
 50
180.0
 51
210.0000000000091
  0
LINE
  5
115
330
1F
100
AcDbEntity
  8
NoLayerName_001
  6
Continuous
 62
     7
370
    50
100
AcDbLine
 10
119.9862232868634
 20
225.0181056422591
 30
0.0
 11
119.9862232868634
 21
223.5181056422591
 31
0.0
  0
ARC
  5
116
330
1F
100
AcDbEntity
  8
NoLayerName_001
  6
Continuous
 62
     7
370
    50
100
AcDbCircle
 10
117.2862232868636
 20
223.5181056422594
 30
0.0
 40
2.700000000000216
100
AcDbArc
 50
329.9999999999908
 51
360.0
  0
LINE
  5
117
330
1F
100
AcDbEntity
  8
NoLayerName_001
  6
Continuous
 62
     3
370
    50
100
AcDbLine
 10
123.2862232868634
 20
227.118114446844
 30
0.0
 11
136.2862232868634
 21
227.118114446844
 31
0.0
  0
LINE
  5
118
330
1F
100
AcDbEntity
  8
NoLayerName_001
  6
Continuous
 62
     3
370
    50
100
AcDbLine
 10
104.2862232868635
 20
227.118114446844
 30
0.0
 11
111.2862232868639
 21
227.118114446844
 31
0.0
  0
ARC
  5
119
330
1F
100
AcDbEntity
  8
NoLayerName_001
  6
Continuous
 62
     7
370
    50
100
AcDbCircle
 10
105.2862232868635
 20
226.6181056422595
 30
0.0
 40
1.0
100
AcDbArc
 50
180.0
 51
270.0
  0
LINE
  5
11A
330
1F
100
AcDbEntity
  8
NoLayerName_001
  6
Continuous
 62
     3
370
    50
100
AcDbLine
 10
123.2862232868634
 20
228.1181056422595
 30
0.0
 11
123.2862232868634
 21
223.5181056422595
 31
0.0
  0
LINE
  5
11B
330
1F
100
AcDbEntity
  8
NoLayerName_001
  6
Continuous
 62
     3
370
    50
100
AcDbLine
 10
104.2862232868635
 20
254.6181056422594
 30
0.0
 11
104.2862232868635
 21
253.1181056422594
 31
0.0
  0
LINE
  5
11C
330
1F
100
AcDbEntity
  8
NoLayerName_001
  6
Continuous
 62
     7
370
    50
100
AcDbLine
 10
120.7862232868626
 20
256.2181056422597
 30
0.0
 11
120.7862232868626
 21
257.7181056422597
 31
0.0
  0
LINE
  5
11D
330
1F
100
AcDbEntity
  8
NoLayerName_001
  6
Continuous
 62
     7
370
    50
100
AcDbLine
 10
119.9862232868625
 20
256.2181056422597
 30
0.0
 11
120.7862232868625
 21
256.2181056422597
 31
0.0
  0
LINE
  5
11E
330
1F
100
AcDbEntity
  8
NoLayerName_001
  6
Continuous
 62
     7
370
    50
100
AcDbLine
 10
113.7862232868637
 20
256.2181056422597
 30
0.0
 11
113.7862232868637
 21
257.7181056422597
 31
0.0
  0
LINE
  5
11F
330
1F
100
AcDbEntity
  8
NoLayerName_001
  6
Continuous
 62
     7
370
    50
100
AcDbLine
 10
114.5862232868638
 20
256.2181056422597
 30
0.0
 11
113.7862232868638
 21
256.2181056422597
 31
0.0
  0
LINE
  5
120
330
1F
100
AcDbEntity
  8
NoLayerName_001
  6
Continuous
 62
     7
370
    50
100
AcDbLine
 10
105.2862232868635
 20
255.6181056422594
 30
0.0
 11
111.2862232868639
 21
255.6181056422594
 31
0.0
  0
LINE
  5
121
330
1F
100
AcDbEntity
  8
NoLayerName_001
  6
Continuous
 62
     7
370
    50
100
AcDbLine
 10
123.2862232868634
 20
255.6181056422594
 30
0.0
 11
136.2862232868634
 21
255.6181056422594
 31
0.0
  0
LINE
  5
122
330
1F
100
AcDbEntity
  8
NoLayerName_001
  6
Continuous
 62
     7
370
    50
100
AcDbLine
 10
114.586223286863
 20
256.2181056422597
 30
0.0
 11
114.586223286863
 21
257.7181056422596
 31
0.0
  0
LINE
  5
123
330
1F
100
AcDbEntity
  8
NoLayerName_001
  6
Continuous
 62
     7
370
    50
100
AcDbLine
 10
119.9862232868634
 20
256.2181056422597
 30
0.0
 11
119.9862232868634
 21
257.7181056422596
 31
0.0
  0
LINE
  5
124
330
1F
100
AcDbEntity
  8
NoLayerName_001
  6
Continuous
 62
     3
370
    50
100
AcDbLine
 10
123.2862232868634
 20
254.1180968376748
 30
0.0
 11
136.2862232868634
 21
254.1180968376748
 31
0.0
  0
LINE
  5
125
330
1F
100
AcDbEntity
  8
NoLayerName_001
  6
Continuous
 62
     3
370
    50
100
AcDbLine
 10
104.2862232868635
 20
254.1180968376748
 30
0.0
 11
111.2862232868639
 21
254.1180968376748
 31
0.0
  0
ARC
  5
126
330
1F
100
AcDbEntity
  8
NoLayerName_001
  6
Continuous
 62
     7
370
    50
100
AcDbCircle
 10
105.2862232868635
 20
254.6181056422594
 30
0.0
 40
1.0
100
AcDbArc
 50
90.0
 51
180.0
  0
LINE
  5
127
330
1F
100
AcDbEntity
  8
NoLayerName_001
  6
Continuous
 62
     3
370
    50
100
AcDbLine
 10
123.2862232868634
 20
253.1181056422594
 30
0.0
 11
123.2862232868634
 21
257.7181056422594
 31
0.0
  0
LINE
  5
128
330
1F
100
AcDbEntity
  8
NoLayerName_001
  6
Continuous
 62
     3
370
    50
100
AcDbLine
 10
149.2862232868635
 20
255.7581056422593
 30
0.0
 11
149.2862232868635
 21
257.7181056422593
 31
0.0
  0
LINE
  5
129
330
1F
100
AcDbEntity
  8
NoLayerName_001
  6
Continuous
 62
     3
370
    50
100
AcDbLine
 10
161.286223286863
 20
253.1181056422595
 30
0.0
 11
161.286223286863
 21
257.7181056422594
 31
0.0
  0
LINE
  5
12A
330
1F
100
AcDbEntity
  8
NoLayerName_001
  6
Continuous
 62
     3
370
    50
100
AcDbLine
 10
168.2862232868635
 20
254.6181056422593
 30
0.0
 11
168.2862232868635
 21
253.1181056422593
 31
0.0
  0
LINE
  5
12B
330
1F
100
AcDbEntity
  8
NoLayerName_001
  6
Continuous
 62
     7
370
    50
100
AcDbLine
 10
151.7862232868644
 20
256.2181056422597
 30
0.0
 11
151.7862232868644
 21
257.7181056422597
 31
0.0
  0
LINE
  5
12C
330
1F
100
AcDbEntity
  8
NoLayerName_001
  6
Continuous
 62
     7
370
    50
100
AcDbLine
 10
152.5862232868645
 20
256.2181056422597
 30
0.0
 11
151.7862232868645
 21
256.2181056422597
 31
0.0
  0
LINE
  5
12D
330
1F
100
AcDbEntity
  8
NoLayerName_001
  6
Continuous
 62
     7
370
    50
100
AcDbLine
 10
158.7862232868633
 20
256.2181056422597
 30
0.0
 11
158.7862232868633
 21
257.7181056422597
 31
0.0
  0
LINE
  5
12E
330
1F
100
AcDbEntity
  8
NoLayerName_001
  6
Continuous
 62
     7
370
    50
100
AcDbLine
 10
157.9862232868632
 20
256.2181056422597
 30
0.0
 11
158.7862232868632
 21
256.2181056422597
 31
0.0
  0
LINE
  5
12F
330
1F
100
AcDbEntity
  8
NoLayerName_001
  6
Continuous
 62
     7
370
    50
100
AcDbLine
 10
167.2862232868635
 20
255.6181056422593
 30
0.0
 11
161.2862232868631
 21
255.6181056422593
 31
0.0
  0
LINE
  5
130
330
1F
100
AcDbEntity
  8
NoLayerName_001
  6
Continuous
 62
     7
370
    50
100
AcDbLine
 10
149.2862232868635
 20
255.6181056422594
 30
0.0
 11
136.2862232868635
 21
255.6181056422595
 31
0.0
  0
LINE
  5
131
330
1F
100
AcDbEntity
  8
NoLayerName_001
  6
Continuous
 62
     7
370
    50
100
AcDbLine
 10
157.986223286864
 20
256.2181056422597
 30
0.0
 11
157.986223286864
 21
257.7181056422596
 31
0.0
  0
LINE
  5
132
330
1F
100
AcDbEntity
  8
NoLayerName_001
  6
Continuous
 62
     7
370
    50
100
AcDbLine
 10
152.5862232868635
 20
256.2181056422597
 30
0.0
 11
152.5862232868635
 21
257.7181056422596
 31
0.0
  0
LINE
  5
133
330
1F
100
AcDbEntity
  8
NoLayerName_001
  6
Continuous
 62
     3
370
    50
100
AcDbLine
 10
149.2862232868635
 20
254.1180968376748
 30
0.0
 11
136.2862232868635
 21
254.1180968376749
 31
0.0
  0
LINE
  5
134
330
1F
100
AcDbEntity
  8
NoLayerName_001
  6
Continuous
 62
     3
370
    50
100
AcDbLine
 10
168.2862232868635
 20
254.1180968376747
 30
0.0
 11
161.2862232868631
 21
254.1180968376747
 31
0.0
  0
ARC
  5
135
330
1F
100
AcDbEntity
  8
NoLayerName_001
  6
Continuous
 62
     7
370
    50
100
AcDbCircle
 10
167.2862232868635
 20
254.6181056422593
 30
0.0
 40
1.0
100
AcDbArc
 50
0.0
 51
90.0
  0
LINE
  5
136
330
1F
100
AcDbEntity
  8
NoLayerName_001
  6
Continuous
 62
     3
370
    50
100
AcDbLine
 10
149.2862232868635
 20
253.1181056422594
 30
0.0
 11
149.2862232868635
 21
257.7181056422594
 31
0.0
  0
LINE
  5
137
330
1F
100
AcDbEntity
  8
NoLayerName_001
  6
Continuous
 62
     3
370
    50
100
AcDbLine
 10
168.2862232868634
 20
226.6181056422593
 30
0.0
 11
168.2862232868634
 21
228.1181056422593
 31
0.0
  0
LINE
  5
138
330
1F
100
AcDbEntity
  8
NoLayerName_001
  6
Continuous
 62
     3
370
    50
100
AcDbLine
 10
161.2862232868629
 20
228.1181056422592
 30
0.0
 11
161.2862232868629
 21
223.5181056422594
 31
0.0
  0
LINE
  5
139
330
1F
100
AcDbEntity
  8
NoLayerName_001
  6
Continuous
 62
     7
370
    50
100
AcDbLine
 10
151.7862232868643
 20
225.0181056422591
 30
0.0
 11
151.7862232868643
 21
223.5181056422591
 31
0.0
  0
LINE
  5
13A
330
1F
100
AcDbEntity
  8
NoLayerName_001
  6
Continuous
 62
     7
370
    50
100
AcDbLine
 10
152.5862232868644
 20
225.0181056422591
 30
0.0
 11
151.7862232868644
 21
225.0181056422591
 31
0.0
  0
LINE
  5
13B
330
1F
100
AcDbEntity
  8
NoLayerName_001
  6
Continuous
 62
     7
370
    50
100
AcDbLine
 10
158.7862232868632
 20
225.0181056422591
 30
0.0
 11
158.7862232868632
 21
223.5181056422591
 31
0.0
  0
LINE
  5
13C
330
1F
100
AcDbEntity
  8
NoLayerName_001
  6
Continuous
 62
     7
370
    50
100
AcDbLine
 10
157.9862232868631
 20
225.0181056422591
 30
0.0
 11
158.7862232868631
 21
225.0181056422591
 31
0.0
  0
LINE
  5
13D
330
1F
100
AcDbEntity
  8
NoLayerName_001
  6
Continuous
 62
     3
370
    50
100
AcDbLine
 10
161.286223286863
 20
225.6181056422593
 30
0.0
 11
161.286223286863
 21
223.5181056422594
 31
0.0
  0
LINE
  5
13E
330
1F
100
AcDbEntity
  8
NoLayerName_001
  6
Continuous
 62
     7
370
    50
100
AcDbLine
 10
167.2862232868634
 20
225.6181056422593
 30
0.0
 11
161.286223286863
 21
225.6181056422593
 31
0.0
  0
LINE
  5
13F
330
1F
100
AcDbEntity
  8
NoLayerName_001
  6
Continuous
 62
     7
370
    50
100
AcDbLine
 10
149.2862232868635
 20
225.6181056422595
 30
0.0
 11
136.2862232868635
 21
225.6181056422595
 31
0.0
  0
ARC
  5
140
330
1F
100
AcDbEntity
  8
NoLayerName_001
  6
Continuous
 62
     7
370
    50
100
AcDbCircle
 10
155.2862232868637
 20
223.5181056422591
 30
0.0
 40
3.499999999999403
100
AcDbArc
 50
179.9999999999999
 51
209.9999999999997
  0
LINE
  5
141
330
1F
100
AcDbEntity
  8
NoLayerName_001
  6
Continuous
 62
     7
370
    50
100
AcDbLine
 10
152.9479546966459
 20
222.1681056422592
 30
0.0
 11
152.2551343736187
 21
221.7681056422594
 31
0.0
  0
ARC
  5
142
330
1F
100
AcDbEntity
  8
NoLayerName_001
  6
Continuous
 62
     7
370
    50
100
AcDbCircle
 10
155.2862232868637
 20
223.5181056422591
 30
0.0
 40
3.499999999999403
100
AcDbArc
 50
330.0000000000002
 51
0.0
  0
LINE
  5
143
330
1F
100
AcDbEntity
  8
NoLayerName_001
  6
Continuous
 62
     7
370
    50
100
AcDbLine
 10
157.6244918770815
 20
222.1681056422592
 30
0.0
 11
158.3173122001087
 21
221.7681056422594
 31
0.0
  0
LINE
  5
144
330
1F
100
AcDbEntity
  8
NoLayerName_001
  6
Continuous
 62
     7
370
    50
100
AcDbLine
 10
157.9862232868639
 20
225.0181056422591
 30
0.0
 11
157.9862232868639
 21
223.5181056422591
 31
0.0
  0
ARC
  5
145
330
1F
100
AcDbEntity
  8
NoLayerName_001
  6
Continuous
 62
     7
370
    50
100
AcDbCircle
 10
155.2862232868641
 20
223.5181056422594
 30
0.0
 40
2.700000000000216
100
AcDbArc
 50
329.9999999999907
 51
359.9999999999999
  0
LINE
  5
146
330
1F
100
AcDbEntity
  8
NoLayerName_001
  6
Continuous
 62
     7
370
    50
100
AcDbLine
 10
152.5862232868635
 20
225.0181056422591
 30
0.0
 11
152.5862232868635
 21
223.5181056422591
 31
0.0
  0
ARC
  5
147
330
1F
100
AcDbEntity
  8
NoLayerName_001
  6
Continuous
 62
     7
370
    50
100
AcDbCircle
 10
155.2862232868633
 20
223.5181056422594
 30
0.0
 40
2.700000000000216
100
AcDbArc
 50
179.9999999999999
 51
210.000000000009
  0
LINE
  5
148
330
1F
100
AcDbEntity
  8
NoLayerName_001
  6
Continuous
 62
     3
370
    50
100
AcDbLine
 10
149.2862232868635
 20
227.118114446844
 30
0.0
 11
136.2862232868635
 21
227.1181144468441
 31
0.0
  0
LINE
  5
149
330
1F
100
AcDbEntity
  8
NoLayerName_001
  6
Continuous
 62
     3
370
    50
100
AcDbLine
 10
168.2862232868634
 20
227.1181144468439
 30
0.0
 11
161.286223286863
 21
227.1181144468439
 31
0.0
  0
ARC
  5
14A
330
1F
100
AcDbEntity
  8
NoLayerName_001
  6
Continuous
 62
     7
370
    50
100
AcDbCircle
 10
167.2862232868634
 20
226.6181056422593
 30
0.0
 40
1.0
100
AcDbArc
 50
270.0
 51
0.0
  0
LINE
  5
14B
330
1F
100
AcDbEntity
  8
NoLayerName_001
  6
Continuous
 62
     3
370
    50
100
AcDbLine
 10
149.2862232868635
 20
228.1181056422595
 30
0.0
 11
149.2862232868635
 21
223.5181056422595
 31
0.0
  0
ARC
  5
14C
330
1F
100
AcDbEntity
  8
NoLayerName_001
  6
Continuous
 62
     7
370
    50
100
AcDbCircle
 10
117.2862232868632
 20
257.7181056422597
 30
0.0
 40
3.499999999999403
100
AcDbArc
 50
0.0
 51
29.99999999999982
  0
LINE
  5
14D
330
1F
100
AcDbEntity
  8
NoLayerName_001
  6
Continuous
 62
     7
370
    50
100
AcDbLine
 10
119.624491877081
 20
259.0681056422596
 30
0.0
 11
120.3173122001081
 21
259.4681056422594
 31
0.0
  0
ARC
  5
14E
330
1F
100
AcDbEntity
  8
NoLayerName_001
  6
Continuous
 62
     7
370
    50
100
AcDbCircle
 10
117.2862232868632
 20
257.7181056422597
 30
0.0
 40
3.499999999999403
100
AcDbArc
 50
150.0000000000001
 51
179.9999999999999
  0
LINE
  5
14F
330
1F
100
AcDbEntity
  8
NoLayerName_001
  6
Continuous
 62
     7
370
    50
100
AcDbLine
 10
114.9479546966454
 20
259.0681056422596
 30
0.0
 11
114.2551343736182
 21
259.4681056422594
 31
0.0
  0
ARC
  5
150
330
1F
100
AcDbEntity
  8
NoLayerName_001
  6
Continuous
 62
     7
370
    50
100
AcDbCircle
 10
117.2862232868628
 20
257.7181056422594
 30
0.0
 40
2.700000000000216
100
AcDbArc
 50
149.9999999999909
 51
180.0
  0
ARC
  5
151
330
1F
100
AcDbEntity
  8
NoLayerName_001
  6
Continuous
 62
     7
370
    50
100
AcDbCircle
 10
117.2862232868636
 20
257.7181056422594
 30
0.0
 40
2.700000000000216
100
AcDbArc
 50
0.0000000000000064
 51
30.00000000000913
  0
ARC
  5
152
330
1F
100
AcDbEntity
  8
NoLayerName_001
  6
Continuous
 62
     7
370
    50
100
AcDbCircle
 10
155.2862232868638
 20
257.7181056422597
 30
0.0
 40
3.499999999999403
100
AcDbArc
 50
150.0000000000001
 51
179.9999999999999
  0
LINE
  5
153
330
1F
100
AcDbEntity
  8
NoLayerName_001
  6
Continuous
 62
     7
370
    50
100
AcDbLine
 10
152.9479546966459
 20
259.0681056422596
 30
0.0
 11
152.2551343736187
 21
259.4681056422594
 31
0.0
  0
ARC
  5
154
330
1F
100
AcDbEntity
  8
NoLayerName_001
  6
Continuous
 62
     7
370
    50
100
AcDbCircle
 10
155.2862232868638
 20
257.7181056422597
 30
0.0
 40
3.499999999999403
100
AcDbArc
 50
0.0
 51
29.99999999999982
  0
LINE
  5
155
330
1F
100
AcDbEntity
  8
NoLayerName_001
  6
Continuous
 62
     7
370
    50
100
AcDbLine
 10
157.6244918770815
 20
259.0681056422596
 30
0.0
 11
158.3173122001087
 21
259.4681056422594
 31
0.0
  0
ARC
  5
156
330
1F
100
AcDbEntity
  8
NoLayerName_001
  6
Continuous
 62
     7
370
    50
100
AcDbCircle
 10
155.2862232868642
 20
257.7181056422594
 30
0.0
 40
2.700000000000216
100
AcDbArc
 50
359.9999999999999
 51
30.00000000000906
  0
ARC
  5
157
330
1F
100
AcDbEntity
  8
NoLayerName_001
  6
Continuous
 62
     7
370
    50
100
AcDbCircle
 10
155.2862232868633
 20
257.7181056422594
 30
0.0
 40
2.700000000000216
100
AcDbArc
 50
149.9999999999908
 51
179.9999999999999
  0
CIRCLE
  5
158
330
1F
100
AcDbEntity
  8
NoLayerName_001
  6
Continuous
 62
     7
370
    50
100
AcDbCircle
 10
117.2862232868632
 20
223.5181056422594
 30
0.0
 40
0.8
  0
CIRCLE
  5
159
330
1F
100
AcDbEntity
  8
NoLayerName_001
  6
Continuous
 62
     7
370
    50
100
AcDbCircle
 10
155.2862232868636
 20
223.5181056422594
 30
0.0
 40
0.8
  0
CIRCLE
  5
15A
330
1F
100
AcDbEntity
  8
NoLayerName_001
  6
Continuous
 62
     7
370
    50
100
AcDbCircle
 10
117.2862232868632
 20
257.7181056422594
 30
0.0
 40
0.8
  0
CIRCLE
  5
15B
330
1F
100
AcDbEntity
  8
NoLayerName_001
  6
Continuous
 62
     7
370
    50
100
AcDbCircle
 10
155.2862232868636
 20
257.7181056422594
 30
0.0
 40
0.8
  0
CIRCLE
  5
15C
330
1F
100
AcDbEntity
  8
NoLayerName_001
  6
Continuous
 62
     3
370
    50
100
AcDbCircle
 10
136.2862232868634
 20
240.6181056422595
 30
0.0
 40
8.0
  0
CIRCLE
  5
15D
330
1F
100
AcDbEntity
  8
NoLayerName_001
  6
Continuous
 62
     3
370
    50
100
AcDbCircle
 10
136.2862232868634
 20
240.6181056422595
 30
0.0
 40
6.0
  0
CIRCLE
  5
15E
330
1F
100
AcDbEntity
  8
NoLayerName_001
  6
Continuous
 62
     3
370
    50
100
AcDbCircle
 10
136.2862232868634
 20
240.6181056422595
 30
0.0
 40
4.499999999999943
  0
ARC
  5
15F
330
1F
100
AcDbEntity
  8
NoLayerName_001
  6
Continuous
 62
     3
370
    50
100
AcDbCircle
 10
136.2862232868638
 20
240.6181056422595
 30
0.0
 40
3.1
100
AcDbArc
 50
270.0
 51
90.0
  0
ARC
  5
160
330
1F
100
AcDbEntity
  8
NoLayerName_001
  6
Continuous
 62
     3
370
    50
100
AcDbCircle
 10
136.2862232868629
 20
240.6181056422595
 30
0.0
 40
3.1
100
AcDbArc
 50
90.0
 51
270.0
  0
LINE
  5
161
330
1F
100
AcDbEntity
  8
NoLayerName_001
  6
Continuous
 62
     7
370
    50
100
AcDbLine
 10
111.4862232868633
 20
243.6181056422595
 30
0.0
 11
110.8862232868633
 21
243.6181056422595
 31
0.0
  0
ARC
  5
162
330
1F
100
AcDbEntity
  8
NoLayerName_001
  6
Continuous
 62
     7
370
    50
100
AcDbCircle
 10
110.8862232868634
 20
243.3181056422594
 30
0.0
 40
0.3
100
AcDbArc
 50
90.0
 51
180.0
  0
ARC
  5
163
330
1F
100
AcDbEntity
  8
NoLayerName_001
  6
Continuous
 62
     7
370
    50
100
AcDbCircle
 10
111.4862232868633
 20
243.3181056422594
 30
0.0
 40
0.3
100
AcDbArc
 50
0.0
 51
90.0
  0
LINE
  5
164
330
1F
100
AcDbEntity
  8
NoLayerName_001
  6
Continuous
 62
     7
370
    50
100
AcDbLine
 10
110.5862232868633
 20
243.3181056422594
 30
0.0
 11
110.5862232868633
 21
240.6181056422594
 31
0.0
  0
LINE
  5
165
330
1F
100
AcDbEntity
  8
NoLayerName_001
  6
Continuous
 62
     7
370
    50
100
AcDbLine
 10
111.4862232868633
 20
237.6181056422595
 30
0.0
 11
110.8862232868633
 21
237.6181056422595
 31
0.0
  0
ARC
  5
166
330
1F
100
AcDbEntity
  8
NoLayerName_001
  6
Continuous
 62
     7
370
    50
100
AcDbCircle
 10
110.8862232868634
 20
237.9181056422594
 30
0.0
 40
0.3
100
AcDbArc
 50
180.0
 51
270.0
  0
ARC
  5
167
330
1F
100
AcDbEntity
  8
NoLayerName_001
  6
Continuous
 62
     7
370
    50
100
AcDbCircle
 10
111.4862232868633
 20
237.9181056422594
 30
0.0
 40
0.3
100
AcDbArc
 50
270.0
 51
0.0
  0
LINE
  5
168
330
1F
100
AcDbEntity
  8
NoLayerName_001
  6
Continuous
 62
     7
370
    50
100
AcDbLine
 10
110.5862232868633
 20
237.9181056422594
 30
0.0
 11
110.5862232868633
 21
240.6181056422594
 31
0.0
  0
LINE
  5
169
330
1F
100
AcDbEntity
  8
NoLayerName_001
  6
Continuous
 62
     7
370
    50
100
AcDbLine
 10
161.0862232868636
 20
243.6181056422593
 30
0.0
 11
161.6862232868636
 21
243.6181056422593
 31
0.0
  0
ARC
  5
16A
330
1F
100
AcDbEntity
  8
NoLayerName_001
  6
Continuous
 62
     7
370
    50
100
AcDbCircle
 10
161.6862232868635
 20
243.3181056422593
 30
0.0
 40
0.3
100
AcDbArc
 50
359.9999999999999
 51
89.99999999999994
  0
ARC
  5
16B
330
1F
100
AcDbEntity
  8
NoLayerName_001
  6
Continuous
 62
     7
370
    50
100
AcDbCircle
 10
161.0862232868636
 20
243.3181056422593
 30
0.0
 40
0.3
100
AcDbArc
 50
89.99999999999991
 51
179.9999999999999
  0
LINE
  5
16C
330
1F
100
AcDbEntity
  8
NoLayerName_001
  6
Continuous
 62
     7
370
    50
100
AcDbLine
 10
161.9862232868637
 20
243.3181056422593
 30
0.0
 11
161.9862232868637
 21
240.6181056422593
 31
0.0
  0
LINE
  5
16D
330
1F
100
AcDbEntity
  8
NoLayerName_001
  6
Continuous
 62
     7
370
    50
100
AcDbLine
 10
161.0862232868636
 20
237.6181056422593
 30
0.0
 11
161.6862232868636
 21
237.6181056422593
 31
0.0
  0
ARC
  5
16E
330
1F
100
AcDbEntity
  8
NoLayerName_001
  6
Continuous
 62
     7
370
    50
100
AcDbCircle
 10
161.6862232868635
 20
237.9181056422593
 30
0.0
 40
0.3
100
AcDbArc
 50
269.9999999999999
 51
359.9999999999999
  0
ARC
  5
16F
330
1F
100
AcDbEntity
  8
NoLayerName_001
  6
Continuous
 62
     7
370
    50
100
AcDbCircle
 10
161.0862232868636
 20
237.9181056422593
 30
0.0
 40
0.3
100
AcDbArc
 50
179.9999999999999
 51
269.9999999999999
  0
LINE
  5
170
330
1F
100
AcDbEntity
  8
NoLayerName_001
  6
Continuous
 62
     7
370
    50
100
AcDbLine
 10
161.9862232868635
 20
237.9181056422593
 30
0.0
 11
161.9862232868635
 21
240.6181056422593
 31
0.0
  0
LINE
  5
171
330
1F
100
AcDbEntity
  8
NoLayerName_001
  6
Continuous
 62
     3
370
    50
100
AcDbLine
 10
63.90454391121119
 20
166.4976674145996
 30
0.0
 11
72.0045439112112
 21
166.4976674145996
 31
0.0
  0
LINE
  5
172
330
1F
100
AcDbEntity
  8
NoLayerName_001
  6
Continuous
 62
     3
370
    50
100
AcDbLine
 10
33.90454391121119
 20
158.4976674145996
 30
0.0
 11
33.90454391121119
 21
156.9976674145996
 31
0.0
  0
LINE
  5
173
330
1F
100
AcDbEntity
  8
NoLayerName_001
  6
Continuous
 62
     3
370
    50
100
AcDbLine
 10
33.90454391121119
 20
166.4976674145996
 30
0.0
 11
33.90454391121119
 21
158.4976674145996
 31
0.0
  0
LINE
  5
174
330
1F
100
AcDbEntity
  8
NoLayerName_001
  6
Continuous
 62
     3
370
    50
100
AcDbLine
 10
33.90454391121119
 20
166.4976674145996
 30
0.0
 11
25.80454391121118
 21
166.4976674145996
 31
0.0
  0
LINE
  5
175
330
1F
100
AcDbEntity
  8
NoLayerName_001
  6
Continuous
 62
     3
370
    50
100
AcDbLine
 10
33.90454391121119
 20
158.4976674145996
 30
0.0
 11
35.40454391121118
 21
158.4976674145996
 31
0.0
  0
LINE
  5
176
330
1F
100
AcDbEntity
  8
NoLayerName_001
  6
Continuous
 62
     3
370
    50
100
AcDbLine
 10
63.90454391121119
 20
158.4976674145996
 30
0.0
 11
62.40454391121123
 21
158.4976674145996
 31
0.0
  0
LINE
  5
177
330
1F
100
AcDbEntity
  8
NoLayerName_001
  6
Continuous
 62
     3
370
    50
100
AcDbLine
 10
113.2862232868635
 20
166.4976674145996
 30
0.0
 11
113.2862232868635
 21
156.9976674145996
 31
0.0
  0
LINE
  5
178
330
1F
100
AcDbEntity
  8
NoLayerName_001
  6
Continuous
 62
     3
370
    50
100
AcDbLine
 10
121.2862232868635
 20
166.4976674145996
 30
0.0
 11
121.2862232868635
 21
156.9976674145996
 31
0.0
  0
LINE
  5
179
330
1F
100
AcDbEntity
  8
NoLayerName_001
  6
Continuous
 62
     3
370
    50
100
AcDbLine
 10
151.2862232868635
 20
166.4976674145996
 30
0.0
 11
151.2862232868635
 21
156.9976674145996
 31
0.0
  0
LINE
  5
17A
330
1F
100
AcDbEntity
  8
NoLayerName_001
  6
Continuous
 62
     3
370
    50
100
AcDbLine
 10
159.2862232868635
 20
166.4976674145996
 30
0.0
 11
159.2862232868635
 21
156.9976674145996
 31
0.0
  0
LINE
  5
17B
330
1F
100
AcDbEntity
  8
NoLayerName_001
  6
Continuous
 62
     3
370
    50
100
AcDbLine
 10
111.2862232868635
 20
158.4976674145996
 30
0.0
 11
111.2862232868635
 21
168.4976674145996
 31
0.0
  0
LINE
  5
17C
330
1F
100
AcDbEntity
  8
NoLayerName_001
  6
Continuous
 62
     7
370
    50
100
AcDbLine
 10
111.2862232868635
 20
158.4976674145996
 30
0.0
 11
104.2862232868635
 21
158.4976674145996
 31
0.0
  0
LINE
  5
17D
330
1F
100
AcDbEntity
  8
NoLayerName_001
  6
Continuous
 62
     3
370
    50
100
AcDbLine
 10
123.286223286863
 20
158.4976674145996
 30
0.0
 11
123.286223286863
 21
168.4976674145996
 31
0.0
  0
LINE
  5
17E
330
1F
100
AcDbEntity
  8
NoLayerName_001
  6
Continuous
 62
     3
370
    50
100
AcDbLine
 10
149.286223286864
 20
158.4976674145996
 30
0.0
 11
149.286223286864
 21
168.4976674145996
 31
0.0
  0
LINE
  5
17F
330
1F
100
AcDbEntity
  8
NoLayerName_001
  6
Continuous
 62
     7
370
    50
100
AcDbLine
 10
123.286223286863
 20
158.4976674145996
 30
0.0
 11
149.286223286864
 21
158.4976674145996
 31
0.0
  0
LINE
  5
180
330
1F
100
AcDbEntity
  8
NoLayerName_001
  6
Continuous
 62
     3
370
    50
100
AcDbLine
 10
161.2862232868635
 20
158.4976674145996
 30
0.0
 11
161.2862232868635
 21
168.4976674145996
 31
0.0
  0
LINE
  5
181
330
1F
100
AcDbEntity
  8
NoLayerName_001
  6
Continuous
 62
     7
370
    50
100
AcDbLine
 10
161.2862232868635
 20
158.4976674145996
 30
0.0
 11
168.2862232868635
 21
158.4976674145996
 31
0.0
  0
LINE
  5
182
330
1F
100
AcDbEntity
  8
NoLayerName_001
  6
Continuous
 62
     7
370
    50
100
AcDbLine
 10
179.2862232868635
 20
166.7292804600602
 30
0.0
 11
179.2862232868635
 21
156.9976674145996
 31
0.0
  0
LINE
  5
183
330
1F
100
AcDbEntity
  8
NoLayerName_001
  6
Continuous
 62
     3
370
    50
100
AcDbLine
 10
93.2862232868635
 20
156.9976674145996
 30
0.0
 11
179.2862232868635
 21
156.9976674145996
 31
0.0
  0
LINE
  5
184
330
1F
100
AcDbEntity
  8
NoLayerName_001
  6
Continuous
 62
     7
370
    50
100
AcDbLine
 10
93.2862232868635
 20
166.6368894404367
 30
0.0
 11
93.2862232868635
 21
156.9976674145996
 31
0.0
  0
ARC
  5
185
330
1F
100
AcDbEntity
  8
NoLayerName_001
  6
Continuous
 62
     3
370
    50
100
AcDbCircle
 10
143.9862232868635
 20
183.8976674145996
 30
0.0
 40
0.3
100
AcDbArc
 50
0.0
 51
90.0
  0
ARC
  5
186
330
1F
100
AcDbEntity
  8
NoLayerName_001
  6
Continuous
 62
     3
370
    50
100
AcDbCircle
 10
128.5862232868636
 20
183.8976674145996
 30
0.0
 40
0.3
100
AcDbArc
 50
90.0
 51
180.0
  0
LINE
  5
187
330
1F
100
AcDbEntity
  8
NoLayerName_001
  6
Continuous
 62
     3
370
    50
100
AcDbLine
 10
128.5862232868636
 20
184.1976674145996
 30
0.0
 11
143.9862232868635
 21
184.1976674145996
 31
0.0
  0
LINE
  5
188
330
1F
100
AcDbEntity
  8
NoLayerName_001
  6
Continuous
 62
     3
370
    50
100
AcDbLine
 10
128.2862232868635
 20
181.308840576012
 30
0.0
 11
128.2862232868635
 21
183.8976674145996
 31
0.0
  0
LINE
  5
189
330
1F
100
AcDbEntity
  8
NoLayerName_001
  6
Continuous
 62
     3
370
    50
100
AcDbLine
 10
144.2862232868635
 20
181.308840576012
 30
0.0
 11
144.2862232868635
 21
183.8976674145996
 31
0.0
  0
LINE
  5
18A
330
1F
100
AcDbEntity
  8
NoLayerName_001
  6
Continuous
 62
     7
370
    50
100
AcDbLine
 10
116.4862232868634
 20
188.0575775871429
 30
0.0
 11
115.5862232868634
 21
188.0575775871429
 31
0.0
  0
LINE
  5
18B
330
1F
100
AcDbEntity
  8
NoLayerName_001
  6
Continuous
 62
     7
370
    50
100
AcDbLine
 10
115.2862232868635
 20
187.7575775871429
 30
0.0
 11
115.2862232868635
 21
185.3263796181016
 31
0.0
  0
LINE
  5
18C
330
1F
100
AcDbEntity
  8
NoLayerName_001
  6
Continuous
 62
     7
370
    50
100
AcDbLine
 10
116.7862232868635
 20
187.7575775871429
 30
0.0
 11
116.7862232868635
 21
184.7804242667023
 31
0.0
  0
ARC
  5
18D
330
1F
100
AcDbEntity
  8
NoLayerName_001
  6
Continuous
 62
     7
370
    50
100
AcDbCircle
 10
115.5862232868635
 20
187.7575775871429
 30
0.0
 40
0.3
100
AcDbArc
 50
90.0
 51
180.0
  0
ARC
  5
18E
330
1F
100
AcDbEntity
  8
NoLayerName_001
  6
Continuous
 62
     7
370
    50
100
AcDbCircle
 10
116.4862232868634
 20
187.7575775871429
 30
0.0
 40
0.3
100
AcDbArc
 50
0.0
 51
90.0
  0
LINE
  5
18F
330
1F
100
AcDbEntity
  8
NoLayerName_001
  6
Continuous
 62
     7
370
    50
100
AcDbLine
 10
156.0862232868636
 20
188.0575775871429
 30
0.0
 11
156.9862232868636
 21
188.0575775871429
 31
0.0
  0
LINE
  5
190
330
1F
100
AcDbEntity
  8
NoLayerName_001
  6
Continuous
 62
     7
370
    50
100
AcDbLine
 10
157.2862232868634
 20
187.7575775871429
 30
0.0
 11
157.2862232868634
 21
185.3263796181016
 31
0.0
  0
LINE
  5
191
330
1F
100
AcDbEntity
  8
NoLayerName_001
  6
Continuous
 62
     7
370
    50
100
AcDbLine
 10
155.7862232868634
 20
187.7575775871429
 30
0.0
 11
155.7862232868634
 21
184.7804242667023
 31
0.0
  0
ARC
  5
192
330
1F
100
AcDbEntity
  8
NoLayerName_001
  6
Continuous
 62
     7
370
    50
100
AcDbCircle
 10
156.9862232868634
 20
187.7575775871429
 30
0.0
 40
0.3
100
AcDbArc
 50
0.0000000000000127
 51
90.00000000000001
  0
ARC
  5
193
330
1F
100
AcDbEntity
  8
NoLayerName_001
  6
Continuous
 62
     7
370
    50
100
AcDbCircle
 10
156.0862232868636
 20
187.7575775871429
 30
0.0
 40
0.3
100
AcDbArc
 50
90.0
 51
180.0
  0
LINE
  5
194
330
1F
100
AcDbEntity
  8
NoLayerName_001
  6
Continuous
 62
     3
370
    50
100
AcDbLine
 10
105.5862232868633
 20
156.9976674145996
 30
0.0
 11
105.5862232868633
 21
156.7976674145995
 31
0.0
  0
LINE
  5
195
330
1F
100
AcDbEntity
  8
NoLayerName_001
  6
Continuous
 62
     3
370
    50
100
AcDbLine
 10
100.1862232868635
 20
156.9976674145996
 30
0.0
 11
100.1862232868635
 21
156.7976674145995
 31
0.0
  0
LINE
  5
196
330
1F
100
AcDbEntity
  8
NoLayerName_001
  6
Continuous
 62
     3
370
    50
100
AcDbLine
 10
47.20454391121115
 20
156.9976674145996
 30
0.0
 11
47.20454391121115
 21
156.7976674145995
 31
0.0
  0
LINE
  5
197
330
1F
100
AcDbEntity
  8
NoLayerName_001
  6
Continuous
 62
     3
370
    50
100
AcDbLine
 10
50.60454391121124
 20
156.9976674145996
 30
0.0
 11
50.60454391121124
 21
156.7976674145995
 31
0.0
  0
LINE
  5
198
330
1F
100
AcDbEntity
  8
NoLayerName_001
  6
Continuous
 62
     3
370
    50
100
AcDbLine
 10
47.20454391121115
 20
156.7976674145995
 30
0.0
 11
50.60454391121118
 21
156.7976674145995
 31
0.0
  0
LINE
  5
199
330
1F
100
AcDbEntity
  8
NoLayerName_001
  6
Continuous
 62
     3
370
    50
100
AcDbLine
 10
100.1862232868635
 20
156.7976674145995
 30
0.0
 11
105.5862232868633
 21
156.7976674145995
 31
0.0
  0
LINE
  5
19A
330
1F
100
AcDbEntity
  8
NoLayerName_001
  6
Continuous
 62
     3
370
    50
100
AcDbLine
 10
166.9862232868637
 20
156.9976674145996
 30
0.0
 11
166.9862232868637
 21
156.7976674145995
 31
0.0
  0
LINE
  5
19B
330
1F
100
AcDbEntity
  8
NoLayerName_001
  6
Continuous
 62
     3
370
    50
100
AcDbLine
 10
172.3862232868634
 20
156.9976674145996
 30
0.0
 11
172.3862232868634
 21
156.7976674145995
 31
0.0
  0
LINE
  5
19C
330
1F
100
AcDbEntity
  8
NoLayerName_001
  6
Continuous
 62
     3
370
    50
100
AcDbLine
 10
172.3862232868634
 20
156.7976674145995
 30
0.0
 11
166.9862232868636
 21
156.7976674145995
 31
0.0
  0
LINE
  5
19D
330
1F
100
AcDbEntity
  8
NoLayerName_001
  6
Continuous
 62
     3
370
    50
100
AcDbLine
 10
43.90454391121119
 20
182.8120112434069
 30
0.0
 11
43.90454391121119
 21
188.329058324384
 31
0.0
  0
LINE
  5
19E
330
1F
100
AcDbEntity
  8
NoLayerName_001
  6
Continuous
 62
     3
370
    50
100
AcDbLine
 10
43.60454391121124
 20
188.2936073528767
 30
0.0
 11
43.90454391121122
 21
188.2936073528767
 31
0.0
  0
LINE
  5
19F
330
1F
100
AcDbEntity
  8
NoLayerName_001
  6
Continuous
 62
     3
370
    50
100
AcDbLine
 10
43.60454391121124
 20
183.4288519011508
 30
0.0
 11
43.60454391121123
 21
188.2936073528767
 31
0.0
  0
LINE
  5
1A0
330
1F
100
AcDbEntity
  8
NoLayerName_001
  6
Continuous
 62
     3
370
    50
100
AcDbLine
 10
53.90454391121119
 20
182.8120112434069
 30
0.0
 11
53.90454391121119
 21
188.2936073528766
 31
0.0
  0
LINE
  5
1A1
330
1F
100
AcDbEntity
  8
NoLayerName_001
  6
Continuous
 62
     3
370
    50
100
AcDbLine
 10
54.20454391121115
 20
188.2936073528767
 30
0.0
 11
53.90454391121116
 21
188.2936073528767
 31
0.0
  0
LINE
  5
1A2
330
1F
100
AcDbEntity
  8
NoLayerName_001
  6
Continuous
 62
     3
370
    50
100
AcDbLine
 10
54.20454391121115
 20
183.4288519011508
 30
0.0
 11
54.20454391121115
 21
188.2936073528767
 31
0.0
  0
ELLIPSE
  5
1A3
330
1F
100
AcDbEntity
  8
NoLayerName_001
  6
Continuous
 62
     7
370
    50
100
AcDbEllipse
 10
48.90454391121108
 20
182.2943287483863
 30
0.0
 11
-10.5
 21
0.0
 31
0.0
210
0.0
220
0.0
230
1.0
 40
0.9395238095238095
 41
0.0
 42
6.283185307179586
  0
LINE
  5
1A4
330
1F
100
AcDbEntity
  8
NoLayerName_001
  6
CENTER
 62
     5
370
    25
100
AcDbLine
 10
43.90454391121119
 20
190.4705662830879
 30
0.0
 11
43.18686920327286
 21
190.4705662830879
 31
0.0
  0
LINE
  5
1A5
330
1F
100
AcDbEntity
  8
NoLayerName_001
  6
Continuous
 62
     7
370
    50
100
AcDbLine
 10
106.2862232868635
 20
247.1181056422594
 30
0.0
 11
101.2862232868635
 21
247.1181056422594
 31
0.0
  0
LINE
  5
1A6
330
1F
100
AcDbEntity
  8
NoLayerName_001
  6
Continuous
 62
     7
370
    50
100
AcDbLine
 10
101.2862232868635
 20
245.6181056422595
 30
0.0
 11
111.7862232868635
 21
245.6181056422594
 31
0.0
  0
LINE
  5
1A7
330
1F
100
AcDbEntity
  8
NoLayerName_001
  6
Continuous
 62
     7
370
    50
100
AcDbLine
 10
101.2862232868635
 20
245.9181056422595
 30
0.0
 11
110.2862232868635
 21
245.9181056422595
 31
0.0
  0
LINE
  5
1A8
330
1F
100
AcDbEntity
  8
NoLayerName_001
  6
Continuous
 62
     7
370
    50
100
AcDbLine
 10
101.2862232868635
 20
247.1181056422594
 30
0.0
 11
101.2862232868635
 21
245.6181056422594
 31
0.0
  0
LINE
  5
1A9
330
1F
100
AcDbEntity
  8
NoLayerName_001
  6
Continuous
 62
     7
370
    50
100
AcDbLine
 10
106.2862232868634
 20
234.1181056422595
 30
0.0
 11
101.2862232868634
 21
234.1181056422595
 31
0.0
  0
LINE
  5
1AA
330
1F
100
AcDbEntity
  8
NoLayerName_001
  6
Continuous
 62
     7
370
    50
100
AcDbLine
 10
101.2862232868634
 20
235.6181056422595
 30
0.0
 11
111.7862232868634
 21
235.6181056422595
 31
0.0
  0
LINE
  5
1AB
330
1F
100
AcDbEntity
  8
NoLayerName_001
  6
Continuous
 62
     7
370
    50
100
AcDbLine
 10
101.2862232868634
 20
235.3181056422594
 30
0.0
 11
110.2862232868634
 21
235.3181056422594
 31
0.0
  0
LINE
  5
1AC
330
1F
100
AcDbEntity
  8
NoLayerName_001
  6
Continuous
 62
     7
370
    50
100
AcDbLine
 10
101.2862232868635
 20
235.6181056422595
 30
0.0
 11
101.2862232868635
 21
234.1181056422595
 31
0.0
  0
LINE
  5
1AD
330
1F
100
AcDbEntity
  8
NoLayerName_001
  6
Continuous
 62
     7
370
    50
100
AcDbLine
 10
166.2862232868635
 20
247.1181056422594
 30
0.0
 11
171.2862232868635
 21
247.1181056422594
 31
0.0
  0
LINE
  5
1AE
330
1F
100
AcDbEntity
  8
NoLayerName_001
  6
Continuous
 62
     7
370
    50
100
AcDbLine
 10
171.2862232868635
 20
245.6181056422595
 30
0.0
 11
160.7862232868635
 21
245.6181056422595
 31
0.0
  0
LINE
  5
1AF
330
1F
100
AcDbEntity
  8
NoLayerName_001
  6
Continuous
 62
     7
370
    50
100
AcDbLine
 10
171.2862232868635
 20
245.9181056422595
 30
0.0
 11
162.2862232868635
 21
245.9181056422595
 31
0.0
  0
LINE
  5
1B0
330
1F
100
AcDbEntity
  8
NoLayerName_001
  6
Continuous
 62
     7
370
    50
100
AcDbLine
 10
171.2862232868635
 20
247.1181056422594
 30
0.0
 11
171.2862232868635
 21
245.6181056422594
 31
0.0
  0
LINE
  5
1B1
330
1F
100
AcDbEntity
  8
NoLayerName_001
  6
Continuous
 62
     7
370
    50
100
AcDbLine
 10
166.2862232868635
 20
234.1181056422595
 30
0.0
 11
171.2862232868635
 21
234.1181056422595
 31
0.0
  0
LINE
  5
1B2
330
1F
100
AcDbEntity
  8
NoLayerName_001
  6
Continuous
 62
     7
370
    50
100
AcDbLine
 10
171.2862232868635
 20
235.6181056422595
 30
0.0
 11
160.7862232868635
 21
235.6181056422595
 31
0.0
  0
LINE
  5
1B3
330
1F
100
AcDbEntity
  8
NoLayerName_001
  6
Continuous
 62
     7
370
    50
100
AcDbLine
 10
171.2862232868635
 20
235.3181056422594
 30
0.0
 11
162.2862232868635
 21
235.3181056422594
 31
0.0
  0
LINE
  5
1B4
330
1F
100
AcDbEntity
  8
NoLayerName_001
  6
Continuous
 62
     7
370
    50
100
AcDbLine
 10
171.2862232868635
 20
235.6181056422595
 30
0.0
 11
171.2862232868635
 21
234.1181056422595
 31
0.0
  0
LINE
  5
1B5
330
1F
100
AcDbEntity
  8
NoLayerName_001
  6
Continuous
 62
     7
370
    50
100
AcDbLine
 10
171.2862232868635
 20
247.1181056422594
 30
0.0
 11
171.2862232868635
 21
245.6181056422594
 31
0.0
  0
ARC
  5
1B6
330
1F
100
AcDbEntity
  8
NoLayerName_001
  6
Continuous
 62
     7
370
    25
100
AcDbCircle
 10
136.2862232868633
 20
185.4737422096441
 30
0.0
 40
9.476074795044028
100
AcDbArc
 50
212.4103187423831
 51
327.5896812576207
  0
LINE
  5
1B7
330
1F
100
AcDbEntity
  8
NoLayerName_001
  6
Continuous
 62
     7
370
    50
100
AcDbLine
 10
139.1862232868635
 20
201.9976674145996
 30
0.0
 11
136.2862232868635
 21
201.9976674145996
 31
0.0
  0
CIRCLE
  5
1B8
330
1F
100
AcDbEntity
  8
NoLayerName_001
  6
Continuous
 62
     7
370
    50
100
AcDbCircle
 10
136.2862232868634
 20
240.6181056422595
 30
0.0
 40
2.999999999999886
  0
CIRCLE
  5
1B9
330
1F
100
AcDbEntity
  8
NoLayerName_001
  6
Continuous
 62
     7
370
    50
100
AcDbCircle
 10
136.2862232868634
 20
240.6181056422595
 30
0.0
 40
2.999999999999886
  0
HATCH
  5
1BA
330
1F
100
AcDbEntity
  8
NoLayerName_001
  6
Continuous
 62
     7
370
    25
100
AcDbHatch
 10
0.0
 20
0.0
 30
0.0
210
0.0
220
0.0
230
1.0
  2
ANSI37
 70
     0
 71
     0
 91
        1
 92
        1
 93
        3
 72
     1
 10
136.2862232868634
 20
243.6181056422593
 11
136.2862232868634
 21
240.6181056422595
 72
     1
 10
136.2862232868634
 20
240.6181056422595
 11
133.2862232868635
 21
240.6181056422595
 72
     2
 10
136.2862232868634
 20
240.6181056422595
 40
2.999999999999886
 50
90.00000000000055
 51
180.0
 73
     1
 97
        0
 75
     1
 76
     1
 52
0.0
 41
0.3149999999999898
 77
     0
 78
     2
 53
45.0
 43
0.0
 44
0.0
 45
-0.7071951695341729
 46
0.707195169534173
 79
     0
 53
135.0
 43
0.0
 44
0.0
 45
-0.707195169534173
 46
-0.7071951695341729
 79
     0
 98
        1
 10
135.0803614426555
 20
240.6181056422595
  0
HATCH
  5
1BB
330
1F
100
AcDbEntity
  8
NoLayerName_001
  6
Continuous
 62
     7
370
    25
100
AcDbHatch
 10
0.0
 20
0.0
 30
0.0
210
0.0
220
0.0
230
1.0
  2
ANSI37
 70
     0
 71
     0
 91
        1
 92
        1
 93
        3
 72
     2
 10
136.2862232868634
 20
240.6181056422595
 40
2.999999999999886
 50
0.0
 51
90.00000000000055
 73
     1
 72
     1
 10
136.2862232868634
 20
240.6181056422595
 11
136.2862232868634
 21
243.6181056422593
 72
     1
 10
139.2862232868632
 20
240.6181056422595
 11
136.2862232868634
 21
240.6181056422595
 97
        0
 75
     1
 76
     1
 52
0.0
 41
0.3150000000000025
 77
     0
 78
     2
 53
45.0
 43
0.0
 44
0.0
 45
-0.7071951695342014
 46
0.7071951695342015
 79
     0
 53
135.0
 43
0.0
 44
0.0
 45
-0.7071951695342015
 46
-0.7071951695342014
 79
     0
 98
        1
 10
137.9087885674017
 20
240.6181056422595
  0
HATCH
  5
1BC
330
1F
100
AcDbEntity
  8
NoLayerName_001
  6
Continuous
 62
     7
370
    25
100
AcDbHatch
 10
0.0
 20
0.0
 30
0.0
210
0.0
220
0.0
230
1.0
  2
ANSI37
 70
     0
 71
     0
 91
        1
 92
        1
 93
        3
 72
     2
 10
136.2862232868634
 20
240.6181056422595
 40
2.999999999999886
 50
269.9999999999924
 51
359.9999999999924
 73
     1
 72
     1
 10
136.2862232868634
 20
240.6181056422595
 11
139.2862232868632
 21
240.6181056422591
 72
     1
 10
136.2862232868634
 20
237.6181056422596
 11
136.2862232868634
 21
240.6181056422595
 97
        0
 75
     1
 76
     1
 52
0.0
 41
0.3150000000000025
 77
     0
 78
     2
 53
45.0
 43
0.0
 44
0.0
 45
-0.7071951695342014
 46
0.7071951695342015
 79
     0
 53
135.0
 43
0.0
 44
0.0
 45
-0.7071951695342015
 46
-0.7071951695342014
 79
     0
 98
        1
 10
136.3232303927735
 20
237.6183339052581
  0
HATCH
  5
1BD
330
1F
100
AcDbEntity
  8
NoLayerName_001
  6
Continuous
 62
     7
370
    25
100
AcDbHatch
 10
0.0
 20
0.0
 30
0.0
210
0.0
220
0.0
230
1.0
  2
ANSI37
 70
     0
 71
     0
 91
        1
 92
        1
 93
        3
 72
     1
 10
136.2862232868634
 20
240.6181056422595
 11
136.2862232868634
 21
237.6181056422596
 72
     2
 10
136.2862232868634
 20
240.6181056422595
 40
2.999999999999886
 50
180.0
 51
269.9999999999924
 73
     1
 72
     1
 10
133.2862232868635
 20
240.6181056422595
 11
136.2862232868634
 21
240.6181056422595
 97
        0
 75
     1
 76
     1
 52
0.0
 41
0.3150000000000025
 77
     0
 78
     2
 53
45.0
 43
0.0
 44
0.0
 45
-0.7071951695342014
 46
0.7071951695342015
 79
     0
 53
135.0
 43
0.0
 44
0.0
 45
-0.7071951695342015
 46
-0.7071951695342014
 79
     0
 98
        1
 10
135.1374496836544
 20
237.8467667585122
  0
LINE
  5
1BE
330
1F
100
AcDbEntity
  8
NoLayerName_001
  6
CENTER
 62
    30
370
    25
100
AcDbLine
 10
82.7941595587868
 20
240.6181056422595
 30
0.0
 11
189.0932870149402
 21
240.6181056422595
 31
0.0
  0
ARC
  5
1BF
330
1F
100
AcDbEntity
  8
NoLayerName_001
  6
Continuous
 62
     3
370
    50
100
AcDbCircle
 10
42.90454391121119
 20
176.7976674145996
 30
0.0
 40
2.0
100
AcDbArc
 50
180.0
 51
270.0
  0
ARC
  5
1C0
330
1F
100
AcDbEntity
  8
NoLayerName_001
  6
Continuous
 62
     3
370
    50
100
AcDbCircle
 10
54.90454391121119
 20
176.7976674145996
 30
0.0
 40
2.0
100
AcDbArc
 50
270.0
 51
0.0
  0
LINE
  5
1C1
330
1F
100
AcDbEntity
  8
NoLayerName_001
  6
Continuous
 62
     3
370
    50
100
AcDbLine
 10
42.90454391121119
 20
174.7976674145996
 30
0.0
 11
54.95019256020262
 21
174.7976674145996
 31
0.0
  0
LINE
  5
1C2
330
1F
100
AcDbEntity
  8
NoLayerName_001
  6
CENTER
 62
    30
370
    25
100
AcDbLine
 10
48.90454391121119
 20
200.5976674145996
 30
0.0
 11
48.90454391121119
 21
156.9976674145996
 31
0.0
  0
LINE
  5
1C3
330
1F
100
AcDbEntity
  8
NoLayerName_001
  6
Continuous
 62
     7
370
    50
100
AcDbLine
 10
51.80454391121128
 20
201.9976674145998
 30
0.0
 11
48.90454391121131
 21
201.9976674145998
 31
0.0
  0
LINE
  5
1C4
330
1F
100
AcDbEntity
  8
NoLayerName_001
  6
Continuous
 62
     7
370
    50
100
AcDbLine
 10
46.00454391121133
 20
201.9976674145998
 30
0.0
 11
48.90454391121131
 21
201.9976674145998
 31
0.0
  0
ARC
  5
1C5
330
1F
100
AcDbEntity
  8
NoLayerName_001
  6
Continuous
 62
     7
370
    50
100
AcDbCircle
 10
51.80454391121128
 20
201.8976674145998
 30
0.0
 40
0.1
100
AcDbArc
 50
0.0
 51
90.0
  0
ARC
  5
1C6
330
1F
100
AcDbEntity
  8
NoLayerName_001
  6
Continuous
 62
     7
370
    50
100
AcDbCircle
 10
46.00454391121133
 20
201.8976674145998
 30
0.0
 40
0.1
100
AcDbArc
 50
90.0
 51
180.0
  0
LINE
  5
1C7
330
1F
100
AcDbEntity
  8
NoLayerName_001
  6
Continuous
 62
     7
370
    50
100
AcDbLine
 10
50.15454391121131
 20
200.5976674145999
 30
0.0
 11
48.90454391121131
 21
200.5976674145999
 31
0.0
  0
LINE
  5
1C8
330
1F
100
AcDbEntity
  8
NoLayerName_001
  6
Continuous
 62
     7
370
    50
100
AcDbLine
 10
51.90454391121131
 20
201.1976674145999
 30
0.0
 11
51.90454391121131
 21
201.8976674145999
 31
0.0
  0
ARC
  5
1C9
330
1F
100
AcDbEntity
  8
NoLayerName_001
  6
Continuous
 62
     7
370
    50
100
AcDbCircle
 10
51.70454391121126
 20
201.1976674145999
 30
0.0
 40
0.2
100
AcDbArc
 50
270.0
 51
0.0
  0
LINE
  5
1CA
330
1F
100
AcDbEntity
  8
NoLayerName_001
  6
Continuous
 62
     7
370
    50
100
AcDbLine
 10
50.15454391121131
 20
200.5976674145999
 30
0.0
 11
51.70454391121126
 21
200.9976674145998
 31
0.0
  0
LINE
  5
1CB
330
1F
100
AcDbEntity
  8
NoLayerName_001
  6
Continuous
 62
     7
370
    50
100
AcDbLine
 10
45.90454391121131
 20
201.1976674145999
 30
0.0
 11
45.90454391121131
 21
201.8976674145999
 31
0.0
  0
ARC
  5
1CC
330
1F
100
AcDbEntity
  8
NoLayerName_001
  6
Continuous
 62
     7
370
    50
100
AcDbCircle
 10
46.10454391121135
 20
201.1976674145999
 30
0.0
 40
0.2
100
AcDbArc
 50
180.0
 51
270.0
  0
LINE
  5
1CD
330
1F
100
AcDbEntity
  8
NoLayerName_001
  6
Continuous
 62
     7
370
    50
100
AcDbLine
 10
47.65454391121131
 20
200.5976674145999
 30
0.0
 11
46.10454391121135
 21
200.9976674145998
 31
0.0
  0
LINE
  5
1CE
330
1F
100
AcDbEntity
  8
NoLayerName_001
  6
Continuous
 62
     4
370
    25
100
AcDbLine
 10
48.29753162241695
 20
195.3020211811576
 30
0.0
 11
49.62898327477376
 21
195.3020211811576
 31
0.0
  0
LINE
  5
1CF
330
1F
100
AcDbEntity
  8
NoLayerName_001
  6
Continuous
 62
     4
370
    25
100
AcDbLine
 10
48.29753162241695
 20
195.9020211811575
 30
0.0
 11
49.62898327477376
 21
195.9020211811575
 31
0.0
  0
LINE
  5
1D0
330
1F
100
AcDbEntity
  8
NoLayerName_001
  6
Continuous
 62
     4
370
    25
100
AcDbLine
 10
48.29753162241695
 20
196.5020211811575
 30
0.0
 11
49.62898327477376
 21
196.5020211811575
 31
0.0
  0
LINE
  5
1D1
330
1F
100
AcDbEntity
  8
NoLayerName_001
  6
Continuous
 62
     4
370
    25
100
AcDbLine
 10
48.29753162241695
 20
197.1020211811575
 30
0.0
 11
49.62898327477376
 21
197.1020211811575
 31
0.0
  0
LINE
  5
1D2
330
1F
100
AcDbEntity
  8
NoLayerName_001
  6
Continuous
 62
     4
370
    25
100
AcDbLine
 10
48.29753162241695
 20
197.7020211811575
 30
0.0
 11
49.62898327477376
 21
197.7020211811575
 31
0.0
  0
LINE
  5
1D3
330
1F
100
AcDbEntity
  8
NoLayerName_001
  6
Continuous
 62
     4
370
    25
100
AcDbLine
 10
48.29753162241695
 20
198.3020211811575
 30
0.0
 11
49.62898327477376
 21
198.3020211811575
 31
0.0
  0
LINE
  5
1D4
330
1F
100
AcDbEntity
  8
NoLayerName_001
  6
Continuous
 62
     4
370
    25
100
AcDbLine
 10
48.29753162241695
 20
198.9020211811575
 30
0.0
 11
49.62898327477376
 21
198.9020211811575
 31
0.0
  0
LINE
  5
1D5
330
1F
100
AcDbEntity
  8
NoLayerName_001
  6
Continuous
 62
     4
370
    25
100
AcDbLine
 10
48.29753162241695
 20
199.5020211811575
 30
0.0
 11
49.62898327477376
 21
199.5020211811575
 31
0.0
  0
LINE
  5
1D6
330
1F
100
AcDbEntity
  8
NoLayerName_001
  6
Continuous
 62
     4
370
    25
100
AcDbLine
 10
48.29753162241695
 20
200.1020211811575
 30
0.0
 11
49.62898327477376
 21
200.1020211811575
 31
0.0
  0
LINE
  5
1D7
330
1F
100
AcDbEntity
  8
NoLayerName_001
  6
Continuous
 62
     7
370
    50
100
AcDbLine
 10
47.65454391121108
 20
200.5976674145999
 30
0.0
 11
48.90454391121108
 21
200.5976674145999
 31
0.0
  0
LINE
  5
1D8
330
1F
100
AcDbEntity
  8
NoLayerName_001
  6
Continuous
 62
     7
370
    50
100
AcDbLine
 10
47.65454391121119
 20
200.5976674145996
 30
0.0
 11
47.65454391121119
 21
193.9803387729482
 31
0.0
  0
ARC
  5
1D9
330
1F
100
AcDbEntity
  8
NoLayerName_001
  6
Continuous
 62
     4
370
    25
100
AcDbCircle
 10
47.15454391121119
 20
195.3904036775412
 30
0.0
 40
3.0
100
AcDbArc
 50
338.9624889745782
 51
0.0
  0
LINE
  5
1DA
330
1F
100
AcDbEntity
  8
NoLayerName_001
  6
Continuous
 62
     7
370
    50
100
AcDbLine
 10
50.15454391121119
 20
193.9803387729482
 30
0.0
 11
50.15454391121119
 21
200.5976674145996
 31
0.0
  0
LINE
  5
1DB
330
1F
100
AcDbEntity
  8
NoLayerName_001
  6
Continuous
 62
     1
370
    50
100
AcDbLine
 10
133.5362232868636
 20
184.9976674145996
 30
0.0
 11
133.1862232868636
 21
184.9976674145996
 31
0.0
  0
LINE
  5
1DC
330
1F
100
AcDbEntity
  8
NoLayerName_001
  6
Continuous
 62
     1
370
    50
100
AcDbLine
 10
139.0362232868635
 20
184.9976674145996
 30
0.0
 11
139.3862232868635
 21
184.9976674145996
 31
0.0
  0
LINE
  5
1DD
330
1F
100
AcDbEntity
  8
NoLayerName_001
  6
Continuous
 62
     1
370
    50
100
AcDbLine
 10
135.6862232868636
 20
184.9976674145996
 30
0.0
 11
136.8862232868635
 21
184.9976674145996
 31
0.0
  0
LINE
  5
1DE
330
1F
100
AcDbEntity
  8
NoLayerName_001
  6
Continuous
 62
     1
370
    50
100
AcDbLine
 10
139.3862232868635
 20
184.9976674145996
 30
0.0
 11
139.3862232868635
 21
184.1976674145996
 31
0.0
  0
LINE
  5
1DF
330
1F
100
AcDbEntity
  8
NoLayerName_001
  6
Continuous
 62
     1
370
    50
100
AcDbLine
 10
139.0362232868635
 20
184.9976674145996
 30
0.0
 11
139.0362232868635
 21
184.1976674145996
 31
0.0
  0
LINE
  5
1E0
330
1F
100
AcDbEntity
  8
NoLayerName_001
  6
Continuous
 62
     1
370
    50
100
AcDbLine
 10
133.1862232868636
 20
184.9976674145996
 30
0.0
 11
133.1862232868636
 21
184.1976674145996
 31
0.0
  0
LINE
  5
1E1
330
1F
100
AcDbEntity
  8
NoLayerName_001
  6
Continuous
 62
     1
370
    50
100
AcDbLine
 10
133.5362232868636
 20
184.9976674145996
 30
0.0
 11
133.5362232868636
 21
184.1976674145996
 31
0.0
  0
LINE
  5
1E2
330
1F
100
AcDbEntity
  8
NoLayerName_001
  6
Continuous
 62
     1
370
    50
100
AcDbLine
 10
135.6862232868636
 20
184.1976674145996
 30
0.0
 11
135.6862232868636
 21
184.9976674145996
 31
0.0
  0
LINE
  5
1E3
330
1F
100
AcDbEntity
  8
NoLayerName_001
  6
Continuous
 62
     1
370
    50
100
AcDbLine
 10
136.8862232868635
 20
184.1976674145996
 30
0.0
 11
136.8862232868635
 21
184.9976674145996
 31
0.0
  0
LINE
  5
1E4
330
1F
100
AcDbEntity
  8
NoLayerName_001
  6
CENTER
 62
    30
370
    25
100
AcDbLine
 10
136.2862232868634
 20
200.5976674145994
 30
0.0
 11
136.2862232868634
 21
156.9976674145994
 31
0.0
  0
ARC
  5
1E5
330
1F
100
AcDbEntity
  8
NoLayerName_001
  6
Continuous
 62
     4
370
    25
100
AcDbCircle
 10
138.0362232868634
 20
186.1049311516576
 30
0.0
 40
3.0
100
AcDbArc
 50
158.9624889745782
 51
180.0
  0
ARC
  5
1E6
330
1F
100
AcDbEntity
  8
NoLayerName_001
  6
Continuous
 62
     4
370
    25
100
AcDbCircle
 10
138.0362232868634
 20
187.7763377449199
 30
0.0
 40
3.0
100
AcDbArc
 50
158.9624889745782
 51
180.0
  0
ARC
  5
1E7
330
1F
100
AcDbEntity
  8
NoLayerName_001
  6
Continuous
 62
     4
370
    25
100
AcDbCircle
 10
134.5362232868634
 20
188.8904036775408
 30
0.0
 40
3.0
100
AcDbArc
 50
338.9624889745782
 51
0.0
  0
ARC
  5
1E8
330
1F
100
AcDbEntity
  8
NoLayerName_001
  6
Continuous
 62
     4
370
    25
100
AcDbCircle
 10
134.5362232868634
 20
187.2189970842787
 30
0.0
 40
3.0
100
AcDbArc
 50
338.9624889745782
 51
0.0
  0
LINE
  5
1E9
330
1F
100
AcDbEntity
  8
NoLayerName_001
  6
Continuous
 62
     4
370
    25
100
AcDbLine
 10
136.0763366773239
 20
191.0376655264278
 30
0.0
 11
135.2361864682542
 21
188.8532749828465
 31
0.0
  0
LINE
  5
1EA
330
1F
100
AcDbEntity
  8
NoLayerName_001
  6
Continuous
 62
     4
370
    25
100
AcDbLine
 10
136.0763366773239
 20
191.0376655264278
 30
0.0
 11
137.3362601054725
 21
194.3134664396142
 31
0.0
  0
LINE
  5
1EB
330
1F
100
AcDbEntity
  8
NoLayerName_001
  6
Continuous
 62
     4
370
    25
100
AcDbLine
 10
136.7198250713237
 20
191.0393287575649
 30
0.0
 11
135.2361864682542
 21
187.1818683895842
 31
0.0
  0
LINE
  5
1EC
330
1F
100
AcDbEntity
  8
NoLayerName_001
  6
Continuous
 62
     4
370
    25
100
AcDbLine
 10
136.7198250713237
 20
191.0393287575649
 30
0.0
 11
137.3362601054726
 21
192.6420598463521
 31
0.0
  0
LINE
  5
1ED
330
1F
100
AcDbEntity
  8
NoLayerName_001
  6
Continuous
 62
     7
370
    50
100
AcDbLine
 10
133.3862232868635
 20
201.9976674145996
 30
0.0
 11
136.2862232868635
 21
201.9976674145996
 31
0.0
  0
ARC
  5
1EE
330
1F
100
AcDbEntity
  8
NoLayerName_001
  6
Continuous
 62
     7
370
    50
100
AcDbCircle
 10
139.1862232868635
 20
201.8976674145996
 30
0.0
 40
0.1
100
AcDbArc
 50
0.0
 51
90.0
  0
ARC
  5
1EF
330
1F
100
AcDbEntity
  8
NoLayerName_001
  6
Continuous
 62
     7
370
    50
100
AcDbCircle
 10
133.3862232868635
 20
201.8976674145996
 30
0.0
 40
0.1
100
AcDbArc
 50
90.0
 51
180.0
  0
LINE
  5
1F0
330
1F
100
AcDbEntity
  8
NoLayerName_001
  6
Continuous
 62
     7
370
    50
100
AcDbLine
 10
137.5362232868635
 20
200.5976674145996
 30
0.0
 11
136.2862232868635
 21
200.5976674145996
 31
0.0
  0
LINE
  5
1F1
330
1F
100
AcDbEntity
  8
NoLayerName_001
  6
Continuous
 62
     7
370
    50
100
AcDbLine
 10
139.2862232868635
 20
201.1976674145996
 30
0.0
 11
139.2862232868635
 21
201.8976674145996
 31
0.0
  0
ARC
  5
1F2
330
1F
100
AcDbEntity
  8
NoLayerName_001
  6
Continuous
 62
     7
370
    50
100
AcDbCircle
 10
139.0862232868635
 20
201.1976674145996
 30
0.0
 40
0.2
100
AcDbArc
 50
270.0
 51
0.0
  0
LINE
  5
1F3
330
1F
100
AcDbEntity
  8
NoLayerName_001
  6
Continuous
 62
     7
370
    50
100
AcDbLine
 10
137.5362232868635
 20
200.5976674145996
 30
0.0
 11
139.0862232868635
 21
200.9976674145996
 31
0.0
  0
LINE
  5
1F4
330
1F
100
AcDbEntity
  8
NoLayerName_001
  6
Continuous
 62
     7
370
    50
100
AcDbLine
 10
133.2862232868635
 20
201.1976674145996
 30
0.0
 11
133.2862232868635
 21
201.8976674145996
 31
0.0
  0
ARC
  5
1F5
330
1F
100
AcDbEntity
  8
NoLayerName_001
  6
Continuous
 62
     7
370
    50
100
AcDbCircle
 10
133.4862232868635
 20
201.1976674145996
 30
0.0
 40
0.2
100
AcDbArc
 50
180.0
 51
270.0
  0
LINE
  5
1F6
330
1F
100
AcDbEntity
  8
NoLayerName_001
  6
Continuous
 62
     7
370
    50
100
AcDbLine
 10
135.0362232868635
 20
200.5976674145996
 30
0.0
 11
133.4862232868635
 21
200.9976674145996
 31
0.0
  0
LINE
  5
1F7
330
1F
100
AcDbEntity
  8
NoLayerName_001
  6
Continuous
 62
     4
370
    25
100
AcDbLine
 10
135.6792109980692
 20
195.3020211811573
 30
0.0
 11
137.010662650426
 21
195.3020211811573
 31
0.0
  0
LINE
  5
1F8
330
1F
100
AcDbEntity
  8
NoLayerName_001
  6
Continuous
 62
     4
370
    25
100
AcDbLine
 10
135.6792109980692
 20
195.9020211811573
 30
0.0
 11
137.010662650426
 21
195.9020211811573
 31
0.0
  0
LINE
  5
1F9
330
1F
100
AcDbEntity
  8
NoLayerName_001
  6
Continuous
 62
     4
370
    25
100
AcDbLine
 10
135.6792109980692
 20
196.5020211811572
 30
0.0
 11
137.010662650426
 21
196.5020211811572
 31
0.0
  0
LINE
  5
1FA
330
1F
100
AcDbEntity
  8
NoLayerName_001
  6
Continuous
 62
     4
370
    25
100
AcDbLine
 10
135.6792109980692
 20
197.1020211811573
 30
0.0
 11
137.010662650426
 21
197.1020211811573
 31
0.0
  0
LINE
  5
1FB
330
1F
100
AcDbEntity
  8
NoLayerName_001
  6
Continuous
 62
     4
370
    25
100
AcDbLine
 10
135.6792109980692
 20
197.7020211811573
 30
0.0
 11
137.010662650426
 21
197.7020211811573
 31
0.0
  0
LINE
  5
1FC
330
1F
100
AcDbEntity
  8
NoLayerName_001
  6
Continuous
 62
     4
370
    25
100
AcDbLine
 10
135.6792109980692
 20
198.3020211811572
 30
0.0
 11
137.010662650426
 21
198.3020211811572
 31
0.0
  0
LINE
  5
1FD
330
1F
100
AcDbEntity
  8
NoLayerName_001
  6
Continuous
 62
     4
370
    25
100
AcDbLine
 10
135.6792109980692
 20
198.9020211811572
 30
0.0
 11
137.010662650426
 21
198.9020211811572
 31
0.0
  0
LINE
  5
1FE
330
1F
100
AcDbEntity
  8
NoLayerName_001
  6
Continuous
 62
     4
370
    25
100
AcDbLine
 10
135.6792109980692
 20
199.5020211811572
 30
0.0
 11
137.010662650426
 21
199.5020211811572
 31
0.0
  0
LINE
  5
1FF
330
1F
100
AcDbEntity
  8
NoLayerName_001
  6
Continuous
 62
     4
370
    25
100
AcDbLine
 10
135.6792109980692
 20
200.1020211811573
 30
0.0
 11
137.010662650426
 21
200.1020211811573
 31
0.0
  0
LINE
  5
200
330
1F
100
AcDbEntity
  8
NoLayerName_001
  6
Continuous
 62
     7
370
    50
100
AcDbLine
 10
135.0362232868633
 20
200.5976674145996
 30
0.0
 11
136.2862232868633
 21
200.5976674145996
 31
0.0
  0
LINE
  5
201
330
1F
100
AcDbEntity
  8
NoLayerName_001
  6
Continuous
 62
     7
370
    50
100
AcDbLine
 10
137.5362232868634
 20
184.1976674145996
 30
0.0
 11
137.5362232868634
 21
200.5976674145994
 31
0.0
  0
LINE
  5
202
330
1F
100
AcDbEntity
  8
NoLayerName_001
  6
Continuous
 62
     7
370
    50
100
AcDbLine
 10
135.0362232868634
 20
200.5976674145994
 30
0.0
 11
135.0362232868634
 21
184.1976674145996
 31
0.0
  0
LINE
  5
203
330
1F
100
AcDbEntity
  8
NoLayerName_001
  6
Continuous
 62
     4
370
    25
100
AcDbLine
 10
136.2532604804669
 20
184.9976674145996
 30
0.0
 11
137.3362601054725
 21
187.8134664396142
 31
0.0
  0
LINE
  5
204
330
1F
100
AcDbEntity
  8
NoLayerName_001
  6
Continuous
 62
     4
370
    25
100
AcDbLine
 10
136.8862232868635
 20
184.9719641179685
 30
0.0
 11
137.3362601054726
 21
186.1420598463521
 31
0.0
  0
LINE
  5
205
330
1F
100
AcDbEntity
  8
NoLayerName_001
  6
Continuous
 62
     7
370
    25
100
AcDbLine
 10
133.2862232868635
 20
201.1976674145996
 30
0.0
 11
139.2862232868635
 21
201.1976674145996
 31
0.0
  0
LINE
  5
206
330
1F
100
AcDbEntity
  8
NoLayerName_001
  6
Continuous
 62
     7
370
    25
100
AcDbLine
 10
45.90454391121131
 20
201.1976674145999
 30
0.0
 11
51.90454391121131
 21
201.1976674145999
 31
0.0
  0
MTEXT
  5
207
330
1F
100
AcDbEntity
  8
NoLayerName_001
 62
     7
370
    50
100
AcDbMText
 10
149.1754377952198
 20
254.8325750083229
 30
0.0
 40
3.099999904632568
 41
0.0
 71
     4
 72
     5
  1
\A1;\W0.7083;\T0.9412;ＣＤＯ１６
 73
     1
 44
1.0
1001
ACAD
1000
ACAD_MTEXT_DEFINED_HEIGHT_BEGIN
1070
    46
1040
3.099999904632568
1000
ACAD_MTEXT_DEFINED_HEIGHT_END
  0
LINE
  5
208
330
1F
100
AcDbEntity
  8
NoLayerName_002
  6
Continuous
 62
     7
370
   100
100
AcDbLine
 10
136.5
 20
23.0
 30
0.0
 11
196.0
 21
23.0
 31
0.0
  0
LINE
  5
209
330
1F
100
AcDbEntity
  8
NoLayerName_002
  6
Continuous
 62
     7
370
   100
100
AcDbLine
 10
196.0
 20
36.0
 30
0.0
 11
136.5
 21
36.0
 31
0.0
  0
LINE
  5
20A
330
1F
100
AcDbEntity
  8
NoLayerName_002
  6
Continuous
 62
     7
370
    25
100
AcDbLine
 10
147.5
 20
36.0
 30
0.0
 11
147.5
 21
23.0
 31
0.0
  0
LINE
  5
20B
330
1F
100
AcDbEntity
  8
NoLayerName_002
  6
Continuous
 62
     7
370
   100
100
AcDbLine
 10
196.0
 20
13.0
 30
0.0
 11
196.0
 21
36.0
 31
0.0
  0
LINE
  5
20C
330
1F
100
AcDbEntity
  8
NoLayerName_002
  6
Continuous
 62
     7
370
   100
100
AcDbLine
 10
136.5
 20
13.0
 30
0.0
 11
196.0
 21
13.0
 31
0.0
  0
LINE
  5
20D
330
1F
100
AcDbEntity
  8
NoLayerName_002
  6
Continuous
 62
     7
370
   100
100
AcDbLine
 10
136.5
 20
36.0
 30
0.0
 11
136.5
 21
13.0
 31
0.0
  0
LINE
  5
20E
330
1F
100
AcDbEntity
  8
NoLayerName_002
  6
Continuous
 62
     7
370
    25
100
AcDbLine
 10
147.5
 20
23.0
 30
0.0
 11
147.5
 21
13.0
 31
0.0
  0
MTEXT
  5
20F
330
1F
100
AcDbEntity
  8
NoLayerName_002
 62
     7
370
    50
100
AcDbMText
 10
137.6480002403259
 20
27.89999997615814
 30
0.0
 40
2.206896584609459
 41
0.0
 71
     7
 72
     5
  1
\fＭＳ Ｐゴシック|b0|c128|p50;\A1;品　名
 73
     1
 44
1.299389002163688
1001
ACAD
1000
ACAD_MTEXT_DEFINED_HEIGHT_BEGIN
1070
    46
1040
3.200000047683716
1000
ACAD_MTEXT_DEFINED_HEIGHT_END
  0
MTEXT
  5
210
330
1F
100
AcDbEntity
  8
NoLayerName_002
 62
     7
370
    50
100
AcDbMText
 10
141.9506225585938
 20
18.0
 30
0.0
 40
2.206896584609459
 41
0.0
 71
     5
 72
     5
  1
\fＭＳ Ｐゴシック|b0|c128|p50;\A1;品　番
 73
     1
 44
1.299389002163688
1001
ACAD
1000
ACAD_MTEXT_DEFINED_HEIGHT_BEGIN
1070
    46
1040
3.200000047683716
1000
ACAD_MTEXT_DEFINED_HEIGHT_END
  0
MTEXT
  5
211
330
1F
100
AcDbEntity
  8
NoLayerName_001
 62
     3
370
    50
100
AcDbMText
 10
155.6074066162109
 20
31.88501501840418
 30
0.0
 40
2.206896584609459
 41
0.0
 71
     4
 72
     5
  1
\fＭＳ Ｐゴシック|b0|c128|p50;\A1;ＣＤ送り用エンド　１６用
 73
     1
 44
1.299389002163688
1001
ACAD
1000
ACAD_MTEXT_DEFINED_HEIGHT_BEGIN
1070
    46
1040
3.200000047683716
1000
ACAD_MTEXT_DEFINED_HEIGHT_END
  0
MTEXT
  5
212
330
1F
100
AcDbEntity
  8
NoLayerName_001
 62
     3
370
    50
100
AcDbMText
 10
155.1173858642578
 20
27.72228613560225
 30
0.0
 40
2.206896584609459
 41
0.0
 71
     4
 72
     5
  1
\fＭＳ Ｐゴシック|b0|c128|p50;\A1;　　　〃　　　　　　　２２用
 73
     1
 44
1.299389002163688
1001
ACAD
1000
ACAD_MTEXT_DEFINED_HEIGHT_BEGIN
1070
    46
1040
3.200000047683716
1000
ACAD_MTEXT_DEFINED_HEIGHT_END
  0
MTEXT
  5
213
330
1F
100
AcDbEntity
  8
NoLayerName_001
 62
     3
370
    50
100
AcDbMText
 10
162.5501098632812
 20
20.5
 30
0.0
 40
2.206896584609459
 41
0.0
 71
     5
 72
     5
  1
\fＭＳ Ｐゴシック|b0|c128|p50;\A1;ＣＤＯ１６
 73
     1
 44
1.299389002163688
1001
ACAD
1000
ACAD_MTEXT_DEFINED_HEIGHT_BEGIN
1070
    46
1040
3.200000047683716
1000
ACAD_MTEXT_DEFINED_HEIGHT_END
  0
MTEXT
  5
214
330
1F
100
AcDbEntity
  8
NoLayerName_001
 62
     3
370
    50
100
AcDbMText
 10
162.5612487792969
 20
15.5
 30
0.0
 40
2.206896584609459
 41
0.0
 71
     5
 72
     5
  1
\fＭＳ Ｐゴシック|b0|c128|p50;\A1;ＣＤＯ２２
 73
     1
 44
1.299389002163688
1001
ACAD
1000
ACAD_MTEXT_DEFINED_HEIGHT_BEGIN
1070
    46
1040
3.200000047683716
1000
ACAD_MTEXT_DEFINED_HEIGHT_END
  0
LINE
  5
215
330
1F
100
AcDbEntity
  8
NoLayerName_002
  6
Continuous
 62
     7
370
    25
100
AcDbLine
 10
196.0
 20
18.0
 30
0.0
 11
147.5
 21
18.0
 31
0.0
  0
ENDSEC
  0
SECTION
  2
OBJECTS
  0
DICTIONARY
  5
C
330
0
100
AcDbDictionary
281
     1
  3
ACAD_GROUP
350
D
  3
ACAD_LAYOUT
350
1A
  3
ACAD_MATERIAL
350
43
  3
ACAD_MLEADERSTYLE
350
218
  3
ACAD_MLINESTYLE
350
17
  3
ACAD_PLOTSETTINGS
350
19
  3
ACAD_PLOTSTYLENAME
350
E
  3
ACAD_SCALELIST
350
47
  3
ACAD_VISUALSTYLE
350
2A
  3
AcDbVariableDictionary
350
216
  3
DWGPROPS
350
21F
  0
DICTIONARY
  5
D
102
{ACAD_REACTORS
330
C
102
}
330
C
100
AcDbDictionary
281
     1
  0
DICTIONARY
  5
1A
102
{ACAD_REACTORS
330
C
102
}
330
C
100
AcDbDictionary
281
     1
  3
Layout1
350
1E
  3
Model
350
22
  0
DICTIONARY
  5
43
102
{ACAD_REACTORS
330
C
102
}
330
C
100
AcDbDictionary
281
     1
  3
ByBlock
350
45
  3
ByLayer
350
44
  3
Global
350
46
  0
DICTIONARY
  5
218
102
{ACAD_REACTORS
330
C
102
}
330
C
100
AcDbDictionary
281
     1
  0
DICTIONARY
  5
17
102
{ACAD_REACTORS
330
C
102
}
330
C
100
AcDbDictionary
281
     1
  3
Standard
350
18
  0
DICTIONARY
  5
19
102
{ACAD_REACTORS
330
C
102
}
330
C
100
AcDbDictionary
281
     1
  0
ACDBDICTIONARYWDFLT
  5
E
102
{ACAD_REACTORS
330
C
102
}
330
C
100
AcDbDictionary
281
     1
  3
Normal
350
F
100
AcDbDictionaryWithDefault
340
F
  0
DICTIONARY
  5
47
102
{ACAD_REACTORS
330
C
102
}
330
C
100
AcDbDictionary
281
     1
  3
A0
350
48
  3
A1
350
49
  3
A2
350
4A
  3
A3
350
4B
  3
A4
350
4C
  3
A5
350
4D
  3
A6
350
4E
  3
A7
350
4F
  3
A8
350
50
  3
A9
350
51
  3
B0
350
52
  3
B1
350
53
  3
B2
350
54
  3
B3
350
55
  3
B4
350
56
  3
B5
350
57
  3
B6
350
58
  3
B7
350
59
  3
B8
350
5A
  3
B9
350
5B
  3
C0
350
5C
  3
C1
350
5D
  3
C2
350
5E
  3
C3
350
5F
  3
C4
350
60
  3
C5
350
61
  3
C6
350
62
  3
C7
350
63
  3
C8
350
64
  3
C9
350
65
  3
D0
350
66
  3
D1
350
67
  3
D2
350
68
  0
DICTIONARY
  5
2A
102
{ACAD_REACTORS
330
C
102
}
330
C
100
AcDbDictionary
281
     1
  3
2dWireframe
350
2F
  3
Basic
350
32
  3
Brighten
350
36
  3
ColorChange
350
3A
  3
Conceptual
350
34
  3
Dim
350
35
  3
EdgeColorOff
350
3D
  3
Facepattern
350
39
  3
Flat
350
2B
  3
FlatWithEdges
350
2C
  3
Gouraud
350
2D
  3
GouraudWithEdges
350
2E
  3
Hidden
350
31
  3
JitterOff
350
3B
  3
Linepattern
350
38
  3
OverhangOff
350
3C
  3
Realistic
350
33
  3
Shaded
350
42
  3
Shaded with edges
350
41
  3
Shades of Gray
350
3E
  3
Sketchy
350
3F
  3
Thicken
350
37
  3
Wireframe
350
30
  3
X-Ray
350
40
  0
DICTIONARY
  5
216
102
{ACAD_REACTORS
330
C
102
}
330
C
100
AcDbDictionary
281
     1
  3
CANNOSCALE
350
220
  3
DIMASSOC
350
21D
  3
HIDETEXT
350
21E
  3
MSLTSCALE
350
221
  3
PSOLHEIGHT
350
21A
  3
PSOLWIDTH
350
219
  0
XRECORD
  5
21F
102
{ACAD_REACTORS
330
C
102
}
330
C
100
AcDbXrecord
280
     1
  1
DWGPROPS COOKIE
  2

  3

  4

  6
File was created by TR2_DExp
  7

  8

  9

300
=
301
=
302
=
303
=
304
=
305
=
306
=
307
=
308
=
309
=
 40
0.0
 41
2455188.375
 42
2455188.375
  1

 90
        0
  0
LAYOUT
  5
1E
102
{ACAD_REACTORS
330
1A
102
}
330
1A
100
AcDbPlotSettings
  1

  2
none_device
  4

  6

 40
0.0
 41
0.0
 42
0.0
 43
0.0
 44
0.0
 45
0.0
 46
0.0
 47
0.0
 48
0.0
 49
0.0
140
0.0
141
0.0
142
1.0
143
1.0
 70
   688
 72
     1
 73
     0
 74
     5
  7

 75
    16
147
1.0
148
0.0
149
0.0
100
AcDbLayout
  1
Layout1
 70
     0
 71
     1
 10
0.0
 20
0.0
 11
420.0
 21
297.0
 12
0.0
 22
0.0
 32
0.0
 14
1.000000000000000E+20
 24
1.000000000000000E+20
 34
1.000000000000000E+20
 15
-1.000000000000000E+20
 25
-1.000000000000000E+20
 35
-1.000000000000000E+20
146
0.0
 13
0.0
 23
0.0
 33
0.0
 16
1.0
 26
0.0
 36
0.0
 17
0.0
 27
1.0
 37
0.0
 76
     0
330
1B
  0
LAYOUT
  5
22
102
{ACAD_REACTORS
330
1A
102
}
330
1A
100
AcDbPlotSettings
  1

  2
none_device
  4
Letter_(8.50_x_11.00_Inches)
  6

 40
6.35
 41
6.35
 42
6.35000508
 43
6.35000508
 44
215.9
 45
279.4
 46
0.0
 47
0.0
 48
0.0
 49
0.0
140
0.0
141
0.0
142
1.0
143
1.0
 70
  1712
 72
     1
 73
     0
 74
     0
  7

 75
     0
147
1.0
148
0.0
149
0.0
100
AcDbLayout
  1
Model
 70
     1
 71
     0
 10
25.80454391121117
 20
13.0
 11
196.0
 21
263.7181056422594
 12
0.0
 22
0.0
 32
0.0
 14
25.80454391121117
 24
13.0
 34
0.0
 15
196.0
 25
263.7181056422594
 35
0.0
146
0.0
 13
0.0
 23
0.0
 33
0.0
 16
1.0
 26
0.0
 36
0.0
 17
0.0
 27
1.0
 37
0.0
 76
     0
330
1F
331
29
  0
MATERIAL
  5
45
102
{ACAD_REACTORS
330
43
102
}
102
{ACAD_XDICTIONARY
360
254
102
}
330
43
100
AcDbMaterial
  1
ByBlock
  0
MATERIAL
  5
44
102
{ACAD_REACTORS
330
43
102
}
102
{ACAD_XDICTIONARY
360
252
102
}
330
43
100
AcDbMaterial
  1
ByLayer
  0
MATERIAL
  5
46
102
{ACAD_REACTORS
330
43
102
}
102
{ACAD_XDICTIONARY
360
256
102
}
330
43
100
AcDbMaterial
  1
Global
  0
MLINESTYLE
  5
18
102
{ACAD_REACTORS
330
17
102
}
330
17
100
AcDbMlineStyle
  2
Standard
 70
     0
  3

 62
   256
 51
90.0
 52
90.0
 71
     2
 49
0.5
 62
   256
  6
BYLAYER
 49
-0.5
 62
   256
  6
BYLAYER
  0
ACDBPLACEHOLDER
  5
F
102
{ACAD_REACTORS
330
E
102
}
330
E
  0
SCALE
  5
48
102
{ACAD_REACTORS
330
47
102
}
330
47
100
AcDbScale
 70
     0
300
1:1
140
1.0
141
1.0
290
     1
  0
SCALE
  5
49
102
{ACAD_REACTORS
330
47
102
}
330
47
100
AcDbScale
 70
     0
300
1:2
140
1.0
141
2.0
290
     0
  0
SCALE
  5
4A
102
{ACAD_REACTORS
330
47
102
}
330
47
100
AcDbScale
 70
     0
300
1:4
140
1.0
141
4.0
290
     0
  0
SCALE
  5
4B
102
{ACAD_REACTORS
330
47
102
}
330
47
100
AcDbScale
 70
     0
300
1:5
140
1.0
141
5.0
290
     0
  0
SCALE
  5
4C
102
{ACAD_REACTORS
330
47
102
}
330
47
100
AcDbScale
 70
     0
300
1:8
140
1.0
141
8.0
290
     0
  0
SCALE
  5
4D
102
{ACAD_REACTORS
330
47
102
}
330
47
100
AcDbScale
 70
     0
300
1:10
140
1.0
141
10.0
290
     0
  0
SCALE
  5
4E
102
{ACAD_REACTORS
330
47
102
}
330
47
100
AcDbScale
 70
     0
300
1:16
140
1.0
141
16.0
290
     0
  0
SCALE
  5
4F
102
{ACAD_REACTORS
330
47
102
}
330
47
100
AcDbScale
 70
     0
300
1:20
140
1.0
141
20.0
290
     0
  0
SCALE
  5
50
102
{ACAD_REACTORS
330
47
102
}
330
47
100
AcDbScale
 70
     0
300
1:30
140
1.0
141
30.0
290
     0
  0
SCALE
  5
51
102
{ACAD_REACTORS
330
47
102
}
330
47
100
AcDbScale
 70
     0
300
1:40
140
1.0
141
40.0
290
     0
  0
SCALE
  5
52
102
{ACAD_REACTORS
330
47
102
}
330
47
100
AcDbScale
 70
     0
300
1:50
140
1.0
141
50.0
290
     0
  0
SCALE
  5
53
102
{ACAD_REACTORS
330
47
102
}
330
47
100
AcDbScale
 70
     0
300
1:100
140
1.0
141
100.0
290
     0
  0
SCALE
  5
54
102
{ACAD_REACTORS
330
47
102
}
330
47
100
AcDbScale
 70
     0
300
2:1
140
2.0
141
1.0
290
     0
  0
SCALE
  5
55
102
{ACAD_REACTORS
330
47
102
}
330
47
100
AcDbScale
 70
     0
300
4:1
140
4.0
141
1.0
290
     0
  0
SCALE
  5
56
102
{ACAD_REACTORS
330
47
102
}
330
47
100
AcDbScale
 70
     0
300
8:1
140
8.0
141
1.0
290
     0
  0
SCALE
  5
57
102
{ACAD_REACTORS
330
47
102
}
330
47
100
AcDbScale
 70
     0
300
10:1
140
10.0
141
1.0
290
     0
  0
SCALE
  5
58
102
{ACAD_REACTORS
330
47
102
}
330
47
100
AcDbScale
 70
     0
300
100:1
140
100.0
141
1.0
290
     0
  0
SCALE
  5
59
102
{ACAD_REACTORS
330
47
102
}
330
47
100
AcDbScale
 70
     0
300
1/128" = 1'-0"
140
0.0078125
141
12.0
290
     0
  0
SCALE
  5
5A
102
{ACAD_REACTORS
330
47
102
}
330
47
100
AcDbScale
 70
     0
300
1/64" = 1'-0"
140
0.015625
141
12.0
290
     0
  0
SCALE
  5
5B
102
{ACAD_REACTORS
330
47
102
}
330
47
100
AcDbScale
 70
     0
300
1/32" = 1'-0"
140
0.03125
141
12.0
290
     0
  0
SCALE
  5
5C
102
{ACAD_REACTORS
330
47
102
}
330
47
100
AcDbScale
 70
     0
300
1/16" = 1'-0"
140
0.0625
141
12.0
290
     0
  0
SCALE
  5
5D
102
{ACAD_REACTORS
330
47
102
}
330
47
100
AcDbScale
 70
     0
300
3/32" = 1'-0"
140
0.09375
141
12.0
290
     0
  0
SCALE
  5
5E
102
{ACAD_REACTORS
330
47
102
}
330
47
100
AcDbScale
 70
     0
300
1/8" = 1'-0"
140
0.125
141
12.0
290
     0
  0
SCALE
  5
5F
102
{ACAD_REACTORS
330
47
102
}
330
47
100
AcDbScale
 70
     0
300
3/16" = 1'-0"
140
0.1875
141
12.0
290
     0
  0
SCALE
  5
60
102
{ACAD_REACTORS
330
47
102
}
330
47
100
AcDbScale
 70
     0
300
1/4" = 1'-0"
140
0.25
141
12.0
290
     0
  0
SCALE
  5
61
102
{ACAD_REACTORS
330
47
102
}
330
47
100
AcDbScale
 70
     0
300
3/8" = 1'-0"
140
0.375
141
12.0
290
     0
  0
SCALE
  5
62
102
{ACAD_REACTORS
330
47
102
}
330
47
100
AcDbScale
 70
     0
300
1/2" = 1'-0"
140
0.5
141
12.0
290
     0
  0
SCALE
  5
63
102
{ACAD_REACTORS
330
47
102
}
330
47
100
AcDbScale
 70
     0
300
3/4" = 1'-0"
140
0.75
141
12.0
290
     0
  0
SCALE
  5
64
102
{ACAD_REACTORS
330
47
102
}
330
47
100
AcDbScale
 70
     0
300
1" = 1'-0"
140
1.0
141
12.0
290
     0
  0
SCALE
  5
65
102
{ACAD_REACTORS
330
47
102
}
330
47
100
AcDbScale
 70
     0
300
1-1/2" = 1'-0"
140
1.5
141
12.0
290
     0
  0
SCALE
  5
66
102
{ACAD_REACTORS
330
47
102
}
330
47
100
AcDbScale
 70
     0
300
3" = 1'-0"
140
3.0
141
12.0
290
     0
  0
SCALE
  5
67
102
{ACAD_REACTORS
330
47
102
}
330
47
100
AcDbScale
 70
     0
300
6" = 1'-0"
140
6.0
141
12.0
290
     0
  0
SCALE
  5
68
102
{ACAD_REACTORS
330
47
102
}
330
47
100
AcDbScale
 70
     0
300
1'-0" = 1'-0"
140
12.0
141
12.0
290
     0
  0
VISUALSTYLE
  5
2F
102
{ACAD_REACTORS
330
2A
102
}
102
{ACAD_XDICTIONARY
360
22A
102
}
330
2A
100
AcDbVisualStyle
  2
2dWireframe
 70
     4
 71
     0
 72
     2
 73
     0
 90
        0
 40
0.6
 41
30.0
 62
     5
 63
     7
 74
     1
 91
        4
 64
     7
 65
   257
 75
     1
175
     1
 42
1.0
 92
        0
 66
   257
 43
1.0
 76
     1
 77
     6
 78
     2
 67
     7
 79
     5
170
     0
171
     0
290
     0
174
     0
 93
        1
 44
0.0
173
     0
291
     0
 45
0.0
1001
ACAD
1000
AcDbSavedByObjectVersion
1070
     0
  0
VISUALSTYLE
  5
32
102
{ACAD_REACTORS
330
2A
102
}
102
{ACAD_XDICTIONARY
360
230
102
}
330
2A
100
AcDbVisualStyle
  2
Basic
 70
     7
 71
     1
 72
     0
 73
     1
 90
        0
 40
0.6
 41
30.0
 62
     5
 63
     7
 74
     0
 91
        4
 64
     7
 65
   257
 75
     1
175
     1
 42
1.0
 92
        8
 66
     7
 43
1.0
 76
     1
 77
     6
 78
     2
 67
     7
 79
     5
170
     0
171
     0
290
     0
174
     0
 93
        1
 44
0.0
173
     0
291
     1
 45
0.0
1001
ACAD
1000
AcDbSavedByObjectVersion
1070
     0
  0
VISUALSTYLE
  5
36
102
{ACAD_REACTORS
330
2A
102
}
102
{ACAD_XDICTIONARY
360
238
102
}
330
2A
100
AcDbVisualStyle
  2
Brighten
 70
    12
 71
     2
 72
     2
 73
     0
 90
        0
 40
0.6
 41
30.0
 62
     5
 63
     7
 74
     1
 91
        4
 64
     7
 65
   257
 75
     1
175
     1
 42
1.0
 92
        8
 66
     7
 43
1.0
 76
     1
 77
     6
 78
     2
 67
     7
 79
     5
170
     0
171
     0
290
     0
174
     0
 93
        1
 44
50.0
173
     0
291
     1
 45
0.0
1001
ACAD
1000
AcDbSavedByObjectVersion
1070
     0
  0
VISUALSTYLE
  5
3A
102
{ACAD_REACTORS
330
2A
102
}
102
{ACAD_XDICTIONARY
360
240
102
}
330
2A
100
AcDbVisualStyle
  2
ColorChange
 70
    16
 71
     2
 72
     2
 73
     3
 90
        0
 40
0.6
 41
30.0
 62
     5
 63
     8
 74
     1
 91
        4
 64
     7
 65
   257
 75
     1
175
     1
 42
1.0
 92
        8
 66
     8
 43
1.0
 76
     1
 77
     6
 78
     2
 67
     7
 79
     5
170
     0
171
     0
290
     0
174
     0
 93
        1
 44
0.0
173
     0
291
     1
 45
0.0
1001
ACAD
1000
AcDbSavedByObjectVersion
1070
     0
  0
VISUALSTYLE
  5
34
102
{ACAD_REACTORS
330
2A
102
}
102
{ACAD_XDICTIONARY
360
234
102
}
330
2A
100
AcDbVisualStyle
  2
Conceptual
 70
     9
 71
     3
 72
     2
 73
     0
 90
        0
 40
0.6
 41
30.0
 62
     5
 63
     7
 74
     2
 91
        2
 64
     7
 65
   257
 75
     1
175
     1
 42
179.0
 92
        8
 66
     7
 43
1.0
 76
     1
 77
     6
 78
     2
 67
     7
 79
     3
170
     0
171
     0
290
     0
174
     0
 93
        1
 44
0.0
173
     0
291
     0
 45
0.0
1001
ACAD
1000
AcDbSavedByObjectVersion
1070
     0
  0
VISUALSTYLE
  5
35
102
{ACAD_REACTORS
330
2A
102
}
102
{ACAD_XDICTIONARY
360
236
102
}
330
2A
100
AcDbVisualStyle
  2
Dim
 70
    11
 71
     2
 72
     2
 73
     0
 90
        0
 40
0.6
 41
30.0
 62
     5
 63
     7
 74
     1
 91
        4
 64
     7
 65
   257
 75
     1
175
     1
 42
1.0
 92
        8
 66
     7
 43
1.0
 76
     1
 77
     6
 78
     2
 67
     7
 79
     5
170
     0
171
     0
290
     0
174
     0
 93
        1
 44
-50.0
173
     0
291
     1
 45
0.0
1001
ACAD
1000
AcDbSavedByObjectVersion
1070
     0
  0
VISUALSTYLE
  5
3D
102
{ACAD_REACTORS
330
2A
102
}
102
{ACAD_XDICTIONARY
360
246
102
}
330
2A
100
AcDbVisualStyle
  2
EdgeColorOff
 70
    22
 71
     2
 72
     2
 73
     0
 90
        0
 40
0.6
 41
30.0
 62
     5
 63
     7
 74
     1
 91
        4
 64
     7
 65
   257
 75
     1
175
     1
 42
1.0
 92
        8
 66
     7
 43
1.0
 76
     1
 77
     6
 78
     2
 67
     7
 79
     5
170
     0
171
     0
290
     0
174
     0
 93
        1
 44
0.0
173
     0
291
     1
 45
0.0
1001
ACAD
1000
AcDbSavedByObjectVersion
1070
     0
  0
VISUALSTYLE
  5
39
102
{ACAD_REACTORS
330
2A
102
}
102
{ACAD_XDICTIONARY
360
23E
102
}
330
2A
100
AcDbVisualStyle
  2
Facepattern
 70
    15
 71
     2
 72
     2
 73
     0
 90
        0
 40
0.6
 41
30.0
 62
     5
 63
     7
 74
     1
 91
        4
 64
     7
 65
   257
 75
     1
175
     1
 42
1.0
 92
        8
 66
     7
 43
1.0
 76
     1
 77
     6
 78
     2
 67
     7
 79
     5
170
     0
171
     0
290
     0
174
     0
 93
        1
 44
0.0
173
     0
291
     1
 45
0.0
1001
ACAD
1000
AcDbSavedByObjectVersion
1070
     0
  0
VISUALSTYLE
  5
2B
102
{ACAD_REACTORS
330
2A
102
}
102
{ACAD_XDICTIONARY
360
222
102
}
330
2A
100
AcDbVisualStyle
  2
Flat
 70
     0
 71
     2
 72
     1
 73
     1
 90
        2
 40
0.6
 41
30.0
 62
     5
 63
     7
 74
     0
 91
        0
 64
     7
 65
   257
 75
     1
175
     1
 42
1.0
 92
        8
 66
     7
 43
1.0
 76
     1
 77
     6
 78
     2
 67
     7
 79
     5
170
     0
171
     0
290
     0
174
     0
 93
       13
 44
0.0
173
     0
291
     1
 45
0.0
1001
ACAD
1000
AcDbSavedByObjectVersion
1070
     0
  0
VISUALSTYLE
  5
2C
102
{ACAD_REACTORS
330
2A
102
}
102
{ACAD_XDICTIONARY
360
224
102
}
330
2A
100
AcDbVisualStyle
  2
FlatWithEdges
 70
     1
 71
     2
 72
     1
 73
     1
 90
        2
 40
0.6
 41
30.0
 62
     5
 63
     7
 74
     1
 91
        0
 64
     7
 65
   257
 75
     1
175
     1
 42
1.0
 92
        0
 66
   257
 43
1.0
 76
     1
 77
     6
 78
     2
 67
     7
 79
     5
170
     0
171
     0
290
     0
174
     0
 93
       13
 44
0.0
173
     0
291
     1
 45
0.0
1001
ACAD
1000
AcDbSavedByObjectVersion
1070
     0
  0
VISUALSTYLE
  5
2D
102
{ACAD_REACTORS
330
2A
102
}
102
{ACAD_XDICTIONARY
360
226
102
}
330
2A
100
AcDbVisualStyle
  2
Gouraud
 70
     2
 71
     2
 72
     2
 73
     1
 90
        2
 40
0.6
 41
30.0
 62
     5
 63
     7
 74
     0
 91
        0
 64
     7
 65
   257
 75
     1
175
     1
 42
1.0
 92
        0
 66
     7
 43
1.0
 76
     1
 77
     6
 78
     2
 67
     7
 79
     5
170
     0
171
     0
290
     0
174
     0
 93
       13
 44
0.0
173
     0
291
     1
 45
0.0
1001
ACAD
1000
AcDbSavedByObjectVersion
1070
     0
  0
VISUALSTYLE
  5
2E
102
{ACAD_REACTORS
330
2A
102
}
102
{ACAD_XDICTIONARY
360
228
102
}
330
2A
100
AcDbVisualStyle
  2
GouraudWithEdges
 70
     3
 71
     2
 72
     2
 73
     1
 90
        2
 40
0.6
 41
30.0
 62
     5
 63
     7
 74
     1
 91
        0
 64
     7
 65
   257
 75
     1
175
     1
 42
1.0
 92
        0
 66
   257
 43
1.0
 76
     1
 77
     6
 78
     2
 67
     7
 79
     5
170
     0
171
     0
290
     0
174
     0
 93
       13
 44
0.0
173
     0
291
     1
 45
0.0
1001
ACAD
1000
AcDbSavedByObjectVersion
1070
     0
  0
VISUALSTYLE
  5
31
102
{ACAD_REACTORS
330
2A
102
}
102
{ACAD_XDICTIONARY
360
22E
102
}
330
2A
100
AcDbVisualStyle
  2
Hidden
 70
     6
 71
     1
 72
     2
 73
     2
 90
        0
 40
0.6
 41
30.0
 62
     5
 63
     7
 74
     2
 91
        2
 64
     7
 65
   257
 75
     2
175
     1
 42
40.0
 92
        0
 66
   257
 43
1.0
 76
     1
 77
     6
 78
     2
 67
     7
 79
     3
170
     0
171
     0
290
     0
174
     0
 93
        1
 44
0.0
173
     0
291
     0
 45
0.0
1001
ACAD
1000
AcDbSavedByObjectVersion
1070
     0
  0
VISUALSTYLE
  5
3B
102
{ACAD_REACTORS
330
2A
102
}
102
{ACAD_XDICTIONARY
360
242
102
}
330
2A
100
AcDbVisualStyle
  2
JitterOff
 70
    20
 71
     2
 72
     2
 73
     0
 90
        0
 40
0.6
 41
30.0
 62
     5
 63
     7
 74
     1
 91
        4
 64
     7
 65
   257
 75
     1
175
     1
 42
1.0
 92
       10
 66
     7
 43
1.0
 76
     1
 77
     6
 78
     2
 67
     7
 79
     5
170
     0
171
     0
290
     0
174
     0
 93
        1
 44
0.0
173
     0
291
     1
 45
0.0
1001
ACAD
1000
AcDbSavedByObjectVersion
1070
     0
  0
VISUALSTYLE
  5
38
102
{ACAD_REACTORS
330
2A
102
}
102
{ACAD_XDICTIONARY
360
23C
102
}
330
2A
100
AcDbVisualStyle
  2
Linepattern
 70
    14
 71
     2
 72
     2
 73
     0
 90
        0
 40
0.6
 41
30.0
 62
     5
 63
     7
 74
     1
 91
        4
 64
     7
 65
   257
 75
     7
175
     7
 42
1.0
 92
        8
 66
     7
 43
1.0
 76
     1
 77
     6
 78
     2
 67
     7
 79
     5
170
     0
171
     0
290
     0
174
     0
 93
        1
 44
0.0
173
     0
291
     1
 45
0.0
1001
ACAD
1000
AcDbSavedByObjectVersion
1070
     0
  0
VISUALSTYLE
  5
3C
102
{ACAD_REACTORS
330
2A
102
}
102
{ACAD_XDICTIONARY
360
244
102
}
330
2A
100
AcDbVisualStyle
  2
OverhangOff
 70
    21
 71
     2
 72
     2
 73
     0
 90
        0
 40
0.6
 41
30.0
 62
     5
 63
     7
 74
     1
 91
        4
 64
     7
 65
   257
 75
     1
175
     1
 42
1.0
 92
        9
 66
     7
 43
1.0
 76
     1
 77
     6
 78
     2
 67
     7
 79
     5
170
     0
171
     0
290
     0
174
     0
 93
        1
 44
0.0
173
     0
291
     1
 45
0.0
1001
ACAD
1000
AcDbSavedByObjectVersion
1070
     0
  0
VISUALSTYLE
  5
33
102
{ACAD_REACTORS
330
2A
102
}
102
{ACAD_XDICTIONARY
360
232
102
}
330
2A
100
AcDbVisualStyle
  2
Realistic
 70
     8
 71
     2
 72
     3
 73
     0
 90
        2
 40
0.6
 41
30.0
 62
     5
 63
     7
 74
     0
 91
        0
 64
     7
 65
   257
 75
     1
175
     1
 42
1.0
 92
        8
 66
   257
 43
1.0
 76
     1
 77
     6
 78
     2
 67
     7
 79
     3
170
     0
171
     0
290
     0
174
     0
 93
       13
 44
0.0
173
     0
291
     0
 45
0.0
1001
ACAD
1000
AcDbSavedByObjectVersion
1070
     0
  0
VISUALSTYLE
  5
42
102
{ACAD_REACTORS
330
2A
102
}
102
{ACAD_XDICTIONARY
360
250
102
}
330
2A
100
AcDbVisualStyle
  2
Shaded
 70
    27
 71
     2
 72
     2
 73
     1
 90
        2
 40
0.6
 41
30.0
 62
     5
 63
     7
 74
     0
 91
        4
 64
     7
 65
   257
 75
     1
175
     1
 42
1.0
 92
        8
 66
   257
 43
1.0
 76
     1
 77
     6
 78
     2
 67
     8
 79
     3
170
     0
171
     0
290
     0
174
     0
 93
        5
 44
0.0
173
     0
291
     0
 45
0.0
1001
ACAD
1000
AcDbSavedByObjectVersion
1070
     0
  0
VISUALSTYLE
  5
41
102
{ACAD_REACTORS
330
2A
102
}
102
{ACAD_XDICTIONARY
360
24E
102
}
330
2A
100
AcDbVisualStyle
  2
Shaded with edges
 70
    26
 71
     2
 72
     2
 73
     1
 90
        2
 40
0.6
 41
30.0
 62
     5
 63
     7
 74
     1
 91
       10
 64
     7
 65
   257
 75
     2
175
     1
 42
1.0
 92
        8
 66
   257
 43
1.0
 76
     1
 77
     6
 78
     2
 67
     7
 79
     3
170
     0
171
     0
290
     0
174
     0
 93
        5
 44
0.0
173
     0
291
     0
 45
0.0
1001
ACAD
1000
AcDbSavedByObjectVersion
1070
     0
  0
VISUALSTYLE
  5
3E
102
{ACAD_REACTORS
330
2A
102
}
102
{ACAD_XDICTIONARY
360
248
102
}
330
2A
100
AcDbVisualStyle
  2
Shades of Gray
 70
    23
 71
     2
 72
     2
 73
     3
 90
        0
 40
0.6
 41
30.0
 62
     5
 63
     7
 74
     2
 91
        2
 64
     7
 65
     7
 75
     1
175
     1
 42
40.0
 92
        8
 66
     7
 43
1.0
 76
     1
 77
     6
 78
     2
 67
     7
 79
     3
170
     0
171
     0
290
     0
174
     0
 93
        1
 44
0.0
173
     0
291
     0
 45
0.0
1001
ACAD
1000
AcDbSavedByObjectVersion
1070
     0
  0
VISUALSTYLE
  5
3F
102
{ACAD_REACTORS
330
2A
102
}
102
{ACAD_XDICTIONARY
360
24A
102
}
330
2A
100
AcDbVisualStyle
  2
Sketchy
 70
    24
 71
     1
 72
     2
 73
     2
 90
        0
 40
0.6
 41
30.0
 62
     5
 63
     7
 74
     2
 91
        2
 64
     7
 65
     7
 75
     1
175
     1
 42
40.0
 92
       11
 66
     7
 43
1.0
 76
     1
 77
     6
 78
     2
 67
     7
 79
     6
170
     0
171
     0
290
     0
174
     0
 93
        1
 44
0.0
173
     0
291
     0
 45
0.0
1001
ACAD
1000
AcDbSavedByObjectVersion
1070
     0
  0
VISUALSTYLE
  5
37
102
{ACAD_REACTORS
330
2A
102
}
102
{ACAD_XDICTIONARY
360
23A
102
}
330
2A
100
AcDbVisualStyle
  2
Thicken
 70
    13
 71
     2
 72
     2
 73
     0
 90
        0
 40
0.6
 41
30.0
 62
     5
 63
     7
 74
     1
 91
        4
 64
     7
 65
   257
 75
     1
175
     1
 42
1.0
 92
       12
 66
     7
 43
1.0
 76
     1
 77
     6
 78
     2
 67
     7
 79
     5
170
     0
171
     0
290
     0
174
     0
 93
        1
 44
0.0
173
     0
291
     1
 45
0.0
1001
ACAD
1000
AcDbSavedByObjectVersion
1070
     0
  0
VISUALSTYLE
  5
30
102
{ACAD_REACTORS
330
2A
102
}
102
{ACAD_XDICTIONARY
360
22C
102
}
330
2A
100
AcDbVisualStyle
  2
Wireframe
 70
     5
 71
     0
 72
     2
 73
     0
 90
        0
 40
0.6
 41
30.0
 62
     5
 63
     7
 74
     1
 91
        4
 64
     7
 65
   257
 75
     1
175
     1
 42
1.0
 92
        0
 66
   257
 43
1.0
 76
     1
 77
     6
 78
     2
 67
     7
 79
     3
170
     0
171
     0
290
     0
174
     0
 93
        1
 44
0.0
173
     0
291
     0
 45
0.0
1001
ACAD
1000
AcDbSavedByObjectVersion
1070
     0
  0
VISUALSTYLE
  5
40
102
{ACAD_REACTORS
330
2A
102
}
102
{ACAD_XDICTIONARY
360
24C
102
}
330
2A
100
AcDbVisualStyle
  2
X-Ray
 70
    25
 71
     2
 72
     2
 73
     1
 90
        1
 40
0.5
 41
30.0
 62
     5
 63
     7
 74
     1
 91
        0
 64
     7
 65
   257
 75
     1
175
     1
 42
1.0
 92
        8
 66
     7
 43
1.0
 76
     1
 77
     6
 78
     2
 67
     7
 79
     3
170
     0
171
     0
290
     0
174
     0
 93
       13
 44
0.0
173
     0
291
     0
 45
0.0
1001
ACAD
1000
AcDbSavedByObjectVersion
1070
     0
  0
DICTIONARYVAR
  5
220
102
{ACAD_REACTORS
330
216
102
}
330
216
100
DictionaryVariables
280
     0
  1
1:1
  0
DICTIONARYVAR
  5
21D
102
{ACAD_REACTORS
330
216
102
}
330
216
100
DictionaryVariables
280
     0
  1
2
  0
DICTIONARYVAR
  5
21E
102
{ACAD_REACTORS
330
216
102
}
330
216
100
DictionaryVariables
280
     0
  1
1
  0
DICTIONARYVAR
  5
221
102
{ACAD_REACTORS
330
216
102
}
330
216
100
DictionaryVariables
280
     0
  1
1
  0
DICTIONARYVAR
  5
21A
102
{ACAD_REACTORS
330
216
102
}
330
216
100
DictionaryVariables
280
     0
  1
80.000000
  0
DICTIONARYVAR
  5
219
102
{ACAD_REACTORS
330
216
102
}
330
216
100
DictionaryVariables
280
     0
  1
5.000000
  0
DICTIONARY
  5
254
330
45
100
AcDbDictionary
280
     1
281
     1
  3
ACAD_XREC_ROUNDTRIP
360
255
  0
DICTIONARY
  5
252
330
44
100
AcDbDictionary
280
     1
281
     1
  3
ACAD_XREC_ROUNDTRIP
360
253
  0
DICTIONARY
  5
256
330
46
100
AcDbDictionary
280
     1
281
     1
  3
ACAD_XREC_ROUNDTRIP
360
257
  0
DICTIONARY
  5
22A
330
2F
100
AcDbDictionary
280
     1
281
     1
  3
ACAD_XREC_ROUNDTRIP
360
22B
  0
DICTIONARY
  5
230
330
32
100
AcDbDictionary
280
     1
281
     1
  3
ACAD_XREC_ROUNDTRIP
360
231
  0
DICTIONARY
  5
238
330
36
100
AcDbDictionary
280
     1
281
     1
  3
ACAD_XREC_ROUNDTRIP
360
239
  0
DICTIONARY
  5
240
330
3A
100
AcDbDictionary
280
     1
281
     1
  3
ACAD_XREC_ROUNDTRIP
360
241
  0
DICTIONARY
  5
234
330
34
100
AcDbDictionary
280
     1
281
     1
  3
ACAD_XREC_ROUNDTRIP
360
235
  0
DICTIONARY
  5
236
330
35
100
AcDbDictionary
280
     1
281
     1
  3
ACAD_XREC_ROUNDTRIP
360
237
  0
DICTIONARY
  5
246
330
3D
100
AcDbDictionary
280
     1
281
     1
  3
ACAD_XREC_ROUNDTRIP
360
247
  0
DICTIONARY
  5
23E
330
39
100
AcDbDictionary
280
     1
281
     1
  3
ACAD_XREC_ROUNDTRIP
360
23F
  0
DICTIONARY
  5
222
330
2B
100
AcDbDictionary
280
     1
281
     1
  3
ACAD_XREC_ROUNDTRIP
360
223
  0
DICTIONARY
  5
224
330
2C
100
AcDbDictionary
280
     1
281
     1
  3
ACAD_XREC_ROUNDTRIP
360
225
  0
DICTIONARY
  5
226
330
2D
100
AcDbDictionary
280
     1
281
     1
  3
ACAD_XREC_ROUNDTRIP
360
227
  0
DICTIONARY
  5
228
330
2E
100
AcDbDictionary
280
     1
281
     1
  3
ACAD_XREC_ROUNDTRIP
360
229
  0
DICTIONARY
  5
22E
330
31
100
AcDbDictionary
280
     1
281
     1
  3
ACAD_XREC_ROUNDTRIP
360
22F
  0
DICTIONARY
  5
242
330
3B
100
AcDbDictionary
280
     1
281
     1
  3
ACAD_XREC_ROUNDTRIP
360
243
  0
DICTIONARY
  5
23C
330
38
100
AcDbDictionary
280
     1
281
     1
  3
ACAD_XREC_ROUNDTRIP
360
23D
  0
DICTIONARY
  5
244
330
3C
100
AcDbDictionary
280
     1
281
     1
  3
ACAD_XREC_ROUNDTRIP
360
245
  0
DICTIONARY
  5
232
330
33
100
AcDbDictionary
280
     1
281
     1
  3
ACAD_XREC_ROUNDTRIP
360
233
  0
DICTIONARY
  5
250
330
42
100
AcDbDictionary
280
     1
281
     1
  3
ACAD_XREC_ROUNDTRIP
360
251
  0
DICTIONARY
  5
24E
330
41
100
AcDbDictionary
280
     1
281
     1
  3
ACAD_XREC_ROUNDTRIP
360
24F
  0
DICTIONARY
  5
248
330
3E
100
AcDbDictionary
280
     1
281
     1
  3
ACAD_XREC_ROUNDTRIP
360
249
  0
DICTIONARY
  5
24A
330
3F
100
AcDbDictionary
280
     1
281
     1
  3
ACAD_XREC_ROUNDTRIP
360
24B
  0
DICTIONARY
  5
23A
330
37
100
AcDbDictionary
280
     1
281
     1
  3
ACAD_XREC_ROUNDTRIP
360
23B
  0
DICTIONARY
  5
22C
330
30
100
AcDbDictionary
280
     1
281
     1
  3
ACAD_XREC_ROUNDTRIP
360
22D
  0
DICTIONARY
  5
24C
330
40
100
AcDbDictionary
280
     1
281
     1
  3
ACAD_XREC_ROUNDTRIP
360
24D
  0
XRECORD
  5
255
102
{ACAD_REACTORS
330
254
102
}
330
254
100
AcDbXrecord
280
     1
102
MATERIAL
148
0.0
149
0.0
149
0.0
 93
        0
 94
      127
282
     0
 72
     1
 77
     1
171
     1
175
     1
179
     1
273
     0
  0
XRECORD
  5
253
102
{ACAD_REACTORS
330
252
102
}
330
252
100
AcDbXrecord
280
     1
102
MATERIAL
148
0.0
149
0.0
149
0.0
 93
        0
 94
      127
282
     0
 72
     1
 77
     1
171
     1
175
     1
179
     1
273
     0
  0
XRECORD
  5
257
102
{ACAD_REACTORS
330
256
102
}
330
256
100
AcDbXrecord
280
     1
102
MATERIAL
148
0.0
149
0.0
149
0.0
 93
        0
 94
      127
282
     0
 72
     1
 77
     1
171
     1
175
     1
179
     1
273
     0
  0
XRECORD
  5
22B
102
{ACAD_REACTORS
330
22A
102
}
330
22A
100
AcDbXrecord
280
     1
102
RTVSPropertyOp0
 70
     1
102
RTVSPropertyOp1
 70
     1
102
RTVSPropertyOp2
 70
     1
102
RTVSPropertyOp3
 70
     1
102
RTVSPropertyOp4
 70
     1
102
RTVSPropertyOp5
 70
     1
102
RTVSPropertyOp6
 70
     1
102
RTVSPropertyOp7
 70
     1
102
RTVSPropertyOp8
 70
     1
102
RTVSPropertyOp9
 70
     1
102
RTVSPropertyOp10
 70
     1
102
RTVSPropertyOp11
 70
     1
102
RTVSPropertyOp12
 70
     1
102
RTVSPropertyOp13
 70
     1
102
RTVSPropertyOp14
 70
     1
102
RTVSPropertyOp15
 70
     1
102
RTVSPropertyOp16
 70
     1
102
RTVSPropertyOp17
 70
     1
102
RTVSPropertyOp18
 70
     1
102
RTVSPropertyOp19
 70
     1
102
RTVSPropertyOp20
 70
     1
102
RTVSPropertyOp21
 70
     1
102
RTVSPropertyOp22
 70
     1
102
RTVSPropertyOp23
 70
     1
102
RTVSPropertyOp24
 70
     1
102
RTVSPropertyOp25
 70
     1
102
RTVSPropertyOp26
 70
     1
102
RTVSPropertyOp27
 70
     1
102
RTVSPropertyOp28
 70
     1
102
RTVSPropertyOp29
 70
     1
102
RTVSPropertyOp30
 70
     1
102
RTVSPropertyOp31
 70
     1
102
RTVSPropertyOp32
 70
     1
102
RTVSPropertyOp33
 70
     1
102
RTVSPropertyOp34
 70
     1
102
RTVSPropertyOp35
 70
     1
102
RTVSPropertyOp36
 70
     1
102
RTVSPropertyOp37
 70
     1
102
RTVSPropertyOp38
 70
     1
102
RTVSPropertyOp39
 70
     1
102
RTVSPropertyOp40
 70
     1
102
RTVSPropertyOp41
 70
     1
102
RTVSPropertyOp42
 70
     1
102
RTVSPropertyOp43
 70
     1
102
RTVSPropertyOp44
 70
     1
102
RTVSPropertyOp45
 70
     1
102
RTVSPropertyOp46
 70
     1
102
RTVSPropertyOp47
 70
     1
102
RTVSPropertyOp48
 70
     1
102
RTVSPropertyOp49
 70
     1
102
RTVSPropertyOp50
 70
     1
102
RTVSPropertyOp51
 70
     0
102
RTVSPropertyOp52
 70
     0
102
RTVSPropertyOp53
 70
     1
102
RTVSPropertyOp54
 70
     1
102
RTVSPropertyOp55
 70
     1
102
RTVSPropertyOp56
 70
     1
102
RTVSPropertyOp57
 70
     1
102
RTVSPost2010Prop28
280
     1
102
RTVSPost2010PropOp28
 70
     1
102
RTVSPost2010Prop29
280
     1
102
RTVSPost2010PropOp29
 70
     1
102
RTVSPost2010Prop30
280
     0
102
RTVSPost2010PropOp30
 70
     1
102
RTVSPost2010Prop31
280
     0
102
RTVSPost2010PropOp31
 70
     1
102
RTVSPost2010Prop32
280
     0
102
RTVSPost2010PropOp32
 70
     1
102
RTVSPost2010Prop33
280
     0
102
RTVSPost2010PropOp33
 70
     1
102
RTVSPost2010Prop34
280
     0
102
RTVSPost2010PropOp34
 70
     1
102
RTVSPost2010Prop35
280
     0
102
RTVSPost2010PropOp35
 70
     1
102
RTVSPost2010Prop36
280
     0
102
RTVSPost2010PropOp36
 70
     1
102
RTVSPost2010Prop37
 90
       50
102
RTVSPost2010PropOp37
 70
     1
102
RTVSPost2010Prop38
140
0.0
102
RTVSPost2010PropOp38
 70
     1
102
RTVSPost2010Prop39
140
1.0
102
RTVSPost2010PropOp39
 70
     1
102
RTVSPost2010Prop40
 90
        0
102
RTVSPost2010PropOp40
 70
     1
102
RTVSPost2010Prop41ColorIndex
 90
       18
102
RTVSPost2010Prop41ColorRGB
 90
        0
102
RTVSPost2010PropOp41
 70
     1
102
RTVSPost2010Prop42
 90
       50
102
RTVSPost2010PropOp42
 70
     1
102
RTVSPost2010Prop43
 90
        3
102
RTVSPost2010PropOp43
 70
     1
102
RTVSPost2010Prop44ColorIndex
 90
        5
102
RTVSPost2010Prop44ColorRGB
 90
      255
102
RTVSPost2010PropOp44
 70
     1
102
RTVSPost2010Prop45
280
     0
102
RTVSPost2010PropOp45
 70
     1
102
RTVSPost2010Prop46
 90
       50
102
RTVSPost2010PropOp46
 70
     1
102
RTVSPost2010Prop47
 90
       50
102
RTVSPost2010PropOp47
 70
     1
102
RTVSPost2010Prop48
 90
       50
102
RTVSPost2010PropOp48
 70
     1
102
RTVSPost2010Prop49
280
     0
102
RTVSPost2010PropOp49
 70
     1
102
RTVSPost2010Prop50
 90
       50
102
RTVSPost2010PropOp50
 70
     1
102
RTVSPost2010Prop51ColorIndex
 90
      256
102
RTVSPost2010Prop51ColorRGB
 90
-16777216
102
RTVSPost2010PropOp51
 70
     0
102
RTVSPost2010Prop52
140
1.0
102
RTVSPost2010PropOp52
 70
     0
102
RTVSPost2010Prop53
 90
        2
102
RTVSPost2010PropOp53
 70
     1
102
RTVSPost2010Prop54
  1
strokes_ogs.tif
102
RTVSPost2010PropOp54
 70
     1
102
RTVSPost2010Prop55
280
     0
102
RTVSPost2010PropOp55
 70
     1
102
RTVSPost2010Prop56
140
1.0
102
RTVSPost2010PropOp56
 70
     1
102
RTVSPost2010Prop57
140
1.0
102
RTVSPost2010PropOp57
 70
     1
  0
XRECORD
  5
231
102
{ACAD_REACTORS
330
230
102
}
330
230
100
AcDbXrecord
280
     1
102
RTVSPropertyOp0
 70
     1
102
RTVSPropertyOp1
 70
     1
102
RTVSPropertyOp2
 70
     1
102
RTVSPropertyOp3
 70
     1
102
RTVSPropertyOp4
 70
     1
102
RTVSPropertyOp5
 70
     1
102
RTVSPropertyOp6
 70
     1
102
RTVSPropertyOp7
 70
     1
102
RTVSPropertyOp8
 70
     1
102
RTVSPropertyOp9
 70
     1
102
RTVSPropertyOp10
 70
     1
102
RTVSPropertyOp11
 70
     1
102
RTVSPropertyOp12
 70
     1
102
RTVSPropertyOp13
 70
     1
102
RTVSPropertyOp14
 70
     1
102
RTVSPropertyOp15
 70
     1
102
RTVSPropertyOp16
 70
     1
102
RTVSPropertyOp17
 70
     1
102
RTVSPropertyOp18
 70
     1
102
RTVSPropertyOp19
 70
     1
102
RTVSPropertyOp20
 70
     1
102
RTVSPropertyOp21
 70
     1
102
RTVSPropertyOp22
 70
     1
102
RTVSPropertyOp23
 70
     1
102
RTVSPropertyOp24
 70
     1
102
RTVSPropertyOp25
 70
     1
102
RTVSPropertyOp26
 70
     1
102
RTVSPropertyOp27
 70
     1
102
RTVSPropertyOp28
 70
     1
102
RTVSPropertyOp29
 70
     1
102
RTVSPropertyOp30
 70
     1
102
RTVSPropertyOp31
 70
     1
102
RTVSPropertyOp32
 70
     1
102
RTVSPropertyOp33
 70
     1
102
RTVSPropertyOp34
 70
     1
102
RTVSPropertyOp35
 70
     1
102
RTVSPropertyOp36
 70
     1
102
RTVSPropertyOp37
 70
     1
102
RTVSPropertyOp38
 70
     1
102
RTVSPropertyOp39
 70
     1
102
RTVSPropertyOp40
 70
     1
102
RTVSPropertyOp41
 70
     1
102
RTVSPropertyOp42
 70
     1
102
RTVSPropertyOp43
 70
     1
102
RTVSPropertyOp44
 70
     1
102
RTVSPropertyOp45
 70
     1
102
RTVSPropertyOp46
 70
     1
102
RTVSPropertyOp47
 70
     1
102
RTVSPropertyOp48
 70
     1
102
RTVSPropertyOp49
 70
     1
102
RTVSPropertyOp50
 70
     1
102
RTVSPropertyOp51
 70
     0
102
RTVSPropertyOp52
 70
     0
102
RTVSPropertyOp53
 70
     1
102
RTVSPropertyOp54
 70
     1
102
RTVSPropertyOp55
 70
     1
102
RTVSPropertyOp56
 70
     1
102
RTVSPropertyOp57
 70
     1
102
RTVSPost2010Prop28
280
     0
102
RTVSPost2010PropOp28
 70
     1
102
RTVSPost2010Prop29
280
     1
102
RTVSPost2010PropOp29
 70
     1
102
RTVSPost2010Prop30
280
     1
102
RTVSPost2010PropOp30
 70
     1
102
RTVSPost2010Prop31
280
     0
102
RTVSPost2010PropOp31
 70
     1
102
RTVSPost2010Prop32
280
     0
102
RTVSPost2010PropOp32
 70
     1
102
RTVSPost2010Prop33
280
     0
102
RTVSPost2010PropOp33
 70
     1
102
RTVSPost2010Prop34
280
     0
102
RTVSPost2010PropOp34
 70
     1
102
RTVSPost2010Prop35
280
     0
102
RTVSPost2010PropOp35
 70
     1
102
RTVSPost2010Prop36
280
     0
102
RTVSPost2010PropOp36
 70
     1
102
RTVSPost2010Prop37
 90
       50
102
RTVSPost2010PropOp37
 70
     1
102
RTVSPost2010Prop38
140
0.0
102
RTVSPost2010PropOp38
 70
     1
102
RTVSPost2010Prop39
140
1.0
102
RTVSPost2010PropOp39
 70
     1
102
RTVSPost2010Prop40
 90
        0
102
RTVSPost2010PropOp40
 70
     1
102
RTVSPost2010Prop41ColorIndex
 90
       18
102
RTVSPost2010Prop41ColorRGB
 90
        0
102
RTVSPost2010PropOp41
 70
     1
102
RTVSPost2010Prop42
 90
       50
102
RTVSPost2010PropOp42
 70
     1
102
RTVSPost2010Prop43
 90
        3
102
RTVSPost2010PropOp43
 70
     1
102
RTVSPost2010Prop44ColorIndex
 90
        5
102
RTVSPost2010Prop44ColorRGB
 90
      255
102
RTVSPost2010PropOp44
 70
     1
102
RTVSPost2010Prop45
280
     0
102
RTVSPost2010PropOp45
 70
     1
102
RTVSPost2010Prop46
 90
       50
102
RTVSPost2010PropOp46
 70
     1
102
RTVSPost2010Prop47
 90
       50
102
RTVSPost2010PropOp47
 70
     1
102
RTVSPost2010Prop48
 90
       50
102
RTVSPost2010PropOp48
 70
     1
102
RTVSPost2010Prop49
280
     0
102
RTVSPost2010PropOp49
 70
     1
102
RTVSPost2010Prop50
 90
       50
102
RTVSPost2010PropOp50
 70
     1
102
RTVSPost2010Prop51ColorIndex
 90
      256
102
RTVSPost2010Prop51ColorRGB
 90
-16777216
102
RTVSPost2010PropOp51
 70
     0
102
RTVSPost2010Prop52
140
1.0
102
RTVSPost2010PropOp52
 70
     0
102
RTVSPost2010Prop53
 90
        2
102
RTVSPost2010PropOp53
 70
     1
102
RTVSPost2010Prop54
  1
strokes_ogs.tif
102
RTVSPost2010PropOp54
 70
     1
102
RTVSPost2010Prop55
280
     0
102
RTVSPost2010PropOp55
 70
     1
102
RTVSPost2010Prop56
140
1.0
102
RTVSPost2010PropOp56
 70
     1
102
RTVSPost2010Prop57
140
1.0
102
RTVSPost2010PropOp57
 70
     1
  0
XRECORD
  5
239
102
{ACAD_REACTORS
330
238
102
}
330
238
100
AcDbXrecord
280
     1
102
RTVSPropertyOp0
 70
     1
102
RTVSPropertyOp1
 70
     1
102
RTVSPropertyOp2
 70
     1
102
RTVSPropertyOp3
 70
     1
102
RTVSPropertyOp4
 70
     1
102
RTVSPropertyOp5
 70
     1
102
RTVSPropertyOp6
 70
     1
102
RTVSPropertyOp7
 70
     1
102
RTVSPropertyOp8
 70
     1
102
RTVSPropertyOp9
 70
     1
102
RTVSPropertyOp10
 70
     1
102
RTVSPropertyOp11
 70
     1
102
RTVSPropertyOp12
 70
     1
102
RTVSPropertyOp13
 70
     1
102
RTVSPropertyOp14
 70
     1
102
RTVSPropertyOp15
 70
     1
102
RTVSPropertyOp16
 70
     1
102
RTVSPropertyOp17
 70
     1
102
RTVSPropertyOp18
 70
     1
102
RTVSPropertyOp19
 70
     1
102
RTVSPropertyOp20
 70
     1
102
RTVSPropertyOp21
 70
     1
102
RTVSPropertyOp22
 70
     1
102
RTVSPropertyOp23
 70
     1
102
RTVSPropertyOp24
 70
     1
102
RTVSPropertyOp25
 70
     1
102
RTVSPropertyOp26
 70
     1
102
RTVSPropertyOp27
 70
     1
102
RTVSPropertyOp28
 70
     1
102
RTVSPropertyOp29
 70
     1
102
RTVSPropertyOp30
 70
     1
102
RTVSPropertyOp31
 70
     1
102
RTVSPropertyOp32
 70
     1
102
RTVSPropertyOp33
 70
     1
102
RTVSPropertyOp34
 70
     1
102
RTVSPropertyOp35
 70
     1
102
RTVSPropertyOp36
 70
     1
102
RTVSPropertyOp37
 70
     1
102
RTVSPropertyOp38
 70
     1
102
RTVSPropertyOp39
 70
     1
102
RTVSPropertyOp40
 70
     1
102
RTVSPropertyOp41
 70
     1
102
RTVSPropertyOp42
 70
     1
102
RTVSPropertyOp43
 70
     1
102
RTVSPropertyOp44
 70
     1
102
RTVSPropertyOp45
 70
     1
102
RTVSPropertyOp46
 70
     1
102
RTVSPropertyOp47
 70
     1
102
RTVSPropertyOp48
 70
     1
102
RTVSPropertyOp49
 70
     1
102
RTVSPropertyOp50
 70
     1
102
RTVSPropertyOp51
 70
     0
102
RTVSPropertyOp52
 70
     0
102
RTVSPropertyOp53
 70
     1
102
RTVSPropertyOp54
 70
     1
102
RTVSPropertyOp55
 70
     1
102
RTVSPropertyOp56
 70
     1
102
RTVSPropertyOp57
 70
     1
102
RTVSPost2010Prop28
280
     0
102
RTVSPost2010PropOp28
 70
     1
102
RTVSPost2010Prop29
280
     1
102
RTVSPost2010PropOp29
 70
     1
102
RTVSPost2010Prop30
280
     1
102
RTVSPost2010PropOp30
 70
     1
102
RTVSPost2010Prop31
280
     0
102
RTVSPost2010PropOp31
 70
     1
102
RTVSPost2010Prop32
280
     0
102
RTVSPost2010PropOp32
 70
     1
102
RTVSPost2010Prop33
280
     0
102
RTVSPost2010PropOp33
 70
     1
102
RTVSPost2010Prop34
280
     0
102
RTVSPost2010PropOp34
 70
     1
102
RTVSPost2010Prop35
280
     0
102
RTVSPost2010PropOp35
 70
     1
102
RTVSPost2010Prop36
280
     0
102
RTVSPost2010PropOp36
 70
     1
102
RTVSPost2010Prop37
 90
       50
102
RTVSPost2010PropOp37
 70
     1
102
RTVSPost2010Prop38
140
0.0
102
RTVSPost2010PropOp38
 70
     1
102
RTVSPost2010Prop39
140
1.0
102
RTVSPost2010PropOp39
 70
     1
102
RTVSPost2010Prop40
 90
        0
102
RTVSPost2010PropOp40
 70
     1
102
RTVSPost2010Prop41ColorIndex
 90
       18
102
RTVSPost2010Prop41ColorRGB
 90
        0
102
RTVSPost2010PropOp41
 70
     1
102
RTVSPost2010Prop42
 90
       50
102
RTVSPost2010PropOp42
 70
     1
102
RTVSPost2010Prop43
 90
        3
102
RTVSPost2010PropOp43
 70
     1
102
RTVSPost2010Prop44ColorIndex
 90
        5
102
RTVSPost2010Prop44ColorRGB
 90
      255
102
RTVSPost2010PropOp44
 70
     1
102
RTVSPost2010Prop45
280
     0
102
RTVSPost2010PropOp45
 70
     1
102
RTVSPost2010Prop46
 90
       50
102
RTVSPost2010PropOp46
 70
     1
102
RTVSPost2010Prop47
 90
       50
102
RTVSPost2010PropOp47
 70
     1
102
RTVSPost2010Prop48
 90
       50
102
RTVSPost2010PropOp48
 70
     1
102
RTVSPost2010Prop49
280
     0
102
RTVSPost2010PropOp49
 70
     1
102
RTVSPost2010Prop50
 90
       50
102
RTVSPost2010PropOp50
 70
     1
102
RTVSPost2010Prop51ColorIndex
 90
      256
102
RTVSPost2010Prop51ColorRGB
 90
-16777216
102
RTVSPost2010PropOp51
 70
     0
102
RTVSPost2010Prop52
140
1.0
102
RTVSPost2010PropOp52
 70
     0
102
RTVSPost2010Prop53
 90
        2
102
RTVSPost2010PropOp53
 70
     1
102
RTVSPost2010Prop54
  1
strokes_ogs.tif
102
RTVSPost2010PropOp54
 70
     1
102
RTVSPost2010Prop55
280
     0
102
RTVSPost2010PropOp55
 70
     1
102
RTVSPost2010Prop56
140
1.0
102
RTVSPost2010PropOp56
 70
     1
102
RTVSPost2010Prop57
140
1.0
102
RTVSPost2010PropOp57
 70
     1
  0
XRECORD
  5
241
102
{ACAD_REACTORS
330
240
102
}
330
240
100
AcDbXrecord
280
     1
102
RTVSPropertyOp0
 70
     1
102
RTVSPropertyOp1
 70
     1
102
RTVSPropertyOp2
 70
     1
102
RTVSPropertyOp3
 70
     1
102
RTVSPropertyOp4
 70
     1
102
RTVSPropertyOp5
 70
     1
102
RTVSPropertyOp6
 70
     1
102
RTVSPropertyOp7
 70
     1
102
RTVSPropertyOp8
 70
     1
102
RTVSPropertyOp9
 70
     1
102
RTVSPropertyOp10
 70
     1
102
RTVSPropertyOp11
 70
     1
102
RTVSPropertyOp12
 70
     1
102
RTVSPropertyOp13
 70
     1
102
RTVSPropertyOp14
 70
     1
102
RTVSPropertyOp15
 70
     1
102
RTVSPropertyOp16
 70
     1
102
RTVSPropertyOp17
 70
     1
102
RTVSPropertyOp18
 70
     1
102
RTVSPropertyOp19
 70
     1
102
RTVSPropertyOp20
 70
     1
102
RTVSPropertyOp21
 70
     1
102
RTVSPropertyOp22
 70
     1
102
RTVSPropertyOp23
 70
     1
102
RTVSPropertyOp24
 70
     1
102
RTVSPropertyOp25
 70
     1
102
RTVSPropertyOp26
 70
     1
102
RTVSPropertyOp27
 70
     1
102
RTVSPropertyOp28
 70
     1
102
RTVSPropertyOp29
 70
     1
102
RTVSPropertyOp30
 70
     1
102
RTVSPropertyOp31
 70
     1
102
RTVSPropertyOp32
 70
     1
102
RTVSPropertyOp33
 70
     1
102
RTVSPropertyOp34
 70
     1
102
RTVSPropertyOp35
 70
     1
102
RTVSPropertyOp36
 70
     1
102
RTVSPropertyOp37
 70
     1
102
RTVSPropertyOp38
 70
     1
102
RTVSPropertyOp39
 70
     1
102
RTVSPropertyOp40
 70
     1
102
RTVSPropertyOp41
 70
     1
102
RTVSPropertyOp42
 70
     1
102
RTVSPropertyOp43
 70
     1
102
RTVSPropertyOp44
 70
     1
102
RTVSPropertyOp45
 70
     1
102
RTVSPropertyOp46
 70
     1
102
RTVSPropertyOp47
 70
     1
102
RTVSPropertyOp48
 70
     1
102
RTVSPropertyOp49
 70
     1
102
RTVSPropertyOp50
 70
     1
102
RTVSPropertyOp51
 70
     0
102
RTVSPropertyOp52
 70
     0
102
RTVSPropertyOp53
 70
     1
102
RTVSPropertyOp54
 70
     1
102
RTVSPropertyOp55
 70
     1
102
RTVSPropertyOp56
 70
     1
102
RTVSPropertyOp57
 70
     1
102
RTVSPost2010Prop28
280
     0
102
RTVSPost2010PropOp28
 70
     1
102
RTVSPost2010Prop29
280
     1
102
RTVSPost2010PropOp29
 70
     1
102
RTVSPost2010Prop30
280
     1
102
RTVSPost2010PropOp30
 70
     1
102
RTVSPost2010Prop31
280
     0
102
RTVSPost2010PropOp31
 70
     1
102
RTVSPost2010Prop32
280
     0
102
RTVSPost2010PropOp32
 70
     1
102
RTVSPost2010Prop33
280
     0
102
RTVSPost2010PropOp33
 70
     1
102
RTVSPost2010Prop34
280
     0
102
RTVSPost2010PropOp34
 70
     1
102
RTVSPost2010Prop35
280
     0
102
RTVSPost2010PropOp35
 70
     1
102
RTVSPost2010Prop36
280
     0
102
RTVSPost2010PropOp36
 70
     1
102
RTVSPost2010Prop37
 90
       50
102
RTVSPost2010PropOp37
 70
     1
102
RTVSPost2010Prop38
140
0.0
102
RTVSPost2010PropOp38
 70
     1
102
RTVSPost2010Prop39
140
1.0
102
RTVSPost2010PropOp39
 70
     1
102
RTVSPost2010Prop40
 90
        0
102
RTVSPost2010PropOp40
 70
     1
102
RTVSPost2010Prop41ColorIndex
 90
       18
102
RTVSPost2010Prop41ColorRGB
 90
        0
102
RTVSPost2010PropOp41
 70
     1
102
RTVSPost2010Prop42
 90
       50
102
RTVSPost2010PropOp42
 70
     1
102
RTVSPost2010Prop43
 90
        3
102
RTVSPost2010PropOp43
 70
     1
102
RTVSPost2010Prop44ColorIndex
 90
        5
102
RTVSPost2010Prop44ColorRGB
 90
      255
102
RTVSPost2010PropOp44
 70
     1
102
RTVSPost2010Prop45
280
     0
102
RTVSPost2010PropOp45
 70
     1
102
RTVSPost2010Prop46
 90
       50
102
RTVSPost2010PropOp46
 70
     1
102
RTVSPost2010Prop47
 90
       50
102
RTVSPost2010PropOp47
 70
     1
102
RTVSPost2010Prop48
 90
       50
102
RTVSPost2010PropOp48
 70
     1
102
RTVSPost2010Prop49
280
     0
102
RTVSPost2010PropOp49
 70
     1
102
RTVSPost2010Prop50
 90
       50
102
RTVSPost2010PropOp50
 70
     1
102
RTVSPost2010Prop51ColorIndex
 90
      256
102
RTVSPost2010Prop51ColorRGB
 90
-16777216
102
RTVSPost2010PropOp51
 70
     0
102
RTVSPost2010Prop52
140
1.0
102
RTVSPost2010PropOp52
 70
     0
102
RTVSPost2010Prop53
 90
        2
102
RTVSPost2010PropOp53
 70
     1
102
RTVSPost2010Prop54
  1
strokes_ogs.tif
102
RTVSPost2010PropOp54
 70
     1
102
RTVSPost2010Prop55
280
     0
102
RTVSPost2010PropOp55
 70
     1
102
RTVSPost2010Prop56
140
1.0
102
RTVSPost2010PropOp56
 70
     1
102
RTVSPost2010Prop57
140
1.0
102
RTVSPost2010PropOp57
 70
     1
  0
XRECORD
  5
235
102
{ACAD_REACTORS
330
234
102
}
330
234
100
AcDbXrecord
280
     1
102
RTVSPropertyOp0
 70
     1
102
RTVSPropertyOp1
 70
     1
102
RTVSPropertyOp2
 70
     1
102
RTVSPropertyOp3
 70
     1
102
RTVSPropertyOp4
 70
     1
102
RTVSPropertyOp5
 70
     1
102
RTVSPropertyOp6
 70
     1
102
RTVSPropertyOp7
 70
     1
102
RTVSPropertyOp8
 70
     1
102
RTVSPropertyOp9
 70
     1
102
RTVSPropertyOp10
 70
     1
102
RTVSPropertyOp11
 70
     1
102
RTVSPropertyOp12
 70
     1
102
RTVSPropertyOp13
 70
     1
102
RTVSPropertyOp14
 70
     1
102
RTVSPropertyOp15
 70
     1
102
RTVSPropertyOp16
 70
     1
102
RTVSPropertyOp17
 70
     1
102
RTVSPropertyOp18
 70
     1
102
RTVSPropertyOp19
 70
     1
102
RTVSPropertyOp20
 70
     1
102
RTVSPropertyOp21
 70
     1
102
RTVSPropertyOp22
 70
     1
102
RTVSPropertyOp23
 70
     1
102
RTVSPropertyOp24
 70
     1
102
RTVSPropertyOp25
 70
     1
102
RTVSPropertyOp26
 70
     1
102
RTVSPropertyOp27
 70
     1
102
RTVSPropertyOp28
 70
     1
102
RTVSPropertyOp29
 70
     1
102
RTVSPropertyOp30
 70
     1
102
RTVSPropertyOp31
 70
     1
102
RTVSPropertyOp32
 70
     1
102
RTVSPropertyOp33
 70
     1
102
RTVSPropertyOp34
 70
     1
102
RTVSPropertyOp35
 70
     1
102
RTVSPropertyOp36
 70
     1
102
RTVSPropertyOp37
 70
     1
102
RTVSPropertyOp38
 70
     1
102
RTVSPropertyOp39
 70
     1
102
RTVSPropertyOp40
 70
     1
102
RTVSPropertyOp41
 70
     1
102
RTVSPropertyOp42
 70
     1
102
RTVSPropertyOp43
 70
     1
102
RTVSPropertyOp44
 70
     1
102
RTVSPropertyOp45
 70
     1
102
RTVSPropertyOp46
 70
     1
102
RTVSPropertyOp47
 70
     1
102
RTVSPropertyOp48
 70
     1
102
RTVSPropertyOp49
 70
     1
102
RTVSPropertyOp50
 70
     1
102
RTVSPropertyOp51
 70
     0
102
RTVSPropertyOp52
 70
     0
102
RTVSPropertyOp53
 70
     1
102
RTVSPropertyOp54
 70
     1
102
RTVSPropertyOp55
 70
     1
102
RTVSPropertyOp56
 70
     1
102
RTVSPropertyOp57
 70
     1
102
RTVSPost2010Prop28
280
     0
102
RTVSPost2010PropOp28
 70
     1
102
RTVSPost2010Prop29
280
     1
102
RTVSPost2010PropOp29
 70
     1
102
RTVSPost2010Prop30
280
     1
102
RTVSPost2010PropOp30
 70
     1
102
RTVSPost2010Prop31
280
     0
102
RTVSPost2010PropOp31
 70
     1
102
RTVSPost2010Prop32
280
     0
102
RTVSPost2010PropOp32
 70
     1
102
RTVSPost2010Prop33
280
     0
102
RTVSPost2010PropOp33
 70
     1
102
RTVSPost2010Prop34
280
     0
102
RTVSPost2010PropOp34
 70
     1
102
RTVSPost2010Prop35
280
     0
102
RTVSPost2010PropOp35
 70
     1
102
RTVSPost2010Prop36
280
     0
102
RTVSPost2010PropOp36
 70
     1
102
RTVSPost2010Prop37
 90
       50
102
RTVSPost2010PropOp37
 70
     1
102
RTVSPost2010Prop38
140
0.0
102
RTVSPost2010PropOp38
 70
     1
102
RTVSPost2010Prop39
140
1.0
102
RTVSPost2010PropOp39
 70
     1
102
RTVSPost2010Prop40
 90
        0
102
RTVSPost2010PropOp40
 70
     1
102
RTVSPost2010Prop41ColorIndex
 90
       18
102
RTVSPost2010Prop41ColorRGB
 90
        0
102
RTVSPost2010PropOp41
 70
     1
102
RTVSPost2010Prop42
 90
       50
102
RTVSPost2010PropOp42
 70
     1
102
RTVSPost2010Prop43
 90
        3
102
RTVSPost2010PropOp43
 70
     1
102
RTVSPost2010Prop44ColorIndex
 90
        5
102
RTVSPost2010Prop44ColorRGB
 90
      255
102
RTVSPost2010PropOp44
 70
     1
102
RTVSPost2010Prop45
280
     0
102
RTVSPost2010PropOp45
 70
     1
102
RTVSPost2010Prop46
 90
       50
102
RTVSPost2010PropOp46
 70
     1
102
RTVSPost2010Prop47
 90
       50
102
RTVSPost2010PropOp47
 70
     1
102
RTVSPost2010Prop48
 90
       50
102
RTVSPost2010PropOp48
 70
     1
102
RTVSPost2010Prop49
280
     0
102
RTVSPost2010PropOp49
 70
     1
102
RTVSPost2010Prop50
 90
       50
102
RTVSPost2010PropOp50
 70
     1
102
RTVSPost2010Prop51ColorIndex
 90
      256
102
RTVSPost2010Prop51ColorRGB
 90
-16777216
102
RTVSPost2010PropOp51
 70
     0
102
RTVSPost2010Prop52
140
1.0
102
RTVSPost2010PropOp52
 70
     0
102
RTVSPost2010Prop53
 90
        2
102
RTVSPost2010PropOp53
 70
     1
102
RTVSPost2010Prop54
  1
strokes_ogs.tif
102
RTVSPost2010PropOp54
 70
     1
102
RTVSPost2010Prop55
280
     0
102
RTVSPost2010PropOp55
 70
     1
102
RTVSPost2010Prop56
140
1.0
102
RTVSPost2010PropOp56
 70
     1
102
RTVSPost2010Prop57
140
1.0
102
RTVSPost2010PropOp57
 70
     1
  0
XRECORD
  5
237
102
{ACAD_REACTORS
330
236
102
}
330
236
100
AcDbXrecord
280
     1
102
RTVSPropertyOp0
 70
     1
102
RTVSPropertyOp1
 70
     1
102
RTVSPropertyOp2
 70
     1
102
RTVSPropertyOp3
 70
     1
102
RTVSPropertyOp4
 70
     1
102
RTVSPropertyOp5
 70
     1
102
RTVSPropertyOp6
 70
     1
102
RTVSPropertyOp7
 70
     1
102
RTVSPropertyOp8
 70
     1
102
RTVSPropertyOp9
 70
     1
102
RTVSPropertyOp10
 70
     1
102
RTVSPropertyOp11
 70
     1
102
RTVSPropertyOp12
 70
     1
102
RTVSPropertyOp13
 70
     1
102
RTVSPropertyOp14
 70
     1
102
RTVSPropertyOp15
 70
     1
102
RTVSPropertyOp16
 70
     1
102
RTVSPropertyOp17
 70
     1
102
RTVSPropertyOp18
 70
     1
102
RTVSPropertyOp19
 70
     1
102
RTVSPropertyOp20
 70
     1
102
RTVSPropertyOp21
 70
     1
102
RTVSPropertyOp22
 70
     1
102
RTVSPropertyOp23
 70
     1
102
RTVSPropertyOp24
 70
     1
102
RTVSPropertyOp25
 70
     1
102
RTVSPropertyOp26
 70
     1
102
RTVSPropertyOp27
 70
     1
102
RTVSPropertyOp28
 70
     1
102
RTVSPropertyOp29
 70
     1
102
RTVSPropertyOp30
 70
     1
102
RTVSPropertyOp31
 70
     1
102
RTVSPropertyOp32
 70
     1
102
RTVSPropertyOp33
 70
     1
102
RTVSPropertyOp34
 70
     1
102
RTVSPropertyOp35
 70
     1
102
RTVSPropertyOp36
 70
     1
102
RTVSPropertyOp37
 70
     1
102
RTVSPropertyOp38
 70
     1
102
RTVSPropertyOp39
 70
     1
102
RTVSPropertyOp40
 70
     1
102
RTVSPropertyOp41
 70
     1
102
RTVSPropertyOp42
 70
     1
102
RTVSPropertyOp43
 70
     1
102
RTVSPropertyOp44
 70
     1
102
RTVSPropertyOp45
 70
     1
102
RTVSPropertyOp46
 70
     1
102
RTVSPropertyOp47
 70
     1
102
RTVSPropertyOp48
 70
     1
102
RTVSPropertyOp49
 70
     1
102
RTVSPropertyOp50
 70
     1
102
RTVSPropertyOp51
 70
     0
102
RTVSPropertyOp52
 70
     0
102
RTVSPropertyOp53
 70
     1
102
RTVSPropertyOp54
 70
     1
102
RTVSPropertyOp55
 70
     1
102
RTVSPropertyOp56
 70
     1
102
RTVSPropertyOp57
 70
     1
102
RTVSPost2010Prop28
280
     0
102
RTVSPost2010PropOp28
 70
     1
102
RTVSPost2010Prop29
280
     1
102
RTVSPost2010PropOp29
 70
     1
102
RTVSPost2010Prop30
280
     1
102
RTVSPost2010PropOp30
 70
     1
102
RTVSPost2010Prop31
280
     0
102
RTVSPost2010PropOp31
 70
     1
102
RTVSPost2010Prop32
280
     0
102
RTVSPost2010PropOp32
 70
     1
102
RTVSPost2010Prop33
280
     0
102
RTVSPost2010PropOp33
 70
     1
102
RTVSPost2010Prop34
280
     0
102
RTVSPost2010PropOp34
 70
     1
102
RTVSPost2010Prop35
280
     0
102
RTVSPost2010PropOp35
 70
     1
102
RTVSPost2010Prop36
280
     0
102
RTVSPost2010PropOp36
 70
     1
102
RTVSPost2010Prop37
 90
       50
102
RTVSPost2010PropOp37
 70
     1
102
RTVSPost2010Prop38
140
0.0
102
RTVSPost2010PropOp38
 70
     1
102
RTVSPost2010Prop39
140
1.0
102
RTVSPost2010PropOp39
 70
     1
102
RTVSPost2010Prop40
 90
        0
102
RTVSPost2010PropOp40
 70
     1
102
RTVSPost2010Prop41ColorIndex
 90
       18
102
RTVSPost2010Prop41ColorRGB
 90
        0
102
RTVSPost2010PropOp41
 70
     1
102
RTVSPost2010Prop42
 90
       50
102
RTVSPost2010PropOp42
 70
     1
102
RTVSPost2010Prop43
 90
        3
102
RTVSPost2010PropOp43
 70
     1
102
RTVSPost2010Prop44ColorIndex
 90
        5
102
RTVSPost2010Prop44ColorRGB
 90
      255
102
RTVSPost2010PropOp44
 70
     1
102
RTVSPost2010Prop45
280
     0
102
RTVSPost2010PropOp45
 70
     1
102
RTVSPost2010Prop46
 90
       50
102
RTVSPost2010PropOp46
 70
     1
102
RTVSPost2010Prop47
 90
       50
102
RTVSPost2010PropOp47
 70
     1
102
RTVSPost2010Prop48
 90
       50
102
RTVSPost2010PropOp48
 70
     1
102
RTVSPost2010Prop49
280
     0
102
RTVSPost2010PropOp49
 70
     1
102
RTVSPost2010Prop50
 90
       50
102
RTVSPost2010PropOp50
 70
     1
102
RTVSPost2010Prop51ColorIndex
 90
      256
102
RTVSPost2010Prop51ColorRGB
 90
-16777216
102
RTVSPost2010PropOp51
 70
     0
102
RTVSPost2010Prop52
140
1.0
102
RTVSPost2010PropOp52
 70
     0
102
RTVSPost2010Prop53
 90
        2
102
RTVSPost2010PropOp53
 70
     1
102
RTVSPost2010Prop54
  1
strokes_ogs.tif
102
RTVSPost2010PropOp54
 70
     1
102
RTVSPost2010Prop55
280
     0
102
RTVSPost2010PropOp55
 70
     1
102
RTVSPost2010Prop56
140
1.0
102
RTVSPost2010PropOp56
 70
     1
102
RTVSPost2010Prop57
140
1.0
102
RTVSPost2010PropOp57
 70
     1
  0
XRECORD
  5
247
102
{ACAD_REACTORS
330
246
102
}
330
246
100
AcDbXrecord
280
     1
102
RTVSPropertyOp0
 70
     0
102
RTVSPropertyOp1
 70
     0
102
RTVSPropertyOp2
 70
     0
102
RTVSPropertyOp3
 70
     0
102
RTVSPropertyOp4
 70
     0
102
RTVSPropertyOp5
 70
     0
102
RTVSPropertyOp6
 70
     0
102
RTVSPropertyOp7
 70
     0
102
RTVSPropertyOp8
 70
     0
102
RTVSPropertyOp9
 70
     0
102
RTVSPropertyOp10
 70
     0
102
RTVSPropertyOp11
 70
     0
102
RTVSPropertyOp12
 70
     0
102
RTVSPropertyOp13
 70
     0
102
RTVSPropertyOp14
 70
     2
102
RTVSPropertyOp15
 70
     0
102
RTVSPropertyOp16
 70
     0
102
RTVSPropertyOp17
 70
     0
102
RTVSPropertyOp18
 70
     0
102
RTVSPropertyOp19
 70
     0
102
RTVSPropertyOp20
 70
     0
102
RTVSPropertyOp21
 70
     0
102
RTVSPropertyOp22
 70
     0
102
RTVSPropertyOp23
 70
     0
102
RTVSPropertyOp24
 70
     0
102
RTVSPropertyOp25
 70
     0
102
RTVSPropertyOp26
 70
     0
102
RTVSPropertyOp27
 70
     0
102
RTVSPropertyOp28
 70
     0
102
RTVSPropertyOp29
 70
     0
102
RTVSPropertyOp30
 70
     0
102
RTVSPropertyOp31
 70
     0
102
RTVSPropertyOp32
 70
     0
102
RTVSPropertyOp33
 70
     0
102
RTVSPropertyOp34
 70
     0
102
RTVSPropertyOp35
 70
     0
102
RTVSPropertyOp36
 70
     0
102
RTVSPropertyOp37
 70
     0
102
RTVSPropertyOp38
 70
     0
102
RTVSPropertyOp39
 70
     0
102
RTVSPropertyOp40
 70
     0
102
RTVSPropertyOp41
 70
     0
102
RTVSPropertyOp42
 70
     0
102
RTVSPropertyOp43
 70
     0
102
RTVSPropertyOp44
 70
     0
102
RTVSPropertyOp45
 70
     0
102
RTVSPropertyOp46
 70
     0
102
RTVSPropertyOp47
 70
     0
102
RTVSPropertyOp48
 70
     0
102
RTVSPropertyOp49
 70
     0
102
RTVSPropertyOp50
 70
     0
102
RTVSPropertyOp51
 70
     0
102
RTVSPropertyOp52
 70
     0
102
RTVSPropertyOp53
 70
     0
102
RTVSPropertyOp54
 70
     0
102
RTVSPropertyOp55
 70
     0
102
RTVSPropertyOp56
 70
     0
102
RTVSPropertyOp57
 70
     0
102
RTVSPost2010Prop28
280
     0
102
RTVSPost2010PropOp28
 70
     0
102
RTVSPost2010Prop29
280
     1
102
RTVSPost2010PropOp29
 70
     0
102
RTVSPost2010Prop30
280
     1
102
RTVSPost2010PropOp30
 70
     0
102
RTVSPost2010Prop31
280
     0
102
RTVSPost2010PropOp31
 70
     0
102
RTVSPost2010Prop32
280
     0
102
RTVSPost2010PropOp32
 70
     0
102
RTVSPost2010Prop33
280
     0
102
RTVSPost2010PropOp33
 70
     0
102
RTVSPost2010Prop34
280
     0
102
RTVSPost2010PropOp34
 70
     0
102
RTVSPost2010Prop35
280
     0
102
RTVSPost2010PropOp35
 70
     0
102
RTVSPost2010Prop36
280
     0
102
RTVSPost2010PropOp36
 70
     0
102
RTVSPost2010Prop37
 90
       50
102
RTVSPost2010PropOp37
 70
     0
102
RTVSPost2010Prop38
140
0.0
102
RTVSPost2010PropOp38
 70
     0
102
RTVSPost2010Prop39
140
1.0
102
RTVSPost2010PropOp39
 70
     0
102
RTVSPost2010Prop40
 90
        0
102
RTVSPost2010PropOp40
 70
     0
102
RTVSPost2010Prop41ColorIndex
 90
       18
102
RTVSPost2010Prop41ColorRGB
 90
        0
102
RTVSPost2010PropOp41
 70
     0
102
RTVSPost2010Prop42
 90
       50
102
RTVSPost2010PropOp42
 70
     0
102
RTVSPost2010Prop43
 90
        3
102
RTVSPost2010PropOp43
 70
     0
102
RTVSPost2010Prop44ColorIndex
 90
        5
102
RTVSPost2010Prop44ColorRGB
 90
      255
102
RTVSPost2010PropOp44
 70
     0
102
RTVSPost2010Prop45
280
     0
102
RTVSPost2010PropOp45
 70
     0
102
RTVSPost2010Prop46
 90
       50
102
RTVSPost2010PropOp46
 70
     0
102
RTVSPost2010Prop47
 90
       50
102
RTVSPost2010PropOp47
 70
     0
102
RTVSPost2010Prop48
 90
       50
102
RTVSPost2010PropOp48
 70
     0
102
RTVSPost2010Prop49
280
     0
102
RTVSPost2010PropOp49
 70
     0
102
RTVSPost2010Prop50
 90
       50
102
RTVSPost2010PropOp50
 70
     0
102
RTVSPost2010Prop51ColorIndex
 90
      256
102
RTVSPost2010Prop51ColorRGB
 90
-16777216
102
RTVSPost2010PropOp51
 70
     0
102
RTVSPost2010Prop52
140
1.0
102
RTVSPost2010PropOp52
 70
     0
102
RTVSPost2010Prop53
 90
        2
102
RTVSPost2010PropOp53
 70
     0
102
RTVSPost2010Prop54
  1
strokes_ogs.tif
102
RTVSPost2010PropOp54
 70
     0
102
RTVSPost2010Prop55
280
     0
102
RTVSPost2010PropOp55
 70
     0
102
RTVSPost2010Prop56
140
1.0
102
RTVSPost2010PropOp56
 70
     0
102
RTVSPost2010Prop57
140
1.0
102
RTVSPost2010PropOp57
 70
     0
  0
XRECORD
  5
23F
102
{ACAD_REACTORS
330
23E
102
}
330
23E
100
AcDbXrecord
280
     1
102
RTVSPropertyOp0
 70
     1
102
RTVSPropertyOp1
 70
     1
102
RTVSPropertyOp2
 70
     1
102
RTVSPropertyOp3
 70
     1
102
RTVSPropertyOp4
 70
     1
102
RTVSPropertyOp5
 70
     1
102
RTVSPropertyOp6
 70
     1
102
RTVSPropertyOp7
 70
     1
102
RTVSPropertyOp8
 70
     1
102
RTVSPropertyOp9
 70
     1
102
RTVSPropertyOp10
 70
     1
102
RTVSPropertyOp11
 70
     1
102
RTVSPropertyOp12
 70
     1
102
RTVSPropertyOp13
 70
     1
102
RTVSPropertyOp14
 70
     1
102
RTVSPropertyOp15
 70
     1
102
RTVSPropertyOp16
 70
     1
102
RTVSPropertyOp17
 70
     1
102
RTVSPropertyOp18
 70
     1
102
RTVSPropertyOp19
 70
     1
102
RTVSPropertyOp20
 70
     1
102
RTVSPropertyOp21
 70
     1
102
RTVSPropertyOp22
 70
     1
102
RTVSPropertyOp23
 70
     1
102
RTVSPropertyOp24
 70
     1
102
RTVSPropertyOp25
 70
     1
102
RTVSPropertyOp26
 70
     1
102
RTVSPropertyOp27
 70
     1
102
RTVSPropertyOp28
 70
     1
102
RTVSPropertyOp29
 70
     1
102
RTVSPropertyOp30
 70
     1
102
RTVSPropertyOp31
 70
     1
102
RTVSPropertyOp32
 70
     1
102
RTVSPropertyOp33
 70
     1
102
RTVSPropertyOp34
 70
     1
102
RTVSPropertyOp35
 70
     1
102
RTVSPropertyOp36
 70
     1
102
RTVSPropertyOp37
 70
     1
102
RTVSPropertyOp38
 70
     1
102
RTVSPropertyOp39
 70
     1
102
RTVSPropertyOp40
 70
     1
102
RTVSPropertyOp41
 70
     1
102
RTVSPropertyOp42
 70
     1
102
RTVSPropertyOp43
 70
     1
102
RTVSPropertyOp44
 70
     1
102
RTVSPropertyOp45
 70
     1
102
RTVSPropertyOp46
 70
     1
102
RTVSPropertyOp47
 70
     1
102
RTVSPropertyOp48
 70
     1
102
RTVSPropertyOp49
 70
     1
102
RTVSPropertyOp50
 70
     1
102
RTVSPropertyOp51
 70
     0
102
RTVSPropertyOp52
 70
     0
102
RTVSPropertyOp53
 70
     1
102
RTVSPropertyOp54
 70
     1
102
RTVSPropertyOp55
 70
     1
102
RTVSPropertyOp56
 70
     1
102
RTVSPropertyOp57
 70
     1
102
RTVSPost2010Prop28
280
     0
102
RTVSPost2010PropOp28
 70
     1
102
RTVSPost2010Prop29
280
     1
102
RTVSPost2010PropOp29
 70
     1
102
RTVSPost2010Prop30
280
     1
102
RTVSPost2010PropOp30
 70
     1
102
RTVSPost2010Prop31
280
     0
102
RTVSPost2010PropOp31
 70
     1
102
RTVSPost2010Prop32
280
     0
102
RTVSPost2010PropOp32
 70
     1
102
RTVSPost2010Prop33
280
     0
102
RTVSPost2010PropOp33
 70
     1
102
RTVSPost2010Prop34
280
     0
102
RTVSPost2010PropOp34
 70
     1
102
RTVSPost2010Prop35
280
     0
102
RTVSPost2010PropOp35
 70
     1
102
RTVSPost2010Prop36
280
     0
102
RTVSPost2010PropOp36
 70
     1
102
RTVSPost2010Prop37
 90
       50
102
RTVSPost2010PropOp37
 70
     1
102
RTVSPost2010Prop38
140
0.0
102
RTVSPost2010PropOp38
 70
     1
102
RTVSPost2010Prop39
140
1.0
102
RTVSPost2010PropOp39
 70
     1
102
RTVSPost2010Prop40
 90
        0
102
RTVSPost2010PropOp40
 70
     1
102
RTVSPost2010Prop41ColorIndex
 90
       18
102
RTVSPost2010Prop41ColorRGB
 90
        0
102
RTVSPost2010PropOp41
 70
     1
102
RTVSPost2010Prop42
 90
       50
102
RTVSPost2010PropOp42
 70
     1
102
RTVSPost2010Prop43
 90
        3
102
RTVSPost2010PropOp43
 70
     1
102
RTVSPost2010Prop44ColorIndex
 90
        5
102
RTVSPost2010Prop44ColorRGB
 90
      255
102
RTVSPost2010PropOp44
 70
     1
102
RTVSPost2010Prop45
280
     0
102
RTVSPost2010PropOp45
 70
     1
102
RTVSPost2010Prop46
 90
       50
102
RTVSPost2010PropOp46
 70
     1
102
RTVSPost2010Prop47
 90
       50
102
RTVSPost2010PropOp47
 70
     1
102
RTVSPost2010Prop48
 90
       50
102
RTVSPost2010PropOp48
 70
     1
102
RTVSPost2010Prop49
280
     0
102
RTVSPost2010PropOp49
 70
     1
102
RTVSPost2010Prop50
 90
       50
102
RTVSPost2010PropOp50
 70
     1
102
RTVSPost2010Prop51ColorIndex
 90
      256
102
RTVSPost2010Prop51ColorRGB
 90
-16777216
102
RTVSPost2010PropOp51
 70
     0
102
RTVSPost2010Prop52
140
1.0
102
RTVSPost2010PropOp52
 70
     0
102
RTVSPost2010Prop53
 90
        2
102
RTVSPost2010PropOp53
 70
     1
102
RTVSPost2010Prop54
  1
strokes_ogs.tif
102
RTVSPost2010PropOp54
 70
     1
102
RTVSPost2010Prop55
280
     0
102
RTVSPost2010PropOp55
 70
     1
102
RTVSPost2010Prop56
140
1.0
102
RTVSPost2010PropOp56
 70
     1
102
RTVSPost2010Prop57
140
1.0
102
RTVSPost2010PropOp57
 70
     1
  0
XRECORD
  5
223
102
{ACAD_REACTORS
330
222
102
}
330
222
100
AcDbXrecord
280
     1
102
RTVSPropertyOp0
 70
     1
102
RTVSPropertyOp1
 70
     1
102
RTVSPropertyOp2
 70
     1
102
RTVSPropertyOp3
 70
     1
102
RTVSPropertyOp4
 70
     1
102
RTVSPropertyOp5
 70
     1
102
RTVSPropertyOp6
 70
     1
102
RTVSPropertyOp7
 70
     1
102
RTVSPropertyOp8
 70
     1
102
RTVSPropertyOp9
 70
     1
102
RTVSPropertyOp10
 70
     1
102
RTVSPropertyOp11
 70
     1
102
RTVSPropertyOp12
 70
     1
102
RTVSPropertyOp13
 70
     1
102
RTVSPropertyOp14
 70
     1
102
RTVSPropertyOp15
 70
     1
102
RTVSPropertyOp16
 70
     1
102
RTVSPropertyOp17
 70
     1
102
RTVSPropertyOp18
 70
     1
102
RTVSPropertyOp19
 70
     1
102
RTVSPropertyOp20
 70
     1
102
RTVSPropertyOp21
 70
     1
102
RTVSPropertyOp22
 70
     1
102
RTVSPropertyOp23
 70
     1
102
RTVSPropertyOp24
 70
     1
102
RTVSPropertyOp25
 70
     1
102
RTVSPropertyOp26
 70
     1
102
RTVSPropertyOp27
 70
     1
102
RTVSPropertyOp28
 70
     1
102
RTVSPropertyOp29
 70
     1
102
RTVSPropertyOp30
 70
     1
102
RTVSPropertyOp31
 70
     1
102
RTVSPropertyOp32
 70
     1
102
RTVSPropertyOp33
 70
     1
102
RTVSPropertyOp34
 70
     1
102
RTVSPropertyOp35
 70
     1
102
RTVSPropertyOp36
 70
     1
102
RTVSPropertyOp37
 70
     1
102
RTVSPropertyOp38
 70
     1
102
RTVSPropertyOp39
 70
     1
102
RTVSPropertyOp40
 70
     1
102
RTVSPropertyOp41
 70
     1
102
RTVSPropertyOp42
 70
     1
102
RTVSPropertyOp43
 70
     1
102
RTVSPropertyOp44
 70
     1
102
RTVSPropertyOp45
 70
     1
102
RTVSPropertyOp46
 70
     1
102
RTVSPropertyOp47
 70
     1
102
RTVSPropertyOp48
 70
     1
102
RTVSPropertyOp49
 70
     1
102
RTVSPropertyOp50
 70
     1
102
RTVSPropertyOp51
 70
     0
102
RTVSPropertyOp52
 70
     0
102
RTVSPropertyOp53
 70
     1
102
RTVSPropertyOp54
 70
     1
102
RTVSPropertyOp55
 70
     1
102
RTVSPropertyOp56
 70
     1
102
RTVSPropertyOp57
 70
     1
102
RTVSPost2010Prop28
280
     0
102
RTVSPost2010PropOp28
 70
     1
102
RTVSPost2010Prop29
280
     1
102
RTVSPost2010PropOp29
 70
     1
102
RTVSPost2010Prop30
280
     1
102
RTVSPost2010PropOp30
 70
     1
102
RTVSPost2010Prop31
280
     0
102
RTVSPost2010PropOp31
 70
     1
102
RTVSPost2010Prop32
280
     0
102
RTVSPost2010PropOp32
 70
     1
102
RTVSPost2010Prop33
280
     0
102
RTVSPost2010PropOp33
 70
     1
102
RTVSPost2010Prop34
280
     0
102
RTVSPost2010PropOp34
 70
     1
102
RTVSPost2010Prop35
280
     0
102
RTVSPost2010PropOp35
 70
     1
102
RTVSPost2010Prop36
280
     0
102
RTVSPost2010PropOp36
 70
     1
102
RTVSPost2010Prop37
 90
       50
102
RTVSPost2010PropOp37
 70
     1
102
RTVSPost2010Prop38
140
0.0
102
RTVSPost2010PropOp38
 70
     1
102
RTVSPost2010Prop39
140
1.0
102
RTVSPost2010PropOp39
 70
     1
102
RTVSPost2010Prop40
 90
        0
102
RTVSPost2010PropOp40
 70
     1
102
RTVSPost2010Prop41ColorIndex
 90
       18
102
RTVSPost2010Prop41ColorRGB
 90
        0
102
RTVSPost2010PropOp41
 70
     1
102
RTVSPost2010Prop42
 90
       50
102
RTVSPost2010PropOp42
 70
     1
102
RTVSPost2010Prop43
 90
        3
102
RTVSPost2010PropOp43
 70
     1
102
RTVSPost2010Prop44ColorIndex
 90
        5
102
RTVSPost2010Prop44ColorRGB
 90
      255
102
RTVSPost2010PropOp44
 70
     1
102
RTVSPost2010Prop45
280
     0
102
RTVSPost2010PropOp45
 70
     1
102
RTVSPost2010Prop46
 90
       50
102
RTVSPost2010PropOp46
 70
     1
102
RTVSPost2010Prop47
 90
       50
102
RTVSPost2010PropOp47
 70
     1
102
RTVSPost2010Prop48
 90
       50
102
RTVSPost2010PropOp48
 70
     1
102
RTVSPost2010Prop49
280
     0
102
RTVSPost2010PropOp49
 70
     1
102
RTVSPost2010Prop50
 90
       50
102
RTVSPost2010PropOp50
 70
     1
102
RTVSPost2010Prop51ColorIndex
 90
      256
102
RTVSPost2010Prop51ColorRGB
 90
-16777216
102
RTVSPost2010PropOp51
 70
     0
102
RTVSPost2010Prop52
140
1.0
102
RTVSPost2010PropOp52
 70
     0
102
RTVSPost2010Prop53
 90
        2
102
RTVSPost2010PropOp53
 70
     1
102
RTVSPost2010Prop54
  1
strokes_ogs.tif
102
RTVSPost2010PropOp54
 70
     1
102
RTVSPost2010Prop55
280
     0
102
RTVSPost2010PropOp55
 70
     1
102
RTVSPost2010Prop56
140
1.0
102
RTVSPost2010PropOp56
 70
     1
102
RTVSPost2010Prop57
140
1.0
102
RTVSPost2010PropOp57
 70
     1
  0
XRECORD
  5
225
102
{ACAD_REACTORS
330
224
102
}
330
224
100
AcDbXrecord
280
     1
102
RTVSPropertyOp0
 70
     1
102
RTVSPropertyOp1
 70
     1
102
RTVSPropertyOp2
 70
     1
102
RTVSPropertyOp3
 70
     1
102
RTVSPropertyOp4
 70
     1
102
RTVSPropertyOp5
 70
     1
102
RTVSPropertyOp6
 70
     1
102
RTVSPropertyOp7
 70
     1
102
RTVSPropertyOp8
 70
     1
102
RTVSPropertyOp9
 70
     1
102
RTVSPropertyOp10
 70
     1
102
RTVSPropertyOp11
 70
     1
102
RTVSPropertyOp12
 70
     1
102
RTVSPropertyOp13
 70
     1
102
RTVSPropertyOp14
 70
     1
102
RTVSPropertyOp15
 70
     1
102
RTVSPropertyOp16
 70
     1
102
RTVSPropertyOp17
 70
     1
102
RTVSPropertyOp18
 70
     1
102
RTVSPropertyOp19
 70
     1
102
RTVSPropertyOp20
 70
     1
102
RTVSPropertyOp21
 70
     1
102
RTVSPropertyOp22
 70
     1
102
RTVSPropertyOp23
 70
     1
102
RTVSPropertyOp24
 70
     1
102
RTVSPropertyOp25
 70
     1
102
RTVSPropertyOp26
 70
     1
102
RTVSPropertyOp27
 70
     1
102
RTVSPropertyOp28
 70
     1
102
RTVSPropertyOp29
 70
     1
102
RTVSPropertyOp30
 70
     1
102
RTVSPropertyOp31
 70
     1
102
RTVSPropertyOp32
 70
     1
102
RTVSPropertyOp33
 70
     1
102
RTVSPropertyOp34
 70
     1
102
RTVSPropertyOp35
 70
     1
102
RTVSPropertyOp36
 70
     1
102
RTVSPropertyOp37
 70
     1
102
RTVSPropertyOp38
 70
     1
102
RTVSPropertyOp39
 70
     1
102
RTVSPropertyOp40
 70
     1
102
RTVSPropertyOp41
 70
     1
102
RTVSPropertyOp42
 70
     1
102
RTVSPropertyOp43
 70
     1
102
RTVSPropertyOp44
 70
     1
102
RTVSPropertyOp45
 70
     1
102
RTVSPropertyOp46
 70
     1
102
RTVSPropertyOp47
 70
     1
102
RTVSPropertyOp48
 70
     1
102
RTVSPropertyOp49
 70
     1
102
RTVSPropertyOp50
 70
     1
102
RTVSPropertyOp51
 70
     0
102
RTVSPropertyOp52
 70
     0
102
RTVSPropertyOp53
 70
     1
102
RTVSPropertyOp54
 70
     1
102
RTVSPropertyOp55
 70
     1
102
RTVSPropertyOp56
 70
     1
102
RTVSPropertyOp57
 70
     1
102
RTVSPost2010Prop28
280
     0
102
RTVSPost2010PropOp28
 70
     1
102
RTVSPost2010Prop29
280
     1
102
RTVSPost2010PropOp29
 70
     1
102
RTVSPost2010Prop30
280
     1
102
RTVSPost2010PropOp30
 70
     1
102
RTVSPost2010Prop31
280
     0
102
RTVSPost2010PropOp31
 70
     1
102
RTVSPost2010Prop32
280
     0
102
RTVSPost2010PropOp32
 70
     1
102
RTVSPost2010Prop33
280
     0
102
RTVSPost2010PropOp33
 70
     1
102
RTVSPost2010Prop34
280
     0
102
RTVSPost2010PropOp34
 70
     1
102
RTVSPost2010Prop35
280
     0
102
RTVSPost2010PropOp35
 70
     1
102
RTVSPost2010Prop36
280
     0
102
RTVSPost2010PropOp36
 70
     1
102
RTVSPost2010Prop37
 90
       50
102
RTVSPost2010PropOp37
 70
     1
102
RTVSPost2010Prop38
140
0.0
102
RTVSPost2010PropOp38
 70
     1
102
RTVSPost2010Prop39
140
1.0
102
RTVSPost2010PropOp39
 70
     1
102
RTVSPost2010Prop40
 90
        0
102
RTVSPost2010PropOp40
 70
     1
102
RTVSPost2010Prop41ColorIndex
 90
       18
102
RTVSPost2010Prop41ColorRGB
 90
        0
102
RTVSPost2010PropOp41
 70
     1
102
RTVSPost2010Prop42
 90
       50
102
RTVSPost2010PropOp42
 70
     1
102
RTVSPost2010Prop43
 90
        3
102
RTVSPost2010PropOp43
 70
     1
102
RTVSPost2010Prop44ColorIndex
 90
        5
102
RTVSPost2010Prop44ColorRGB
 90
      255
102
RTVSPost2010PropOp44
 70
     1
102
RTVSPost2010Prop45
280
     0
102
RTVSPost2010PropOp45
 70
     1
102
RTVSPost2010Prop46
 90
       50
102
RTVSPost2010PropOp46
 70
     1
102
RTVSPost2010Prop47
 90
       50
102
RTVSPost2010PropOp47
 70
     1
102
RTVSPost2010Prop48
 90
       50
102
RTVSPost2010PropOp48
 70
     1
102
RTVSPost2010Prop49
280
     0
102
RTVSPost2010PropOp49
 70
     1
102
RTVSPost2010Prop50
 90
       50
102
RTVSPost2010PropOp50
 70
     1
102
RTVSPost2010Prop51ColorIndex
 90
      256
102
RTVSPost2010Prop51ColorRGB
 90
-16777216
102
RTVSPost2010PropOp51
 70
     0
102
RTVSPost2010Prop52
140
1.0
102
RTVSPost2010PropOp52
 70
     0
102
RTVSPost2010Prop53
 90
        2
102
RTVSPost2010PropOp53
 70
     1
102
RTVSPost2010Prop54
  1
strokes_ogs.tif
102
RTVSPost2010PropOp54
 70
     1
102
RTVSPost2010Prop55
280
     0
102
RTVSPost2010PropOp55
 70
     1
102
RTVSPost2010Prop56
140
1.0
102
RTVSPost2010PropOp56
 70
     1
102
RTVSPost2010Prop57
140
1.0
102
RTVSPost2010PropOp57
 70
     1
  0
XRECORD
  5
227
102
{ACAD_REACTORS
330
226
102
}
330
226
100
AcDbXrecord
280
     1
102
RTVSPropertyOp0
 70
     1
102
RTVSPropertyOp1
 70
     1
102
RTVSPropertyOp2
 70
     1
102
RTVSPropertyOp3
 70
     1
102
RTVSPropertyOp4
 70
     1
102
RTVSPropertyOp5
 70
     1
102
RTVSPropertyOp6
 70
     1
102
RTVSPropertyOp7
 70
     1
102
RTVSPropertyOp8
 70
     1
102
RTVSPropertyOp9
 70
     1
102
RTVSPropertyOp10
 70
     1
102
RTVSPropertyOp11
 70
     1
102
RTVSPropertyOp12
 70
     1
102
RTVSPropertyOp13
 70
     1
102
RTVSPropertyOp14
 70
     1
102
RTVSPropertyOp15
 70
     1
102
RTVSPropertyOp16
 70
     1
102
RTVSPropertyOp17
 70
     1
102
RTVSPropertyOp18
 70
     1
102
RTVSPropertyOp19
 70
     1
102
RTVSPropertyOp20
 70
     1
102
RTVSPropertyOp21
 70
     1
102
RTVSPropertyOp22
 70
     1
102
RTVSPropertyOp23
 70
     1
102
RTVSPropertyOp24
 70
     1
102
RTVSPropertyOp25
 70
     1
102
RTVSPropertyOp26
 70
     1
102
RTVSPropertyOp27
 70
     1
102
RTVSPropertyOp28
 70
     1
102
RTVSPropertyOp29
 70
     1
102
RTVSPropertyOp30
 70
     1
102
RTVSPropertyOp31
 70
     1
102
RTVSPropertyOp32
 70
     1
102
RTVSPropertyOp33
 70
     1
102
RTVSPropertyOp34
 70
     1
102
RTVSPropertyOp35
 70
     1
102
RTVSPropertyOp36
 70
     1
102
RTVSPropertyOp37
 70
     1
102
RTVSPropertyOp38
 70
     1
102
RTVSPropertyOp39
 70
     1
102
RTVSPropertyOp40
 70
     1
102
RTVSPropertyOp41
 70
     1
102
RTVSPropertyOp42
 70
     1
102
RTVSPropertyOp43
 70
     1
102
RTVSPropertyOp44
 70
     1
102
RTVSPropertyOp45
 70
     1
102
RTVSPropertyOp46
 70
     1
102
RTVSPropertyOp47
 70
     1
102
RTVSPropertyOp48
 70
     1
102
RTVSPropertyOp49
 70
     1
102
RTVSPropertyOp50
 70
     1
102
RTVSPropertyOp51
 70
     0
102
RTVSPropertyOp52
 70
     0
102
RTVSPropertyOp53
 70
     1
102
RTVSPropertyOp54
 70
     1
102
RTVSPropertyOp55
 70
     1
102
RTVSPropertyOp56
 70
     1
102
RTVSPropertyOp57
 70
     1
102
RTVSPost2010Prop28
280
     0
102
RTVSPost2010PropOp28
 70
     1
102
RTVSPost2010Prop29
280
     1
102
RTVSPost2010PropOp29
 70
     1
102
RTVSPost2010Prop30
280
     1
102
RTVSPost2010PropOp30
 70
     1
102
RTVSPost2010Prop31
280
     0
102
RTVSPost2010PropOp31
 70
     1
102
RTVSPost2010Prop32
280
     0
102
RTVSPost2010PropOp32
 70
     1
102
RTVSPost2010Prop33
280
     0
102
RTVSPost2010PropOp33
 70
     1
102
RTVSPost2010Prop34
280
     0
102
RTVSPost2010PropOp34
 70
     1
102
RTVSPost2010Prop35
280
     0
102
RTVSPost2010PropOp35
 70
     1
102
RTVSPost2010Prop36
280
     0
102
RTVSPost2010PropOp36
 70
     1
102
RTVSPost2010Prop37
 90
       50
102
RTVSPost2010PropOp37
 70
     1
102
RTVSPost2010Prop38
140
0.0
102
RTVSPost2010PropOp38
 70
     1
102
RTVSPost2010Prop39
140
1.0
102
RTVSPost2010PropOp39
 70
     1
102
RTVSPost2010Prop40
 90
        0
102
RTVSPost2010PropOp40
 70
     1
102
RTVSPost2010Prop41ColorIndex
 90
       18
102
RTVSPost2010Prop41ColorRGB
 90
        0
102
RTVSPost2010PropOp41
 70
     1
102
RTVSPost2010Prop42
 90
       50
102
RTVSPost2010PropOp42
 70
     1
102
RTVSPost2010Prop43
 90
        3
102
RTVSPost2010PropOp43
 70
     1
102
RTVSPost2010Prop44ColorIndex
 90
        5
102
RTVSPost2010Prop44ColorRGB
 90
      255
102
RTVSPost2010PropOp44
 70
     1
102
RTVSPost2010Prop45
280
     0
102
RTVSPost2010PropOp45
 70
     1
102
RTVSPost2010Prop46
 90
       50
102
RTVSPost2010PropOp46
 70
     1
102
RTVSPost2010Prop47
 90
       50
102
RTVSPost2010PropOp47
 70
     1
102
RTVSPost2010Prop48
 90
       50
102
RTVSPost2010PropOp48
 70
     1
102
RTVSPost2010Prop49
280
     0
102
RTVSPost2010PropOp49
 70
     1
102
RTVSPost2010Prop50
 90
       50
102
RTVSPost2010PropOp50
 70
     1
102
RTVSPost2010Prop51ColorIndex
 90
      256
102
RTVSPost2010Prop51ColorRGB
 90
-16777216
102
RTVSPost2010PropOp51
 70
     0
102
RTVSPost2010Prop52
140
1.0
102
RTVSPost2010PropOp52
 70
     0
102
RTVSPost2010Prop53
 90
        2
102
RTVSPost2010PropOp53
 70
     1
102
RTVSPost2010Prop54
  1
strokes_ogs.tif
102
RTVSPost2010PropOp54
 70
     1
102
RTVSPost2010Prop55
280
     0
102
RTVSPost2010PropOp55
 70
     1
102
RTVSPost2010Prop56
140
1.0
102
RTVSPost2010PropOp56
 70
     1
102
RTVSPost2010Prop57
140
1.0
102
RTVSPost2010PropOp57
 70
     1
  0
XRECORD
  5
229
102
{ACAD_REACTORS
330
228
102
}
330
228
100
AcDbXrecord
280
     1
102
RTVSPropertyOp0
 70
     1
102
RTVSPropertyOp1
 70
     1
102
RTVSPropertyOp2
 70
     1
102
RTVSPropertyOp3
 70
     1
102
RTVSPropertyOp4
 70
     1
102
RTVSPropertyOp5
 70
     1
102
RTVSPropertyOp6
 70
     1
102
RTVSPropertyOp7
 70
     1
102
RTVSPropertyOp8
 70
     1
102
RTVSPropertyOp9
 70
     1
102
RTVSPropertyOp10
 70
     1
102
RTVSPropertyOp11
 70
     1
102
RTVSPropertyOp12
 70
     1
102
RTVSPropertyOp13
 70
     1
102
RTVSPropertyOp14
 70
     1
102
RTVSPropertyOp15
 70
     1
102
RTVSPropertyOp16
 70
     1
102
RTVSPropertyOp17
 70
     1
102
RTVSPropertyOp18
 70
     1
102
RTVSPropertyOp19
 70
     1
102
RTVSPropertyOp20
 70
     1
102
RTVSPropertyOp21
 70
     1
102
RTVSPropertyOp22
 70
     1
102
RTVSPropertyOp23
 70
     1
102
RTVSPropertyOp24
 70
     1
102
RTVSPropertyOp25
 70
     1
102
RTVSPropertyOp26
 70
     1
102
RTVSPropertyOp27
 70
     1
102
RTVSPropertyOp28
 70
     1
102
RTVSPropertyOp29
 70
     1
102
RTVSPropertyOp30
 70
     1
102
RTVSPropertyOp31
 70
     1
102
RTVSPropertyOp32
 70
     1
102
RTVSPropertyOp33
 70
     1
102
RTVSPropertyOp34
 70
     1
102
RTVSPropertyOp35
 70
     1
102
RTVSPropertyOp36
 70
     1
102
RTVSPropertyOp37
 70
     1
102
RTVSPropertyOp38
 70
     1
102
RTVSPropertyOp39
 70
     1
102
RTVSPropertyOp40
 70
     1
102
RTVSPropertyOp41
 70
     1
102
RTVSPropertyOp42
 70
     1
102
RTVSPropertyOp43
 70
     1
102
RTVSPropertyOp44
 70
     1
102
RTVSPropertyOp45
 70
     1
102
RTVSPropertyOp46
 70
     1
102
RTVSPropertyOp47
 70
     1
102
RTVSPropertyOp48
 70
     1
102
RTVSPropertyOp49
 70
     1
102
RTVSPropertyOp50
 70
     1
102
RTVSPropertyOp51
 70
     0
102
RTVSPropertyOp52
 70
     0
102
RTVSPropertyOp53
 70
     1
102
RTVSPropertyOp54
 70
     1
102
RTVSPropertyOp55
 70
     1
102
RTVSPropertyOp56
 70
     1
102
RTVSPropertyOp57
 70
     1
102
RTVSPost2010Prop28
280
     0
102
RTVSPost2010PropOp28
 70
     1
102
RTVSPost2010Prop29
280
     1
102
RTVSPost2010PropOp29
 70
     1
102
RTVSPost2010Prop30
280
     1
102
RTVSPost2010PropOp30
 70
     1
102
RTVSPost2010Prop31
280
     0
102
RTVSPost2010PropOp31
 70
     1
102
RTVSPost2010Prop32
280
     0
102
RTVSPost2010PropOp32
 70
     1
102
RTVSPost2010Prop33
280
     0
102
RTVSPost2010PropOp33
 70
     1
102
RTVSPost2010Prop34
280
     0
102
RTVSPost2010PropOp34
 70
     1
102
RTVSPost2010Prop35
280
     0
102
RTVSPost2010PropOp35
 70
     1
102
RTVSPost2010Prop36
280
     0
102
RTVSPost2010PropOp36
 70
     1
102
RTVSPost2010Prop37
 90
       50
102
RTVSPost2010PropOp37
 70
     1
102
RTVSPost2010Prop38
140
0.0
102
RTVSPost2010PropOp38
 70
     1
102
RTVSPost2010Prop39
140
1.0
102
RTVSPost2010PropOp39
 70
     1
102
RTVSPost2010Prop40
 90
        0
102
RTVSPost2010PropOp40
 70
     1
102
RTVSPost2010Prop41ColorIndex
 90
       18
102
RTVSPost2010Prop41ColorRGB
 90
        0
102
RTVSPost2010PropOp41
 70
     1
102
RTVSPost2010Prop42
 90
       50
102
RTVSPost2010PropOp42
 70
     1
102
RTVSPost2010Prop43
 90
        3
102
RTVSPost2010PropOp43
 70
     1
102
RTVSPost2010Prop44ColorIndex
 90
        5
102
RTVSPost2010Prop44ColorRGB
 90
      255
102
RTVSPost2010PropOp44
 70
     1
102
RTVSPost2010Prop45
280
     0
102
RTVSPost2010PropOp45
 70
     1
102
RTVSPost2010Prop46
 90
       50
102
RTVSPost2010PropOp46
 70
     1
102
RTVSPost2010Prop47
 90
       50
102
RTVSPost2010PropOp47
 70
     1
102
RTVSPost2010Prop48
 90
       50
102
RTVSPost2010PropOp48
 70
     1
102
RTVSPost2010Prop49
280
     0
102
RTVSPost2010PropOp49
 70
     1
102
RTVSPost2010Prop50
 90
       50
102
RTVSPost2010PropOp50
 70
     1
102
RTVSPost2010Prop51ColorIndex
 90
      256
102
RTVSPost2010Prop51ColorRGB
 90
-16777216
102
RTVSPost2010PropOp51
 70
     0
102
RTVSPost2010Prop52
140
1.0
102
RTVSPost2010PropOp52
 70
     0
102
RTVSPost2010Prop53
 90
        2
102
RTVSPost2010PropOp53
 70
     1
102
RTVSPost2010Prop54
  1
strokes_ogs.tif
102
RTVSPost2010PropOp54
 70
     1
102
RTVSPost2010Prop55
280
     0
102
RTVSPost2010PropOp55
 70
     1
102
RTVSPost2010Prop56
140
1.0
102
RTVSPost2010PropOp56
 70
     1
102
RTVSPost2010Prop57
140
1.0
102
RTVSPost2010PropOp57
 70
     1
  0
XRECORD
  5
22F
102
{ACAD_REACTORS
330
22E
102
}
330
22E
100
AcDbXrecord
280
     1
102
RTVSPropertyOp0
 70
     1
102
RTVSPropertyOp1
 70
     1
102
RTVSPropertyOp2
 70
     1
102
RTVSPropertyOp3
 70
     1
102
RTVSPropertyOp4
 70
     1
102
RTVSPropertyOp5
 70
     1
102
RTVSPropertyOp6
 70
     1
102
RTVSPropertyOp7
 70
     1
102
RTVSPropertyOp8
 70
     1
102
RTVSPropertyOp9
 70
     1
102
RTVSPropertyOp10
 70
     1
102
RTVSPropertyOp11
 70
     1
102
RTVSPropertyOp12
 70
     1
102
RTVSPropertyOp13
 70
     1
102
RTVSPropertyOp14
 70
     1
102
RTVSPropertyOp15
 70
     1
102
RTVSPropertyOp16
 70
     1
102
RTVSPropertyOp17
 70
     1
102
RTVSPropertyOp18
 70
     1
102
RTVSPropertyOp19
 70
     1
102
RTVSPropertyOp20
 70
     1
102
RTVSPropertyOp21
 70
     1
102
RTVSPropertyOp22
 70
     1
102
RTVSPropertyOp23
 70
     1
102
RTVSPropertyOp24
 70
     1
102
RTVSPropertyOp25
 70
     1
102
RTVSPropertyOp26
 70
     1
102
RTVSPropertyOp27
 70
     1
102
RTVSPropertyOp28
 70
     1
102
RTVSPropertyOp29
 70
     1
102
RTVSPropertyOp30
 70
     1
102
RTVSPropertyOp31
 70
     1
102
RTVSPropertyOp32
 70
     1
102
RTVSPropertyOp33
 70
     1
102
RTVSPropertyOp34
 70
     1
102
RTVSPropertyOp35
 70
     1
102
RTVSPropertyOp36
 70
     1
102
RTVSPropertyOp37
 70
     1
102
RTVSPropertyOp38
 70
     1
102
RTVSPropertyOp39
 70
     1
102
RTVSPropertyOp40
 70
     1
102
RTVSPropertyOp41
 70
     1
102
RTVSPropertyOp42
 70
     1
102
RTVSPropertyOp43
 70
     1
102
RTVSPropertyOp44
 70
     1
102
RTVSPropertyOp45
 70
     1
102
RTVSPropertyOp46
 70
     1
102
RTVSPropertyOp47
 70
     1
102
RTVSPropertyOp48
 70
     1
102
RTVSPropertyOp49
 70
     1
102
RTVSPropertyOp50
 70
     1
102
RTVSPropertyOp51
 70
     0
102
RTVSPropertyOp52
 70
     0
102
RTVSPropertyOp53
 70
     1
102
RTVSPropertyOp54
 70
     1
102
RTVSPropertyOp55
 70
     1
102
RTVSPropertyOp56
 70
     1
102
RTVSPropertyOp57
 70
     1
102
RTVSPost2010Prop28
280
     0
102
RTVSPost2010PropOp28
 70
     1
102
RTVSPost2010Prop29
280
     1
102
RTVSPost2010PropOp29
 70
     1
102
RTVSPost2010Prop30
280
     1
102
RTVSPost2010PropOp30
 70
     1
102
RTVSPost2010Prop31
280
     0
102
RTVSPost2010PropOp31
 70
     1
102
RTVSPost2010Prop32
280
     0
102
RTVSPost2010PropOp32
 70
     1
102
RTVSPost2010Prop33
280
     0
102
RTVSPost2010PropOp33
 70
     1
102
RTVSPost2010Prop34
280
     0
102
RTVSPost2010PropOp34
 70
     1
102
RTVSPost2010Prop35
280
     0
102
RTVSPost2010PropOp35
 70
     1
102
RTVSPost2010Prop36
280
     0
102
RTVSPost2010PropOp36
 70
     1
102
RTVSPost2010Prop37
 90
       50
102
RTVSPost2010PropOp37
 70
     1
102
RTVSPost2010Prop38
140
0.0
102
RTVSPost2010PropOp38
 70
     1
102
RTVSPost2010Prop39
140
1.0
102
RTVSPost2010PropOp39
 70
     1
102
RTVSPost2010Prop40
 90
        0
102
RTVSPost2010PropOp40
 70
     1
102
RTVSPost2010Prop41ColorIndex
 90
       18
102
RTVSPost2010Prop41ColorRGB
 90
        0
102
RTVSPost2010PropOp41
 70
     1
102
RTVSPost2010Prop42
 90
       50
102
RTVSPost2010PropOp42
 70
     1
102
RTVSPost2010Prop43
 90
        3
102
RTVSPost2010PropOp43
 70
     1
102
RTVSPost2010Prop44ColorIndex
 90
        5
102
RTVSPost2010Prop44ColorRGB
 90
      255
102
RTVSPost2010PropOp44
 70
     1
102
RTVSPost2010Prop45
280
     0
102
RTVSPost2010PropOp45
 70
     1
102
RTVSPost2010Prop46
 90
       50
102
RTVSPost2010PropOp46
 70
     1
102
RTVSPost2010Prop47
 90
       50
102
RTVSPost2010PropOp47
 70
     1
102
RTVSPost2010Prop48
 90
       50
102
RTVSPost2010PropOp48
 70
     1
102
RTVSPost2010Prop49
280
     0
102
RTVSPost2010PropOp49
 70
     1
102
RTVSPost2010Prop50
 90
       50
102
RTVSPost2010PropOp50
 70
     1
102
RTVSPost2010Prop51ColorIndex
 90
      256
102
RTVSPost2010Prop51ColorRGB
 90
-16777216
102
RTVSPost2010PropOp51
 70
     0
102
RTVSPost2010Prop52
140
1.0
102
RTVSPost2010PropOp52
 70
     0
102
RTVSPost2010Prop53
 90
        2
102
RTVSPost2010PropOp53
 70
     1
102
RTVSPost2010Prop54
  1
strokes_ogs.tif
102
RTVSPost2010PropOp54
 70
     1
102
RTVSPost2010Prop55
280
     0
102
RTVSPost2010PropOp55
 70
     1
102
RTVSPost2010Prop56
140
1.0
102
RTVSPost2010PropOp56
 70
     1
102
RTVSPost2010Prop57
140
1.0
102
RTVSPost2010PropOp57
 70
     1
  0
XRECORD
  5
243
102
{ACAD_REACTORS
330
242
102
}
330
242
100
AcDbXrecord
280
     1
102
RTVSPropertyOp0
 70
     0
102
RTVSPropertyOp1
 70
     0
102
RTVSPropertyOp2
 70
     0
102
RTVSPropertyOp3
 70
     0
102
RTVSPropertyOp4
 70
     0
102
RTVSPropertyOp5
 70
     0
102
RTVSPropertyOp6
 70
     0
102
RTVSPropertyOp7
 70
     0
102
RTVSPropertyOp8
 70
     0
102
RTVSPropertyOp9
 70
     0
102
RTVSPropertyOp10
 70
     0
102
RTVSPropertyOp11
 70
     0
102
RTVSPropertyOp12
 70
     0
102
RTVSPropertyOp13
 70
     0
102
RTVSPropertyOp14
 70
     2
102
RTVSPropertyOp15
 70
     0
102
RTVSPropertyOp16
 70
     0
102
RTVSPropertyOp17
 70
     0
102
RTVSPropertyOp18
 70
     0
102
RTVSPropertyOp19
 70
     0
102
RTVSPropertyOp20
 70
     0
102
RTVSPropertyOp21
 70
     0
102
RTVSPropertyOp22
 70
     0
102
RTVSPropertyOp23
 70
     0
102
RTVSPropertyOp24
 70
     0
102
RTVSPropertyOp25
 70
     0
102
RTVSPropertyOp26
 70
     0
102
RTVSPropertyOp27
 70
     0
102
RTVSPropertyOp28
 70
     0
102
RTVSPropertyOp29
 70
     0
102
RTVSPropertyOp30
 70
     0
102
RTVSPropertyOp31
 70
     0
102
RTVSPropertyOp32
 70
     0
102
RTVSPropertyOp33
 70
     0
102
RTVSPropertyOp34
 70
     0
102
RTVSPropertyOp35
 70
     0
102
RTVSPropertyOp36
 70
     0
102
RTVSPropertyOp37
 70
     0
102
RTVSPropertyOp38
 70
     0
102
RTVSPropertyOp39
 70
     0
102
RTVSPropertyOp40
 70
     0
102
RTVSPropertyOp41
 70
     0
102
RTVSPropertyOp42
 70
     0
102
RTVSPropertyOp43
 70
     0
102
RTVSPropertyOp44
 70
     0
102
RTVSPropertyOp45
 70
     0
102
RTVSPropertyOp46
 70
     0
102
RTVSPropertyOp47
 70
     0
102
RTVSPropertyOp48
 70
     0
102
RTVSPropertyOp49
 70
     0
102
RTVSPropertyOp50
 70
     0
102
RTVSPropertyOp51
 70
     0
102
RTVSPropertyOp52
 70
     0
102
RTVSPropertyOp53
 70
     0
102
RTVSPropertyOp54
 70
     0
102
RTVSPropertyOp55
 70
     0
102
RTVSPropertyOp56
 70
     0
102
RTVSPropertyOp57
 70
     0
102
RTVSPost2010Prop28
280
     0
102
RTVSPost2010PropOp28
 70
     0
102
RTVSPost2010Prop29
280
     1
102
RTVSPost2010PropOp29
 70
     0
102
RTVSPost2010Prop30
280
     1
102
RTVSPost2010PropOp30
 70
     0
102
RTVSPost2010Prop31
280
     0
102
RTVSPost2010PropOp31
 70
     0
102
RTVSPost2010Prop32
280
     0
102
RTVSPost2010PropOp32
 70
     0
102
RTVSPost2010Prop33
280
     0
102
RTVSPost2010PropOp33
 70
     0
102
RTVSPost2010Prop34
280
     0
102
RTVSPost2010PropOp34
 70
     0
102
RTVSPost2010Prop35
280
     0
102
RTVSPost2010PropOp35
 70
     0
102
RTVSPost2010Prop36
280
     0
102
RTVSPost2010PropOp36
 70
     0
102
RTVSPost2010Prop37
 90
       50
102
RTVSPost2010PropOp37
 70
     0
102
RTVSPost2010Prop38
140
0.0
102
RTVSPost2010PropOp38
 70
     0
102
RTVSPost2010Prop39
140
1.0
102
RTVSPost2010PropOp39
 70
     0
102
RTVSPost2010Prop40
 90
        0
102
RTVSPost2010PropOp40
 70
     0
102
RTVSPost2010Prop41ColorIndex
 90
       18
102
RTVSPost2010Prop41ColorRGB
 90
        0
102
RTVSPost2010PropOp41
 70
     0
102
RTVSPost2010Prop42
 90
       50
102
RTVSPost2010PropOp42
 70
     0
102
RTVSPost2010Prop43
 90
        3
102
RTVSPost2010PropOp43
 70
     0
102
RTVSPost2010Prop44ColorIndex
 90
        5
102
RTVSPost2010Prop44ColorRGB
 90
      255
102
RTVSPost2010PropOp44
 70
     0
102
RTVSPost2010Prop45
280
     0
102
RTVSPost2010PropOp45
 70
     0
102
RTVSPost2010Prop46
 90
       50
102
RTVSPost2010PropOp46
 70
     0
102
RTVSPost2010Prop47
 90
       50
102
RTVSPost2010PropOp47
 70
     0
102
RTVSPost2010Prop48
 90
       50
102
RTVSPost2010PropOp48
 70
     0
102
RTVSPost2010Prop49
280
     0
102
RTVSPost2010PropOp49
 70
     0
102
RTVSPost2010Prop50
 90
       50
102
RTVSPost2010PropOp50
 70
     0
102
RTVSPost2010Prop51ColorIndex
 90
      256
102
RTVSPost2010Prop51ColorRGB
 90
-16777216
102
RTVSPost2010PropOp51
 70
     0
102
RTVSPost2010Prop52
140
1.0
102
RTVSPost2010PropOp52
 70
     0
102
RTVSPost2010Prop53
 90
        2
102
RTVSPost2010PropOp53
 70
     0
102
RTVSPost2010Prop54
  1
strokes_ogs.tif
102
RTVSPost2010PropOp54
 70
     0
102
RTVSPost2010Prop55
280
     0
102
RTVSPost2010PropOp55
 70
     0
102
RTVSPost2010Prop56
140
1.0
102
RTVSPost2010PropOp56
 70
     0
102
RTVSPost2010Prop57
140
1.0
102
RTVSPost2010PropOp57
 70
     0
  0
XRECORD
  5
23D
102
{ACAD_REACTORS
330
23C
102
}
330
23C
100
AcDbXrecord
280
     1
102
RTVSPropertyOp0
 70
     1
102
RTVSPropertyOp1
 70
     1
102
RTVSPropertyOp2
 70
     1
102
RTVSPropertyOp3
 70
     1
102
RTVSPropertyOp4
 70
     1
102
RTVSPropertyOp5
 70
     1
102
RTVSPropertyOp6
 70
     1
102
RTVSPropertyOp7
 70
     1
102
RTVSPropertyOp8
 70
     1
102
RTVSPropertyOp9
 70
     1
102
RTVSPropertyOp10
 70
     1
102
RTVSPropertyOp11
 70
     1
102
RTVSPropertyOp12
 70
     1
102
RTVSPropertyOp13
 70
     1
102
RTVSPropertyOp14
 70
     1
102
RTVSPropertyOp15
 70
     1
102
RTVSPropertyOp16
 70
     1
102
RTVSPropertyOp17
 70
     1
102
RTVSPropertyOp18
 70
     1
102
RTVSPropertyOp19
 70
     1
102
RTVSPropertyOp20
 70
     1
102
RTVSPropertyOp21
 70
     1
102
RTVSPropertyOp22
 70
     1
102
RTVSPropertyOp23
 70
     1
102
RTVSPropertyOp24
 70
     1
102
RTVSPropertyOp25
 70
     1
102
RTVSPropertyOp26
 70
     1
102
RTVSPropertyOp27
 70
     1
102
RTVSPropertyOp28
 70
     1
102
RTVSPropertyOp29
 70
     1
102
RTVSPropertyOp30
 70
     1
102
RTVSPropertyOp31
 70
     1
102
RTVSPropertyOp32
 70
     1
102
RTVSPropertyOp33
 70
     1
102
RTVSPropertyOp34
 70
     1
102
RTVSPropertyOp35
 70
     1
102
RTVSPropertyOp36
 70
     1
102
RTVSPropertyOp37
 70
     1
102
RTVSPropertyOp38
 70
     1
102
RTVSPropertyOp39
 70
     1
102
RTVSPropertyOp40
 70
     1
102
RTVSPropertyOp41
 70
     1
102
RTVSPropertyOp42
 70
     1
102
RTVSPropertyOp43
 70
     1
102
RTVSPropertyOp44
 70
     1
102
RTVSPropertyOp45
 70
     1
102
RTVSPropertyOp46
 70
     1
102
RTVSPropertyOp47
 70
     1
102
RTVSPropertyOp48
 70
     1
102
RTVSPropertyOp49
 70
     1
102
RTVSPropertyOp50
 70
     1
102
RTVSPropertyOp51
 70
     0
102
RTVSPropertyOp52
 70
     0
102
RTVSPropertyOp53
 70
     1
102
RTVSPropertyOp54
 70
     1
102
RTVSPropertyOp55
 70
     1
102
RTVSPropertyOp56
 70
     1
102
RTVSPropertyOp57
 70
     1
102
RTVSPost2010Prop28
280
     0
102
RTVSPost2010PropOp28
 70
     1
102
RTVSPost2010Prop29
280
     1
102
RTVSPost2010PropOp29
 70
     1
102
RTVSPost2010Prop30
280
     1
102
RTVSPost2010PropOp30
 70
     1
102
RTVSPost2010Prop31
280
     0
102
RTVSPost2010PropOp31
 70
     1
102
RTVSPost2010Prop32
280
     0
102
RTVSPost2010PropOp32
 70
     1
102
RTVSPost2010Prop33
280
     0
102
RTVSPost2010PropOp33
 70
     1
102
RTVSPost2010Prop34
280
     0
102
RTVSPost2010PropOp34
 70
     1
102
RTVSPost2010Prop35
280
     0
102
RTVSPost2010PropOp35
 70
     1
102
RTVSPost2010Prop36
280
     0
102
RTVSPost2010PropOp36
 70
     1
102
RTVSPost2010Prop37
 90
       50
102
RTVSPost2010PropOp37
 70
     1
102
RTVSPost2010Prop38
140
0.0
102
RTVSPost2010PropOp38
 70
     1
102
RTVSPost2010Prop39
140
1.0
102
RTVSPost2010PropOp39
 70
     1
102
RTVSPost2010Prop40
 90
        0
102
RTVSPost2010PropOp40
 70
     1
102
RTVSPost2010Prop41ColorIndex
 90
       18
102
RTVSPost2010Prop41ColorRGB
 90
        0
102
RTVSPost2010PropOp41
 70
     1
102
RTVSPost2010Prop42
 90
       50
102
RTVSPost2010PropOp42
 70
     1
102
RTVSPost2010Prop43
 90
        3
102
RTVSPost2010PropOp43
 70
     1
102
RTVSPost2010Prop44ColorIndex
 90
        5
102
RTVSPost2010Prop44ColorRGB
 90
      255
102
RTVSPost2010PropOp44
 70
     1
102
RTVSPost2010Prop45
280
     0
102
RTVSPost2010PropOp45
 70
     1
102
RTVSPost2010Prop46
 90
       50
102
RTVSPost2010PropOp46
 70
     1
102
RTVSPost2010Prop47
 90
       50
102
RTVSPost2010PropOp47
 70
     1
102
RTVSPost2010Prop48
 90
       50
102
RTVSPost2010PropOp48
 70
     1
102
RTVSPost2010Prop49
280
     0
102
RTVSPost2010PropOp49
 70
     1
102
RTVSPost2010Prop50
 90
       50
102
RTVSPost2010PropOp50
 70
     1
102
RTVSPost2010Prop51ColorIndex
 90
      256
102
RTVSPost2010Prop51ColorRGB
 90
-16777216
102
RTVSPost2010PropOp51
 70
     0
102
RTVSPost2010Prop52
140
1.0
102
RTVSPost2010PropOp52
 70
     0
102
RTVSPost2010Prop53
 90
        2
102
RTVSPost2010PropOp53
 70
     1
102
RTVSPost2010Prop54
  1
strokes_ogs.tif
102
RTVSPost2010PropOp54
 70
     1
102
RTVSPost2010Prop55
280
     0
102
RTVSPost2010PropOp55
 70
     1
102
RTVSPost2010Prop56
140
1.0
102
RTVSPost2010PropOp56
 70
     1
102
RTVSPost2010Prop57
140
1.0
102
RTVSPost2010PropOp57
 70
     1
  0
XRECORD
  5
245
102
{ACAD_REACTORS
330
244
102
}
330
244
100
AcDbXrecord
280
     1
102
RTVSPropertyOp0
 70
     0
102
RTVSPropertyOp1
 70
     0
102
RTVSPropertyOp2
 70
     0
102
RTVSPropertyOp3
 70
     0
102
RTVSPropertyOp4
 70
     0
102
RTVSPropertyOp5
 70
     0
102
RTVSPropertyOp6
 70
     0
102
RTVSPropertyOp7
 70
     0
102
RTVSPropertyOp8
 70
     0
102
RTVSPropertyOp9
 70
     0
102
RTVSPropertyOp10
 70
     0
102
RTVSPropertyOp11
 70
     0
102
RTVSPropertyOp12
 70
     0
102
RTVSPropertyOp13
 70
     0
102
RTVSPropertyOp14
 70
     2
102
RTVSPropertyOp15
 70
     0
102
RTVSPropertyOp16
 70
     0
102
RTVSPropertyOp17
 70
     0
102
RTVSPropertyOp18
 70
     0
102
RTVSPropertyOp19
 70
     0
102
RTVSPropertyOp20
 70
     0
102
RTVSPropertyOp21
 70
     0
102
RTVSPropertyOp22
 70
     0
102
RTVSPropertyOp23
 70
     0
102
RTVSPropertyOp24
 70
     0
102
RTVSPropertyOp25
 70
     0
102
RTVSPropertyOp26
 70
     0
102
RTVSPropertyOp27
 70
     0
102
RTVSPropertyOp28
 70
     0
102
RTVSPropertyOp29
 70
     0
102
RTVSPropertyOp30
 70
     0
102
RTVSPropertyOp31
 70
     0
102
RTVSPropertyOp32
 70
     0
102
RTVSPropertyOp33
 70
     0
102
RTVSPropertyOp34
 70
     0
102
RTVSPropertyOp35
 70
     0
102
RTVSPropertyOp36
 70
     0
102
RTVSPropertyOp37
 70
     0
102
RTVSPropertyOp38
 70
     0
102
RTVSPropertyOp39
 70
     0
102
RTVSPropertyOp40
 70
     0
102
RTVSPropertyOp41
 70
     0
102
RTVSPropertyOp42
 70
     0
102
RTVSPropertyOp43
 70
     0
102
RTVSPropertyOp44
 70
     0
102
RTVSPropertyOp45
 70
     0
102
RTVSPropertyOp46
 70
     0
102
RTVSPropertyOp47
 70
     0
102
RTVSPropertyOp48
 70
     0
102
RTVSPropertyOp49
 70
     0
102
RTVSPropertyOp50
 70
     0
102
RTVSPropertyOp51
 70
     0
102
RTVSPropertyOp52
 70
     0
102
RTVSPropertyOp53
 70
     0
102
RTVSPropertyOp54
 70
     0
102
RTVSPropertyOp55
 70
     0
102
RTVSPropertyOp56
 70
     0
102
RTVSPropertyOp57
 70
     0
102
RTVSPost2010Prop28
280
     0
102
RTVSPost2010PropOp28
 70
     0
102
RTVSPost2010Prop29
280
     1
102
RTVSPost2010PropOp29
 70
     0
102
RTVSPost2010Prop30
280
     1
102
RTVSPost2010PropOp30
 70
     0
102
RTVSPost2010Prop31
280
     0
102
RTVSPost2010PropOp31
 70
     0
102
RTVSPost2010Prop32
280
     0
102
RTVSPost2010PropOp32
 70
     0
102
RTVSPost2010Prop33
280
     0
102
RTVSPost2010PropOp33
 70
     0
102
RTVSPost2010Prop34
280
     0
102
RTVSPost2010PropOp34
 70
     0
102
RTVSPost2010Prop35
280
     0
102
RTVSPost2010PropOp35
 70
     0
102
RTVSPost2010Prop36
280
     0
102
RTVSPost2010PropOp36
 70
     0
102
RTVSPost2010Prop37
 90
       50
102
RTVSPost2010PropOp37
 70
     0
102
RTVSPost2010Prop38
140
0.0
102
RTVSPost2010PropOp38
 70
     0
102
RTVSPost2010Prop39
140
1.0
102
RTVSPost2010PropOp39
 70
     0
102
RTVSPost2010Prop40
 90
        0
102
RTVSPost2010PropOp40
 70
     0
102
RTVSPost2010Prop41ColorIndex
 90
       18
102
RTVSPost2010Prop41ColorRGB
 90
        0
102
RTVSPost2010PropOp41
 70
     0
102
RTVSPost2010Prop42
 90
       50
102
RTVSPost2010PropOp42
 70
     0
102
RTVSPost2010Prop43
 90
        3
102
RTVSPost2010PropOp43
 70
     0
102
RTVSPost2010Prop44ColorIndex
 90
        5
102
RTVSPost2010Prop44ColorRGB
 90
      255
102
RTVSPost2010PropOp44
 70
     0
102
RTVSPost2010Prop45
280
     0
102
RTVSPost2010PropOp45
 70
     0
102
RTVSPost2010Prop46
 90
       50
102
RTVSPost2010PropOp46
 70
     0
102
RTVSPost2010Prop47
 90
       50
102
RTVSPost2010PropOp47
 70
     0
102
RTVSPost2010Prop48
 90
       50
102
RTVSPost2010PropOp48
 70
     0
102
RTVSPost2010Prop49
280
     0
102
RTVSPost2010PropOp49
 70
     0
102
RTVSPost2010Prop50
 90
       50
102
RTVSPost2010PropOp50
 70
     0
102
RTVSPost2010Prop51ColorIndex
 90
      256
102
RTVSPost2010Prop51ColorRGB
 90
-16777216
102
RTVSPost2010PropOp51
 70
     0
102
RTVSPost2010Prop52
140
1.0
102
RTVSPost2010PropOp52
 70
     0
102
RTVSPost2010Prop53
 90
        2
102
RTVSPost2010PropOp53
 70
     0
102
RTVSPost2010Prop54
  1
strokes_ogs.tif
102
RTVSPost2010PropOp54
 70
     0
102
RTVSPost2010Prop55
280
     0
102
RTVSPost2010PropOp55
 70
     0
102
RTVSPost2010Prop56
140
1.0
102
RTVSPost2010PropOp56
 70
     0
102
RTVSPost2010Prop57
140
1.0
102
RTVSPost2010PropOp57
 70
     0
  0
XRECORD
  5
233
102
{ACAD_REACTORS
330
232
102
}
330
232
100
AcDbXrecord
280
     1
102
RTVSPropertyOp0
 70
     1
102
RTVSPropertyOp1
 70
     1
102
RTVSPropertyOp2
 70
     1
102
RTVSPropertyOp3
 70
     1
102
RTVSPropertyOp4
 70
     1
102
RTVSPropertyOp5
 70
     1
102
RTVSPropertyOp6
 70
     1
102
RTVSPropertyOp7
 70
     1
102
RTVSPropertyOp8
 70
     1
102
RTVSPropertyOp9
 70
     1
102
RTVSPropertyOp10
 70
     1
102
RTVSPropertyOp11
 70
     1
102
RTVSPropertyOp12
 70
     1
102
RTVSPropertyOp13
 70
     1
102
RTVSPropertyOp14
 70
     1
102
RTVSPropertyOp15
 70
     1
102
RTVSPropertyOp16
 70
     1
102
RTVSPropertyOp17
 70
     1
102
RTVSPropertyOp18
 70
     1
102
RTVSPropertyOp19
 70
     1
102
RTVSPropertyOp20
 70
     1
102
RTVSPropertyOp21
 70
     1
102
RTVSPropertyOp22
 70
     1
102
RTVSPropertyOp23
 70
     1
102
RTVSPropertyOp24
 70
     1
102
RTVSPropertyOp25
 70
     1
102
RTVSPropertyOp26
 70
     1
102
RTVSPropertyOp27
 70
     1
102
RTVSPropertyOp28
 70
     1
102
RTVSPropertyOp29
 70
     1
102
RTVSPropertyOp30
 70
     1
102
RTVSPropertyOp31
 70
     1
102
RTVSPropertyOp32
 70
     1
102
RTVSPropertyOp33
 70
     1
102
RTVSPropertyOp34
 70
     1
102
RTVSPropertyOp35
 70
     1
102
RTVSPropertyOp36
 70
     1
102
RTVSPropertyOp37
 70
     1
102
RTVSPropertyOp38
 70
     1
102
RTVSPropertyOp39
 70
     1
102
RTVSPropertyOp40
 70
     1
102
RTVSPropertyOp41
 70
     1
102
RTVSPropertyOp42
 70
     1
102
RTVSPropertyOp43
 70
     1
102
RTVSPropertyOp44
 70
     1
102
RTVSPropertyOp45
 70
     1
102
RTVSPropertyOp46
 70
     1
102
RTVSPropertyOp47
 70
     1
102
RTVSPropertyOp48
 70
     1
102
RTVSPropertyOp49
 70
     1
102
RTVSPropertyOp50
 70
     1
102
RTVSPropertyOp51
 70
     0
102
RTVSPropertyOp52
 70
     0
102
RTVSPropertyOp53
 70
     1
102
RTVSPropertyOp54
 70
     1
102
RTVSPropertyOp55
 70
     1
102
RTVSPropertyOp56
 70
     1
102
RTVSPropertyOp57
 70
     1
102
RTVSPost2010Prop28
280
     0
102
RTVSPost2010PropOp28
 70
     1
102
RTVSPost2010Prop29
280
     1
102
RTVSPost2010PropOp29
 70
     1
102
RTVSPost2010Prop30
280
     1
102
RTVSPost2010PropOp30
 70
     1
102
RTVSPost2010Prop31
280
     0
102
RTVSPost2010PropOp31
 70
     1
102
RTVSPost2010Prop32
280
     0
102
RTVSPost2010PropOp32
 70
     1
102
RTVSPost2010Prop33
280
     0
102
RTVSPost2010PropOp33
 70
     1
102
RTVSPost2010Prop34
280
     0
102
RTVSPost2010PropOp34
 70
     1
102
RTVSPost2010Prop35
280
     0
102
RTVSPost2010PropOp35
 70
     1
102
RTVSPost2010Prop36
280
     0
102
RTVSPost2010PropOp36
 70
     1
102
RTVSPost2010Prop37
 90
       50
102
RTVSPost2010PropOp37
 70
     1
102
RTVSPost2010Prop38
140
0.0
102
RTVSPost2010PropOp38
 70
     1
102
RTVSPost2010Prop39
140
1.0
102
RTVSPost2010PropOp39
 70
     1
102
RTVSPost2010Prop40
 90
        0
102
RTVSPost2010PropOp40
 70
     1
102
RTVSPost2010Prop41ColorIndex
 90
       18
102
RTVSPost2010Prop41ColorRGB
 90
        0
102
RTVSPost2010PropOp41
 70
     1
102
RTVSPost2010Prop42
 90
       50
102
RTVSPost2010PropOp42
 70
     1
102
RTVSPost2010Prop43
 90
        3
102
RTVSPost2010PropOp43
 70
     1
102
RTVSPost2010Prop44ColorIndex
 90
        5
102
RTVSPost2010Prop44ColorRGB
 90
      255
102
RTVSPost2010PropOp44
 70
     1
102
RTVSPost2010Prop45
280
     0
102
RTVSPost2010PropOp45
 70
     1
102
RTVSPost2010Prop46
 90
       50
102
RTVSPost2010PropOp46
 70
     1
102
RTVSPost2010Prop47
 90
       50
102
RTVSPost2010PropOp47
 70
     1
102
RTVSPost2010Prop48
 90
       50
102
RTVSPost2010PropOp48
 70
     1
102
RTVSPost2010Prop49
280
     0
102
RTVSPost2010PropOp49
 70
     1
102
RTVSPost2010Prop50
 90
       50
102
RTVSPost2010PropOp50
 70
     1
102
RTVSPost2010Prop51ColorIndex
 90
      256
102
RTVSPost2010Prop51ColorRGB
 90
-16777216
102
RTVSPost2010PropOp51
 70
     0
102
RTVSPost2010Prop52
140
1.0
102
RTVSPost2010PropOp52
 70
     0
102
RTVSPost2010Prop53
 90
        2
102
RTVSPost2010PropOp53
 70
     1
102
RTVSPost2010Prop54
  1
strokes_ogs.tif
102
RTVSPost2010PropOp54
 70
     1
102
RTVSPost2010Prop55
280
     0
102
RTVSPost2010PropOp55
 70
     1
102
RTVSPost2010Prop56
140
1.0
102
RTVSPost2010PropOp56
 70
     1
102
RTVSPost2010Prop57
140
1.0
102
RTVSPost2010PropOp57
 70
     1
  0
XRECORD
  5
251
102
{ACAD_REACTORS
330
250
102
}
330
250
100
AcDbXrecord
280
     1
102
RTVSPropertyOp0
 70
     1
102
RTVSPropertyOp1
 70
     1
102
RTVSPropertyOp2
 70
     1
102
RTVSPropertyOp3
 70
     1
102
RTVSPropertyOp4
 70
     1
102
RTVSPropertyOp5
 70
     1
102
RTVSPropertyOp6
 70
     1
102
RTVSPropertyOp7
 70
     1
102
RTVSPropertyOp8
 70
     1
102
RTVSPropertyOp9
 70
     1
102
RTVSPropertyOp10
 70
     1
102
RTVSPropertyOp11
 70
     1
102
RTVSPropertyOp12
 70
     1
102
RTVSPropertyOp13
 70
     1
102
RTVSPropertyOp14
 70
     1
102
RTVSPropertyOp15
 70
     1
102
RTVSPropertyOp16
 70
     1
102
RTVSPropertyOp17
 70
     1
102
RTVSPropertyOp18
 70
     1
102
RTVSPropertyOp19
 70
     1
102
RTVSPropertyOp20
 70
     1
102
RTVSPropertyOp21
 70
     1
102
RTVSPropertyOp22
 70
     1
102
RTVSPropertyOp23
 70
     1
102
RTVSPropertyOp24
 70
     1
102
RTVSPropertyOp25
 70
     1
102
RTVSPropertyOp26
 70
     1
102
RTVSPropertyOp27
 70
     1
102
RTVSPropertyOp28
 70
     1
102
RTVSPropertyOp29
 70
     1
102
RTVSPropertyOp30
 70
     1
102
RTVSPropertyOp31
 70
     1
102
RTVSPropertyOp32
 70
     1
102
RTVSPropertyOp33
 70
     1
102
RTVSPropertyOp34
 70
     1
102
RTVSPropertyOp35
 70
     1
102
RTVSPropertyOp36
 70
     1
102
RTVSPropertyOp37
 70
     1
102
RTVSPropertyOp38
 70
     1
102
RTVSPropertyOp39
 70
     1
102
RTVSPropertyOp40
 70
     1
102
RTVSPropertyOp41
 70
     1
102
RTVSPropertyOp42
 70
     1
102
RTVSPropertyOp43
 70
     1
102
RTVSPropertyOp44
 70
     1
102
RTVSPropertyOp45
 70
     1
102
RTVSPropertyOp46
 70
     1
102
RTVSPropertyOp47
 70
     1
102
RTVSPropertyOp48
 70
     1
102
RTVSPropertyOp49
 70
     1
102
RTVSPropertyOp50
 70
     1
102
RTVSPropertyOp51
 70
     0
102
RTVSPropertyOp52
 70
     0
102
RTVSPropertyOp53
 70
     1
102
RTVSPropertyOp54
 70
     1
102
RTVSPropertyOp55
 70
     1
102
RTVSPropertyOp56
 70
     1
102
RTVSPropertyOp57
 70
     1
102
RTVSPost2010Prop28
280
     0
102
RTVSPost2010PropOp28
 70
     1
102
RTVSPost2010Prop29
280
     1
102
RTVSPost2010PropOp29
 70
     1
102
RTVSPost2010Prop30
280
     1
102
RTVSPost2010PropOp30
 70
     1
102
RTVSPost2010Prop31
280
     0
102
RTVSPost2010PropOp31
 70
     1
102
RTVSPost2010Prop32
280
     0
102
RTVSPost2010PropOp32
 70
     1
102
RTVSPost2010Prop33
280
     0
102
RTVSPost2010PropOp33
 70
     1
102
RTVSPost2010Prop34
280
     0
102
RTVSPost2010PropOp34
 70
     1
102
RTVSPost2010Prop35
280
     0
102
RTVSPost2010PropOp35
 70
     1
102
RTVSPost2010Prop36
280
     0
102
RTVSPost2010PropOp36
 70
     1
102
RTVSPost2010Prop37
 90
       50
102
RTVSPost2010PropOp37
 70
     1
102
RTVSPost2010Prop38
140
0.0
102
RTVSPost2010PropOp38
 70
     1
102
RTVSPost2010Prop39
140
1.0
102
RTVSPost2010PropOp39
 70
     1
102
RTVSPost2010Prop40
 90
        0
102
RTVSPost2010PropOp40
 70
     1
102
RTVSPost2010Prop41ColorIndex
 90
       18
102
RTVSPost2010Prop41ColorRGB
 90
        0
102
RTVSPost2010PropOp41
 70
     1
102
RTVSPost2010Prop42
 90
       50
102
RTVSPost2010PropOp42
 70
     1
102
RTVSPost2010Prop43
 90
        3
102
RTVSPost2010PropOp43
 70
     1
102
RTVSPost2010Prop44ColorIndex
 90
        5
102
RTVSPost2010Prop44ColorRGB
 90
      255
102
RTVSPost2010PropOp44
 70
     1
102
RTVSPost2010Prop45
280
     0
102
RTVSPost2010PropOp45
 70
     1
102
RTVSPost2010Prop46
 90
       50
102
RTVSPost2010PropOp46
 70
     1
102
RTVSPost2010Prop47
 90
       50
102
RTVSPost2010PropOp47
 70
     1
102
RTVSPost2010Prop48
 90
       50
102
RTVSPost2010PropOp48
 70
     1
102
RTVSPost2010Prop49
280
     0
102
RTVSPost2010PropOp49
 70
     1
102
RTVSPost2010Prop50
 90
       50
102
RTVSPost2010PropOp50
 70
     1
102
RTVSPost2010Prop51ColorIndex
 90
      256
102
RTVSPost2010Prop51ColorRGB
 90
-16777216
102
RTVSPost2010PropOp51
 70
     0
102
RTVSPost2010Prop52
140
1.0
102
RTVSPost2010PropOp52
 70
     0
102
RTVSPost2010Prop53
 90
        2
102
RTVSPost2010PropOp53
 70
     1
102
RTVSPost2010Prop54
  1
strokes_ogs.tif
102
RTVSPost2010PropOp54
 70
     1
102
RTVSPost2010Prop55
280
     0
102
RTVSPost2010PropOp55
 70
     1
102
RTVSPost2010Prop56
140
1.0
102
RTVSPost2010PropOp56
 70
     1
102
RTVSPost2010Prop57
140
1.0
102
RTVSPost2010PropOp57
 70
     1
  0
XRECORD
  5
24F
102
{ACAD_REACTORS
330
24E
102
}
330
24E
100
AcDbXrecord
280
     1
102
RTVSPropertyOp0
 70
     1
102
RTVSPropertyOp1
 70
     1
102
RTVSPropertyOp2
 70
     1
102
RTVSPropertyOp3
 70
     1
102
RTVSPropertyOp4
 70
     1
102
RTVSPropertyOp5
 70
     1
102
RTVSPropertyOp6
 70
     1
102
RTVSPropertyOp7
 70
     1
102
RTVSPropertyOp8
 70
     1
102
RTVSPropertyOp9
 70
     1
102
RTVSPropertyOp10
 70
     1
102
RTVSPropertyOp11
 70
     1
102
RTVSPropertyOp12
 70
     1
102
RTVSPropertyOp13
 70
     1
102
RTVSPropertyOp14
 70
     1
102
RTVSPropertyOp15
 70
     1
102
RTVSPropertyOp16
 70
     1
102
RTVSPropertyOp17
 70
     1
102
RTVSPropertyOp18
 70
     1
102
RTVSPropertyOp19
 70
     1
102
RTVSPropertyOp20
 70
     1
102
RTVSPropertyOp21
 70
     1
102
RTVSPropertyOp22
 70
     1
102
RTVSPropertyOp23
 70
     1
102
RTVSPropertyOp24
 70
     1
102
RTVSPropertyOp25
 70
     1
102
RTVSPropertyOp26
 70
     1
102
RTVSPropertyOp27
 70
     1
102
RTVSPropertyOp28
 70
     1
102
RTVSPropertyOp29
 70
     1
102
RTVSPropertyOp30
 70
     1
102
RTVSPropertyOp31
 70
     1
102
RTVSPropertyOp32
 70
     1
102
RTVSPropertyOp33
 70
     1
102
RTVSPropertyOp34
 70
     1
102
RTVSPropertyOp35
 70
     1
102
RTVSPropertyOp36
 70
     1
102
RTVSPropertyOp37
 70
     1
102
RTVSPropertyOp38
 70
     1
102
RTVSPropertyOp39
 70
     1
102
RTVSPropertyOp40
 70
     1
102
RTVSPropertyOp41
 70
     1
102
RTVSPropertyOp42
 70
     1
102
RTVSPropertyOp43
 70
     1
102
RTVSPropertyOp44
 70
     1
102
RTVSPropertyOp45
 70
     1
102
RTVSPropertyOp46
 70
     1
102
RTVSPropertyOp47
 70
     1
102
RTVSPropertyOp48
 70
     1
102
RTVSPropertyOp49
 70
     1
102
RTVSPropertyOp50
 70
     1
102
RTVSPropertyOp51
 70
     0
102
RTVSPropertyOp52
 70
     0
102
RTVSPropertyOp53
 70
     1
102
RTVSPropertyOp54
 70
     1
102
RTVSPropertyOp55
 70
     1
102
RTVSPropertyOp56
 70
     1
102
RTVSPropertyOp57
 70
     1
102
RTVSPost2010Prop28
280
     0
102
RTVSPost2010PropOp28
 70
     1
102
RTVSPost2010Prop29
280
     1
102
RTVSPost2010PropOp29
 70
     1
102
RTVSPost2010Prop30
280
     1
102
RTVSPost2010PropOp30
 70
     1
102
RTVSPost2010Prop31
280
     0
102
RTVSPost2010PropOp31
 70
     1
102
RTVSPost2010Prop32
280
     0
102
RTVSPost2010PropOp32
 70
     1
102
RTVSPost2010Prop33
280
     0
102
RTVSPost2010PropOp33
 70
     1
102
RTVSPost2010Prop34
280
     0
102
RTVSPost2010PropOp34
 70
     1
102
RTVSPost2010Prop35
280
     0
102
RTVSPost2010PropOp35
 70
     1
102
RTVSPost2010Prop36
280
     0
102
RTVSPost2010PropOp36
 70
     1
102
RTVSPost2010Prop37
 90
       50
102
RTVSPost2010PropOp37
 70
     1
102
RTVSPost2010Prop38
140
0.0
102
RTVSPost2010PropOp38
 70
     1
102
RTVSPost2010Prop39
140
1.0
102
RTVSPost2010PropOp39
 70
     1
102
RTVSPost2010Prop40
 90
        0
102
RTVSPost2010PropOp40
 70
     1
102
RTVSPost2010Prop41ColorIndex
 90
       18
102
RTVSPost2010Prop41ColorRGB
 90
        0
102
RTVSPost2010PropOp41
 70
     1
102
RTVSPost2010Prop42
 90
       50
102
RTVSPost2010PropOp42
 70
     1
102
RTVSPost2010Prop43
 90
        3
102
RTVSPost2010PropOp43
 70
     1
102
RTVSPost2010Prop44ColorIndex
 90
        5
102
RTVSPost2010Prop44ColorRGB
 90
      255
102
RTVSPost2010PropOp44
 70
     1
102
RTVSPost2010Prop45
280
     0
102
RTVSPost2010PropOp45
 70
     1
102
RTVSPost2010Prop46
 90
       50
102
RTVSPost2010PropOp46
 70
     1
102
RTVSPost2010Prop47
 90
       50
102
RTVSPost2010PropOp47
 70
     1
102
RTVSPost2010Prop48
 90
       50
102
RTVSPost2010PropOp48
 70
     1
102
RTVSPost2010Prop49
280
     0
102
RTVSPost2010PropOp49
 70
     1
102
RTVSPost2010Prop50
 90
       50
102
RTVSPost2010PropOp50
 70
     1
102
RTVSPost2010Prop51ColorIndex
 90
      256
102
RTVSPost2010Prop51ColorRGB
 90
-16777216
102
RTVSPost2010PropOp51
 70
     0
102
RTVSPost2010Prop52
140
1.0
102
RTVSPost2010PropOp52
 70
     0
102
RTVSPost2010Prop53
 90
        2
102
RTVSPost2010PropOp53
 70
     1
102
RTVSPost2010Prop54
  1
strokes_ogs.tif
102
RTVSPost2010PropOp54
 70
     1
102
RTVSPost2010Prop55
280
     0
102
RTVSPost2010PropOp55
 70
     1
102
RTVSPost2010Prop56
140
1.0
102
RTVSPost2010PropOp56
 70
     1
102
RTVSPost2010Prop57
140
1.0
102
RTVSPost2010PropOp57
 70
     1
  0
XRECORD
  5
249
102
{ACAD_REACTORS
330
248
102
}
330
248
100
AcDbXrecord
280
     1
102
RTVSPropertyOp0
 70
     1
102
RTVSPropertyOp1
 70
     1
102
RTVSPropertyOp2
 70
     1
102
RTVSPropertyOp3
 70
     1
102
RTVSPropertyOp4
 70
     1
102
RTVSPropertyOp5
 70
     1
102
RTVSPropertyOp6
 70
     1
102
RTVSPropertyOp7
 70
     1
102
RTVSPropertyOp8
 70
     1
102
RTVSPropertyOp9
 70
     1
102
RTVSPropertyOp10
 70
     1
102
RTVSPropertyOp11
 70
     1
102
RTVSPropertyOp12
 70
     1
102
RTVSPropertyOp13
 70
     1
102
RTVSPropertyOp14
 70
     1
102
RTVSPropertyOp15
 70
     1
102
RTVSPropertyOp16
 70
     1
102
RTVSPropertyOp17
 70
     1
102
RTVSPropertyOp18
 70
     1
102
RTVSPropertyOp19
 70
     1
102
RTVSPropertyOp20
 70
     1
102
RTVSPropertyOp21
 70
     1
102
RTVSPropertyOp22
 70
     1
102
RTVSPropertyOp23
 70
     1
102
RTVSPropertyOp24
 70
     1
102
RTVSPropertyOp25
 70
     1
102
RTVSPropertyOp26
 70
     1
102
RTVSPropertyOp27
 70
     1
102
RTVSPropertyOp28
 70
     1
102
RTVSPropertyOp29
 70
     1
102
RTVSPropertyOp30
 70
     1
102
RTVSPropertyOp31
 70
     1
102
RTVSPropertyOp32
 70
     1
102
RTVSPropertyOp33
 70
     1
102
RTVSPropertyOp34
 70
     1
102
RTVSPropertyOp35
 70
     1
102
RTVSPropertyOp36
 70
     1
102
RTVSPropertyOp37
 70
     1
102
RTVSPropertyOp38
 70
     1
102
RTVSPropertyOp39
 70
     1
102
RTVSPropertyOp40
 70
     1
102
RTVSPropertyOp41
 70
     1
102
RTVSPropertyOp42
 70
     1
102
RTVSPropertyOp43
 70
     1
102
RTVSPropertyOp44
 70
     1
102
RTVSPropertyOp45
 70
     1
102
RTVSPropertyOp46
 70
     1
102
RTVSPropertyOp47
 70
     1
102
RTVSPropertyOp48
 70
     1
102
RTVSPropertyOp49
 70
     1
102
RTVSPropertyOp50
 70
     1
102
RTVSPropertyOp51
 70
     0
102
RTVSPropertyOp52
 70
     0
102
RTVSPropertyOp53
 70
     1
102
RTVSPropertyOp54
 70
     1
102
RTVSPropertyOp55
 70
     1
102
RTVSPropertyOp56
 70
     1
102
RTVSPropertyOp57
 70
     1
102
RTVSPost2010Prop28
280
     0
102
RTVSPost2010PropOp28
 70
     1
102
RTVSPost2010Prop29
280
     1
102
RTVSPost2010PropOp29
 70
     1
102
RTVSPost2010Prop30
280
     1
102
RTVSPost2010PropOp30
 70
     1
102
RTVSPost2010Prop31
280
     0
102
RTVSPost2010PropOp31
 70
     1
102
RTVSPost2010Prop32
280
     0
102
RTVSPost2010PropOp32
 70
     1
102
RTVSPost2010Prop33
280
     0
102
RTVSPost2010PropOp33
 70
     1
102
RTVSPost2010Prop34
280
     0
102
RTVSPost2010PropOp34
 70
     1
102
RTVSPost2010Prop35
280
     0
102
RTVSPost2010PropOp35
 70
     1
102
RTVSPost2010Prop36
280
     0
102
RTVSPost2010PropOp36
 70
     1
102
RTVSPost2010Prop37
 90
       50
102
RTVSPost2010PropOp37
 70
     1
102
RTVSPost2010Prop38
140
0.0
102
RTVSPost2010PropOp38
 70
     1
102
RTVSPost2010Prop39
140
1.0
102
RTVSPost2010PropOp39
 70
     1
102
RTVSPost2010Prop40
 90
        0
102
RTVSPost2010PropOp40
 70
     1
102
RTVSPost2010Prop41ColorIndex
 90
       18
102
RTVSPost2010Prop41ColorRGB
 90
        0
102
RTVSPost2010PropOp41
 70
     1
102
RTVSPost2010Prop42
 90
       50
102
RTVSPost2010PropOp42
 70
     1
102
RTVSPost2010Prop43
 90
        3
102
RTVSPost2010PropOp43
 70
     1
102
RTVSPost2010Prop44ColorIndex
 90
        5
102
RTVSPost2010Prop44ColorRGB
 90
      255
102
RTVSPost2010PropOp44
 70
     1
102
RTVSPost2010Prop45
280
     0
102
RTVSPost2010PropOp45
 70
     1
102
RTVSPost2010Prop46
 90
       50
102
RTVSPost2010PropOp46
 70
     1
102
RTVSPost2010Prop47
 90
       50
102
RTVSPost2010PropOp47
 70
     1
102
RTVSPost2010Prop48
 90
       50
102
RTVSPost2010PropOp48
 70
     1
102
RTVSPost2010Prop49
280
     0
102
RTVSPost2010PropOp49
 70
     1
102
RTVSPost2010Prop50
 90
       50
102
RTVSPost2010PropOp50
 70
     1
102
RTVSPost2010Prop51ColorIndex
 90
      256
102
RTVSPost2010Prop51ColorRGB
 90
-16777216
102
RTVSPost2010PropOp51
 70
     0
102
RTVSPost2010Prop52
140
1.0
102
RTVSPost2010PropOp52
 70
     0
102
RTVSPost2010Prop53
 90
        2
102
RTVSPost2010PropOp53
 70
     1
102
RTVSPost2010Prop54
  1
strokes_ogs.tif
102
RTVSPost2010PropOp54
 70
     1
102
RTVSPost2010Prop55
280
     0
102
RTVSPost2010PropOp55
 70
     1
102
RTVSPost2010Prop56
140
1.0
102
RTVSPost2010PropOp56
 70
     1
102
RTVSPost2010Prop57
140
1.0
102
RTVSPost2010PropOp57
 70
     1
  0
XRECORD
  5
24B
102
{ACAD_REACTORS
330
24A
102
}
330
24A
100
AcDbXrecord
280
     1
102
RTVSPropertyOp0
 70
     1
102
RTVSPropertyOp1
 70
     1
102
RTVSPropertyOp2
 70
     1
102
RTVSPropertyOp3
 70
     1
102
RTVSPropertyOp4
 70
     1
102
RTVSPropertyOp5
 70
     1
102
RTVSPropertyOp6
 70
     1
102
RTVSPropertyOp7
 70
     1
102
RTVSPropertyOp8
 70
     1
102
RTVSPropertyOp9
 70
     1
102
RTVSPropertyOp10
 70
     1
102
RTVSPropertyOp11
 70
     1
102
RTVSPropertyOp12
 70
     1
102
RTVSPropertyOp13
 70
     1
102
RTVSPropertyOp14
 70
     1
102
RTVSPropertyOp15
 70
     1
102
RTVSPropertyOp16
 70
     1
102
RTVSPropertyOp17
 70
     1
102
RTVSPropertyOp18
 70
     1
102
RTVSPropertyOp19
 70
     1
102
RTVSPropertyOp20
 70
     1
102
RTVSPropertyOp21
 70
     1
102
RTVSPropertyOp22
 70
     1
102
RTVSPropertyOp23
 70
     1
102
RTVSPropertyOp24
 70
     1
102
RTVSPropertyOp25
 70
     1
102
RTVSPropertyOp26
 70
     1
102
RTVSPropertyOp27
 70
     1
102
RTVSPropertyOp28
 70
     1
102
RTVSPropertyOp29
 70
     1
102
RTVSPropertyOp30
 70
     1
102
RTVSPropertyOp31
 70
     1
102
RTVSPropertyOp32
 70
     1
102
RTVSPropertyOp33
 70
     1
102
RTVSPropertyOp34
 70
     1
102
RTVSPropertyOp35
 70
     1
102
RTVSPropertyOp36
 70
     1
102
RTVSPropertyOp37
 70
     1
102
RTVSPropertyOp38
 70
     1
102
RTVSPropertyOp39
 70
     1
102
RTVSPropertyOp40
 70
     1
102
RTVSPropertyOp41
 70
     1
102
RTVSPropertyOp42
 70
     1
102
RTVSPropertyOp43
 70
     1
102
RTVSPropertyOp44
 70
     1
102
RTVSPropertyOp45
 70
     1
102
RTVSPropertyOp46
 70
     1
102
RTVSPropertyOp47
 70
     1
102
RTVSPropertyOp48
 70
     1
102
RTVSPropertyOp49
 70
     1
102
RTVSPropertyOp50
 70
     1
102
RTVSPropertyOp51
 70
     0
102
RTVSPropertyOp52
 70
     0
102
RTVSPropertyOp53
 70
     1
102
RTVSPropertyOp54
 70
     1
102
RTVSPropertyOp55
 70
     1
102
RTVSPropertyOp56
 70
     1
102
RTVSPropertyOp57
 70
     1
102
RTVSPost2010Prop28
280
     0
102
RTVSPost2010PropOp28
 70
     1
102
RTVSPost2010Prop29
280
     1
102
RTVSPost2010PropOp29
 70
     1
102
RTVSPost2010Prop30
280
     1
102
RTVSPost2010PropOp30
 70
     1
102
RTVSPost2010Prop31
280
     0
102
RTVSPost2010PropOp31
 70
     1
102
RTVSPost2010Prop32
280
     0
102
RTVSPost2010PropOp32
 70
     1
102
RTVSPost2010Prop33
280
     0
102
RTVSPost2010PropOp33
 70
     1
102
RTVSPost2010Prop34
280
     0
102
RTVSPost2010PropOp34
 70
     1
102
RTVSPost2010Prop35
280
     0
102
RTVSPost2010PropOp35
 70
     1
102
RTVSPost2010Prop36
280
     0
102
RTVSPost2010PropOp36
 70
     1
102
RTVSPost2010Prop37
 90
       50
102
RTVSPost2010PropOp37
 70
     1
102
RTVSPost2010Prop38
140
0.0
102
RTVSPost2010PropOp38
 70
     1
102
RTVSPost2010Prop39
140
1.0
102
RTVSPost2010PropOp39
 70
     1
102
RTVSPost2010Prop40
 90
        0
102
RTVSPost2010PropOp40
 70
     1
102
RTVSPost2010Prop41ColorIndex
 90
       18
102
RTVSPost2010Prop41ColorRGB
 90
        0
102
RTVSPost2010PropOp41
 70
     1
102
RTVSPost2010Prop42
 90
       50
102
RTVSPost2010PropOp42
 70
     1
102
RTVSPost2010Prop43
 90
        3
102
RTVSPost2010PropOp43
 70
     1
102
RTVSPost2010Prop44ColorIndex
 90
        5
102
RTVSPost2010Prop44ColorRGB
 90
      255
102
RTVSPost2010PropOp44
 70
     1
102
RTVSPost2010Prop45
280
     0
102
RTVSPost2010PropOp45
 70
     1
102
RTVSPost2010Prop46
 90
       50
102
RTVSPost2010PropOp46
 70
     1
102
RTVSPost2010Prop47
 90
       50
102
RTVSPost2010PropOp47
 70
     1
102
RTVSPost2010Prop48
 90
       50
102
RTVSPost2010PropOp48
 70
     1
102
RTVSPost2010Prop49
280
     0
102
RTVSPost2010PropOp49
 70
     1
102
RTVSPost2010Prop50
 90
       50
102
RTVSPost2010PropOp50
 70
     1
102
RTVSPost2010Prop51ColorIndex
 90
      256
102
RTVSPost2010Prop51ColorRGB
 90
-16777216
102
RTVSPost2010PropOp51
 70
     0
102
RTVSPost2010Prop52
140
1.0
102
RTVSPost2010PropOp52
 70
     0
102
RTVSPost2010Prop53
 90
        2
102
RTVSPost2010PropOp53
 70
     1
102
RTVSPost2010Prop54
  1
strokes_ogs.tif
102
RTVSPost2010PropOp54
 70
     1
102
RTVSPost2010Prop55
280
     0
102
RTVSPost2010PropOp55
 70
     1
102
RTVSPost2010Prop56
140
1.0
102
RTVSPost2010PropOp56
 70
     1
102
RTVSPost2010Prop57
140
1.0
102
RTVSPost2010PropOp57
 70
     1
  0
XRECORD
  5
23B
102
{ACAD_REACTORS
330
23A
102
}
330
23A
100
AcDbXrecord
280
     1
102
RTVSPropertyOp0
 70
     1
102
RTVSPropertyOp1
 70
     1
102
RTVSPropertyOp2
 70
     1
102
RTVSPropertyOp3
 70
     1
102
RTVSPropertyOp4
 70
     1
102
RTVSPropertyOp5
 70
     1
102
RTVSPropertyOp6
 70
     1
102
RTVSPropertyOp7
 70
     1
102
RTVSPropertyOp8
 70
     1
102
RTVSPropertyOp9
 70
     1
102
RTVSPropertyOp10
 70
     1
102
RTVSPropertyOp11
 70
     1
102
RTVSPropertyOp12
 70
     1
102
RTVSPropertyOp13
 70
     1
102
RTVSPropertyOp14
 70
     1
102
RTVSPropertyOp15
 70
     1
102
RTVSPropertyOp16
 70
     1
102
RTVSPropertyOp17
 70
     1
102
RTVSPropertyOp18
 70
     1
102
RTVSPropertyOp19
 70
     1
102
RTVSPropertyOp20
 70
     1
102
RTVSPropertyOp21
 70
     1
102
RTVSPropertyOp22
 70
     1
102
RTVSPropertyOp23
 70
     1
102
RTVSPropertyOp24
 70
     1
102
RTVSPropertyOp25
 70
     1
102
RTVSPropertyOp26
 70
     1
102
RTVSPropertyOp27
 70
     1
102
RTVSPropertyOp28
 70
     1
102
RTVSPropertyOp29
 70
     1
102
RTVSPropertyOp30
 70
     1
102
RTVSPropertyOp31
 70
     1
102
RTVSPropertyOp32
 70
     1
102
RTVSPropertyOp33
 70
     1
102
RTVSPropertyOp34
 70
     1
102
RTVSPropertyOp35
 70
     1
102
RTVSPropertyOp36
 70
     1
102
RTVSPropertyOp37
 70
     1
102
RTVSPropertyOp38
 70
     1
102
RTVSPropertyOp39
 70
     1
102
RTVSPropertyOp40
 70
     1
102
RTVSPropertyOp41
 70
     1
102
RTVSPropertyOp42
 70
     1
102
RTVSPropertyOp43
 70
     1
102
RTVSPropertyOp44
 70
     1
102
RTVSPropertyOp45
 70
     1
102
RTVSPropertyOp46
 70
     1
102
RTVSPropertyOp47
 70
     1
102
RTVSPropertyOp48
 70
     1
102
RTVSPropertyOp49
 70
     1
102
RTVSPropertyOp50
 70
     1
102
RTVSPropertyOp51
 70
     0
102
RTVSPropertyOp52
 70
     0
102
RTVSPropertyOp53
 70
     1
102
RTVSPropertyOp54
 70
     1
102
RTVSPropertyOp55
 70
     1
102
RTVSPropertyOp56
 70
     1
102
RTVSPropertyOp57
 70
     1
102
RTVSPost2010Prop28
280
     0
102
RTVSPost2010PropOp28
 70
     1
102
RTVSPost2010Prop29
280
     1
102
RTVSPost2010PropOp29
 70
     1
102
RTVSPost2010Prop30
280
     1
102
RTVSPost2010PropOp30
 70
     1
102
RTVSPost2010Prop31
280
     0
102
RTVSPost2010PropOp31
 70
     1
102
RTVSPost2010Prop32
280
     0
102
RTVSPost2010PropOp32
 70
     1
102
RTVSPost2010Prop33
280
     0
102
RTVSPost2010PropOp33
 70
     1
102
RTVSPost2010Prop34
280
     0
102
RTVSPost2010PropOp34
 70
     1
102
RTVSPost2010Prop35
280
     0
102
RTVSPost2010PropOp35
 70
     1
102
RTVSPost2010Prop36
280
     0
102
RTVSPost2010PropOp36
 70
     1
102
RTVSPost2010Prop37
 90
       50
102
RTVSPost2010PropOp37
 70
     1
102
RTVSPost2010Prop38
140
0.0
102
RTVSPost2010PropOp38
 70
     1
102
RTVSPost2010Prop39
140
1.0
102
RTVSPost2010PropOp39
 70
     1
102
RTVSPost2010Prop40
 90
        0
102
RTVSPost2010PropOp40
 70
     1
102
RTVSPost2010Prop41ColorIndex
 90
       18
102
RTVSPost2010Prop41ColorRGB
 90
        0
102
RTVSPost2010PropOp41
 70
     1
102
RTVSPost2010Prop42
 90
       50
102
RTVSPost2010PropOp42
 70
     1
102
RTVSPost2010Prop43
 90
        3
102
RTVSPost2010PropOp43
 70
     1
102
RTVSPost2010Prop44ColorIndex
 90
        5
102
RTVSPost2010Prop44ColorRGB
 90
      255
102
RTVSPost2010PropOp44
 70
     1
102
RTVSPost2010Prop45
280
     0
102
RTVSPost2010PropOp45
 70
     1
102
RTVSPost2010Prop46
 90
       50
102
RTVSPost2010PropOp46
 70
     1
102
RTVSPost2010Prop47
 90
       50
102
RTVSPost2010PropOp47
 70
     1
102
RTVSPost2010Prop48
 90
       50
102
RTVSPost2010PropOp48
 70
     1
102
RTVSPost2010Prop49
280
     0
102
RTVSPost2010PropOp49
 70
     1
102
RTVSPost2010Prop50
 90
       50
102
RTVSPost2010PropOp50
 70
     1
102
RTVSPost2010Prop51ColorIndex
 90
      256
102
RTVSPost2010Prop51ColorRGB
 90
-16777216
102
RTVSPost2010PropOp51
 70
     0
102
RTVSPost2010Prop52
140
1.0
102
RTVSPost2010PropOp52
 70
     0
102
RTVSPost2010Prop53
 90
        2
102
RTVSPost2010PropOp53
 70
     1
102
RTVSPost2010Prop54
  1
strokes_ogs.tif
102
RTVSPost2010PropOp54
 70
     1
102
RTVSPost2010Prop55
280
     0
102
RTVSPost2010PropOp55
 70
     1
102
RTVSPost2010Prop56
140
1.0
102
RTVSPost2010PropOp56
 70
     1
102
RTVSPost2010Prop57
140
1.0
102
RTVSPost2010PropOp57
 70
     1
  0
XRECORD
  5
22D
102
{ACAD_REACTORS
330
22C
102
}
330
22C
100
AcDbXrecord
280
     1
102
RTVSPropertyOp0
 70
     1
102
RTVSPropertyOp1
 70
     1
102
RTVSPropertyOp2
 70
     1
102
RTVSPropertyOp3
 70
     1
102
RTVSPropertyOp4
 70
     1
102
RTVSPropertyOp5
 70
     1
102
RTVSPropertyOp6
 70
     1
102
RTVSPropertyOp7
 70
     1
102
RTVSPropertyOp8
 70
     1
102
RTVSPropertyOp9
 70
     1
102
RTVSPropertyOp10
 70
     1
102
RTVSPropertyOp11
 70
     1
102
RTVSPropertyOp12
 70
     1
102
RTVSPropertyOp13
 70
     1
102
RTVSPropertyOp14
 70
     1
102
RTVSPropertyOp15
 70
     1
102
RTVSPropertyOp16
 70
     1
102
RTVSPropertyOp17
 70
     1
102
RTVSPropertyOp18
 70
     1
102
RTVSPropertyOp19
 70
     1
102
RTVSPropertyOp20
 70
     1
102
RTVSPropertyOp21
 70
     1
102
RTVSPropertyOp22
 70
     1
102
RTVSPropertyOp23
 70
     1
102
RTVSPropertyOp24
 70
     1
102
RTVSPropertyOp25
 70
     1
102
RTVSPropertyOp26
 70
     1
102
RTVSPropertyOp27
 70
     1
102
RTVSPropertyOp28
 70
     1
102
RTVSPropertyOp29
 70
     1
102
RTVSPropertyOp30
 70
     1
102
RTVSPropertyOp31
 70
     1
102
RTVSPropertyOp32
 70
     1
102
RTVSPropertyOp33
 70
     1
102
RTVSPropertyOp34
 70
     1
102
RTVSPropertyOp35
 70
     1
102
RTVSPropertyOp36
 70
     1
102
RTVSPropertyOp37
 70
     1
102
RTVSPropertyOp38
 70
     1
102
RTVSPropertyOp39
 70
     1
102
RTVSPropertyOp40
 70
     1
102
RTVSPropertyOp41
 70
     1
102
RTVSPropertyOp42
 70
     1
102
RTVSPropertyOp43
 70
     1
102
RTVSPropertyOp44
 70
     1
102
RTVSPropertyOp45
 70
     1
102
RTVSPropertyOp46
 70
     1
102
RTVSPropertyOp47
 70
     1
102
RTVSPropertyOp48
 70
     1
102
RTVSPropertyOp49
 70
     1
102
RTVSPropertyOp50
 70
     1
102
RTVSPropertyOp51
 70
     0
102
RTVSPropertyOp52
 70
     0
102
RTVSPropertyOp53
 70
     1
102
RTVSPropertyOp54
 70
     1
102
RTVSPropertyOp55
 70
     1
102
RTVSPropertyOp56
 70
     1
102
RTVSPropertyOp57
 70
     1
102
RTVSPost2010Prop28
280
     0
102
RTVSPost2010PropOp28
 70
     1
102
RTVSPost2010Prop29
280
     1
102
RTVSPost2010PropOp29
 70
     1
102
RTVSPost2010Prop30
280
     1
102
RTVSPost2010PropOp30
 70
     1
102
RTVSPost2010Prop31
280
     0
102
RTVSPost2010PropOp31
 70
     1
102
RTVSPost2010Prop32
280
     0
102
RTVSPost2010PropOp32
 70
     1
102
RTVSPost2010Prop33
280
     0
102
RTVSPost2010PropOp33
 70
     1
102
RTVSPost2010Prop34
280
     0
102
RTVSPost2010PropOp34
 70
     1
102
RTVSPost2010Prop35
280
     0
102
RTVSPost2010PropOp35
 70
     1
102
RTVSPost2010Prop36
280
     0
102
RTVSPost2010PropOp36
 70
     1
102
RTVSPost2010Prop37
 90
       50
102
RTVSPost2010PropOp37
 70
     1
102
RTVSPost2010Prop38
140
0.0
102
RTVSPost2010PropOp38
 70
     1
102
RTVSPost2010Prop39
140
1.0
102
RTVSPost2010PropOp39
 70
     1
102
RTVSPost2010Prop40
 90
        0
102
RTVSPost2010PropOp40
 70
     1
102
RTVSPost2010Prop41ColorIndex
 90
       18
102
RTVSPost2010Prop41ColorRGB
 90
        0
102
RTVSPost2010PropOp41
 70
     1
102
RTVSPost2010Prop42
 90
       50
102
RTVSPost2010PropOp42
 70
     1
102
RTVSPost2010Prop43
 90
        3
102
RTVSPost2010PropOp43
 70
     1
102
RTVSPost2010Prop44ColorIndex
 90
        5
102
RTVSPost2010Prop44ColorRGB
 90
      255
102
RTVSPost2010PropOp44
 70
     1
102
RTVSPost2010Prop45
280
     0
102
RTVSPost2010PropOp45
 70
     1
102
RTVSPost2010Prop46
 90
       50
102
RTVSPost2010PropOp46
 70
     1
102
RTVSPost2010Prop47
 90
       50
102
RTVSPost2010PropOp47
 70
     1
102
RTVSPost2010Prop48
 90
       50
102
RTVSPost2010PropOp48
 70
     1
102
RTVSPost2010Prop49
280
     0
102
RTVSPost2010PropOp49
 70
     1
102
RTVSPost2010Prop50
 90
       50
102
RTVSPost2010PropOp50
 70
     1
102
RTVSPost2010Prop51ColorIndex
 90
      256
102
RTVSPost2010Prop51ColorRGB
 90
-16777216
102
RTVSPost2010PropOp51
 70
     0
102
RTVSPost2010Prop52
140
1.0
102
RTVSPost2010PropOp52
 70
     0
102
RTVSPost2010Prop53
 90
        2
102
RTVSPost2010PropOp53
 70
     1
102
RTVSPost2010Prop54
  1
strokes_ogs.tif
102
RTVSPost2010PropOp54
 70
     1
102
RTVSPost2010Prop55
280
     0
102
RTVSPost2010PropOp55
 70
     1
102
RTVSPost2010Prop56
140
1.0
102
RTVSPost2010PropOp56
 70
     1
102
RTVSPost2010Prop57
140
1.0
102
RTVSPost2010PropOp57
 70
     1
  0
XRECORD
  5
24D
102
{ACAD_REACTORS
330
24C
102
}
330
24C
100
AcDbXrecord
280
     1
102
RTVSPropertyOp0
 70
     1
102
RTVSPropertyOp1
 70
     1
102
RTVSPropertyOp2
 70
     1
102
RTVSPropertyOp3
 70
     1
102
RTVSPropertyOp4
 70
     1
102
RTVSPropertyOp5
 70
     1
102
RTVSPropertyOp6
 70
     1
102
RTVSPropertyOp7
 70
     1
102
RTVSPropertyOp8
 70
     1
102
RTVSPropertyOp9
 70
     1
102
RTVSPropertyOp10
 70
     1
102
RTVSPropertyOp11
 70
     1
102
RTVSPropertyOp12
 70
     1
102
RTVSPropertyOp13
 70
     1
102
RTVSPropertyOp14
 70
     1
102
RTVSPropertyOp15
 70
     1
102
RTVSPropertyOp16
 70
     1
102
RTVSPropertyOp17
 70
     1
102
RTVSPropertyOp18
 70
     1
102
RTVSPropertyOp19
 70
     1
102
RTVSPropertyOp20
 70
     1
102
RTVSPropertyOp21
 70
     1
102
RTVSPropertyOp22
 70
     1
102
RTVSPropertyOp23
 70
     1
102
RTVSPropertyOp24
 70
     1
102
RTVSPropertyOp25
 70
     1
102
RTVSPropertyOp26
 70
     1
102
RTVSPropertyOp27
 70
     1
102
RTVSPropertyOp28
 70
     1
102
RTVSPropertyOp29
 70
     1
102
RTVSPropertyOp30
 70
     1
102
RTVSPropertyOp31
 70
     1
102
RTVSPropertyOp32
 70
     1
102
RTVSPropertyOp33
 70
     1
102
RTVSPropertyOp34
 70
     1
102
RTVSPropertyOp35
 70
     1
102
RTVSPropertyOp36
 70
     1
102
RTVSPropertyOp37
 70
     1
102
RTVSPropertyOp38
 70
     1
102
RTVSPropertyOp39
 70
     1
102
RTVSPropertyOp40
 70
     1
102
RTVSPropertyOp41
 70
     1
102
RTVSPropertyOp42
 70
     1
102
RTVSPropertyOp43
 70
     1
102
RTVSPropertyOp44
 70
     1
102
RTVSPropertyOp45
 70
     1
102
RTVSPropertyOp46
 70
     1
102
RTVSPropertyOp47
 70
     1
102
RTVSPropertyOp48
 70
     1
102
RTVSPropertyOp49
 70
     1
102
RTVSPropertyOp50
 70
     1
102
RTVSPropertyOp51
 70
     0
102
RTVSPropertyOp52
 70
     0
102
RTVSPropertyOp53
 70
     1
102
RTVSPropertyOp54
 70
     1
102
RTVSPropertyOp55
 70
     1
102
RTVSPropertyOp56
 70
     1
102
RTVSPropertyOp57
 70
     1
102
RTVSPost2010Prop28
280
     0
102
RTVSPost2010PropOp28
 70
     1
102
RTVSPost2010Prop29
280
     1
102
RTVSPost2010PropOp29
 70
     1
102
RTVSPost2010Prop30
280
     1
102
RTVSPost2010PropOp30
 70
     1
102
RTVSPost2010Prop31
280
     0
102
RTVSPost2010PropOp31
 70
     1
102
RTVSPost2010Prop32
280
     0
102
RTVSPost2010PropOp32
 70
     1
102
RTVSPost2010Prop33
280
     0
102
RTVSPost2010PropOp33
 70
     1
102
RTVSPost2010Prop34
280
     0
102
RTVSPost2010PropOp34
 70
     1
102
RTVSPost2010Prop35
280
     0
102
RTVSPost2010PropOp35
 70
     1
102
RTVSPost2010Prop36
280
     0
102
RTVSPost2010PropOp36
 70
     1
102
RTVSPost2010Prop37
 90
       50
102
RTVSPost2010PropOp37
 70
     1
102
RTVSPost2010Prop38
140
0.0
102
RTVSPost2010PropOp38
 70
     1
102
RTVSPost2010Prop39
140
1.0
102
RTVSPost2010PropOp39
 70
     1
102
RTVSPost2010Prop40
 90
        0
102
RTVSPost2010PropOp40
 70
     1
102
RTVSPost2010Prop41ColorIndex
 90
       18
102
RTVSPost2010Prop41ColorRGB
 90
        0
102
RTVSPost2010PropOp41
 70
     1
102
RTVSPost2010Prop42
 90
       50
102
RTVSPost2010PropOp42
 70
     1
102
RTVSPost2010Prop43
 90
        3
102
RTVSPost2010PropOp43
 70
     1
102
RTVSPost2010Prop44ColorIndex
 90
        5
102
RTVSPost2010Prop44ColorRGB
 90
      255
102
RTVSPost2010PropOp44
 70
     1
102
RTVSPost2010Prop45
280
     0
102
RTVSPost2010PropOp45
 70
     1
102
RTVSPost2010Prop46
 90
       50
102
RTVSPost2010PropOp46
 70
     1
102
RTVSPost2010Prop47
 90
       50
102
RTVSPost2010PropOp47
 70
     1
102
RTVSPost2010Prop48
 90
       50
102
RTVSPost2010PropOp48
 70
     1
102
RTVSPost2010Prop49
280
     0
102
RTVSPost2010PropOp49
 70
     1
102
RTVSPost2010Prop50
 90
       50
102
RTVSPost2010PropOp50
 70
     1
102
RTVSPost2010Prop51ColorIndex
 90
      256
102
RTVSPost2010Prop51ColorRGB
 90
-16777216
102
RTVSPost2010PropOp51
 70
     0
102
RTVSPost2010Prop52
140
1.0
102
RTVSPost2010PropOp52
 70
     0
102
RTVSPost2010Prop53
 90
        2
102
RTVSPost2010PropOp53
 70
     1
102
RTVSPost2010Prop54
  1
strokes_ogs.tif
102
RTVSPost2010PropOp54
 70
     1
102
RTVSPost2010Prop55
280
     0
102
RTVSPost2010PropOp55
 70
     1
102
RTVSPost2010Prop56
140
1.0
102
RTVSPost2010PropOp56
 70
     1
102
RTVSPost2010Prop57
140
1.0
102
RTVSPost2010PropOp57
 70
     1
  0
ENDSEC
  0
SECTION
  2
THUMBNAILIMAGE
 90
    16364
310
28000000B40000005500000001000800000000000000000000000000000000000000000000000000FFFFFF00FF000000FFFF000000FF000000FFFF000000FF00FF00FF000000000080808000C0C0C000FF000000FF7F7F00A5000000A55252007F0000007F3F3F004C0000004C2626002600000026131300FF3F0000FF9F7F
310
00A5290000A56752007F1F00007F4F3F004C1300004C2F26002609000026171300FF7F0000FFBF7F00A5520000A57C52007F3F00007F5F3F004C2600004C39260026130000261C1300FFBF0000FFDF7F00A57C0000A59152007F5F00007F6F3F004C3900004C422600261C000026211300FFFF0000FFFF7F00A5A50000A5A5
310
52007F7F00007F7F3F004C4C00004C4C26002626000026261300BFFF0000DFFF7F007CA5000091A552005F7F00006F7F3F00394C0000424C26001C260000212613007FFF0000BFFF7F0052A500007CA552003F7F00005F7F3F00264C0000394C2600132600001C2613003FFF00009FFF7F0029A5000067A552001F7F00004F
310
7F3F00134C00002F4C2600092600001726130000FF00007FFF7F0000A5000052A55200007F00003F7F3F00004C0000264C2600002600001326130000FF3F007FFF9F0000A5290052A56700007F1F003F7F4F00004C1300264C2F00002609001326170000FF7F007FFFBF0000A5520052A57C00007F3F003F7F5F00004C2600
310
264C39000026130013261C0000FFBF007FFFDF0000A57C0052A59100007F5F003F7F6F00004C3900264C420000261C001326210000FFFF007FFFFF0000A5A50052A5A500007F7F003F7F7F00004C4C00264C4C00002626001326260000BFFF007FDFFF00007CA5005291A500005F7F003F6F7F0000394C0026424C00001C26
310
0013212600007FFF007FBFFF000052A500527CA500003F7F003F5F7F0000264C0026394C0000132600131C2600003FFF007F9FFF000029A5005267A500001F7F003F4F7F0000134C00262F4C0000092600131726000000FF007F7FFF000000A5005252A50000007F003F3F7F0000004C0026264C0000002600131326003F00
310
FF009F7FFF002900A5006752A5001F007F004F3F7F0013004C002F264C0009002600171326007F00FF00BF7FFF005200A5007C52A5003F007F005F3F7F0026004C0039264C00130026001C132600BF00FF00DF7FFF007C00A5009152A5005F007F006F3F7F0039004C0042264C001C00260021132600FF00FF00FF7FFF00A5
310
00A500A552A5007F007F007F3F7F004C004C004C264C002600260026132600FF00BF00FF7FDF00A5007C00A55291007F005F007F3F6F004C0039004C26420026001C0026132100FF007F00FF7FBF00A5005200A5527C007F003F007F3F5F004C0026004C2639002600130026131C00FF003F00FF7F9F00A5002900A5526700
310
7F001F007F3F4F004C0013004C262F002600090026131700000000002D2D2D005B5B5B0089898900B7B7B700B3B3B30000000000000000000000000000000000000000000000000000000000000000000000000000000000000000000000000000000000000000000000000000000000000000000000000000000000000000
310
00000000000000000000000000000000000000000000000000000000000000000000000000000000000000000000000000000000000000000000000000000000000000000000000000000000000000000000000000000000000000000000000000000000000000000000000000000000000000000000000000000000000000
310
00000000000000000000000000000000000000000000000000000000000000000000000000000000000000000000000000000000000000000000000000000000000000000000000000000000000000000000000000000000000000000000000000000000000000000000000000000000000000000000000000000000000000
310
00000000000000000000000000000000000000000000000000000000000000000000000000000000000000000000000000000000000000000000000000000000000000000000000000000000000000000000000000000000000000000000000000000000000000000000000000000000000000000000000000000000000000
310
00000000000000000000000000000000000000000000000000000000000000000000000000000000000000000000000000000000000000000000000000000000000000000000000000000000000000000000000000000000000000000000000000000000000000000000000000000000000000000000000000000000000000
310
00000000000000000000000000000000000000000000000000000000000000000000000000000000000000000000000000000000000000000003030303030000000000000000000000000000000000000000000000000000000000000000000000000000000000000000000000000000000000000000000000000000000000
310
00000000000000000000000000000000000000000000000000000000000000000000000000000000000000000000000000000000000000000000000000000000000000000000000000000000000000000000000000000000000000000000000000000000000000000707070707070303030303070707070707070700000000
310
00000000000000000000000000000000000000000000000000000000000000000000000000000000000000000000000000000000000000000000000000000000000000000000000000000000000000000000000000000000000000000000000000000000000000000000000000000000000000000000000000000000000000
310
00000000000000000000000000000000000000000000000000000000000007070707070707070707070707070707070707000000000000000000000000000000000000000000000000000000000000000000000000000000000000000000000000000000000000000000000000000000000000000000000000000000000000
310
00000000000000000000000000000000000000000000000000000000000000000000000000000000000000000000000000000000000000000000000000000000000000000000000000000000000000000000000700000700000303030300000000000000000700000000000000000000000000000000000000000000000000
310
00000000000000000000000000000000000000000000000000000000000000000000000000000000000000000000000000000000000000000000000000000000000000000000000000000000000000000000000000000000000000000000000000000000000000000000000000000000000000000000000000000000000000
310
00000000000000000007070707070707070307070707030303070707000000000000000000000000000000000000000000000000000000000000000000000000000000000000000000000000000000000000000000000000000000000000000000000000000000000000000000000000000000000000000000000000000000
310
00000000000000000000000000000000000000000000000000000000000000000000000000000000000000000000000000000000000000000000000000000707070700000303030303030303030300000700000000000000000000000000000000000000000000000000000000000000000000000000000000000000000000
310
00000000000000000000000000000000000000000000000000000000000000000000000000000000000000000000000000000000000000000000000000000000000000000000000000000000000000000000000000000000000000000000000000000000000000000000000000000000000000070000070000030303030303
310
03030303000007000000000000000000000000000000000000000000000000000000000000000000000000000000000000000000000000000000000000000000000000000000000000000000000000000000000000000000000000000000000000000000000000000000000000000000000000000000000000000000000000
310
00000000000000000000000000000000000000000000000000000000000000000000000000000000000700000700000000000000000000000000000700000000000000000000000000000000000000000000000000000000000000000000000000000000000000000000000000000000000000000000000000000000000000
310
00000000000000000000000000000000000000000000000000000000000000000000000000000000000000000000000000000000000000000000000000000000000000000000000000000000000000000000000000000000000000000000070707070707070707070707070707070707070000000000000000000000000000
310
00000000000000000000000000000000000000000000000000000000000000000000000000000000000000000000000000000000000000000000000000000000000000000000000000000000000000000000000000000000000000000000000000000000000000000000000000000000000000000000000000000000000000
310
00000000000000000000000000000000000000000000000000000000000000000000000000000000000000000000000000000000000000000000000000000000000000000000000000000000000000000000000000000000000000000000000000000000000000000000000000000000000000000000000000000000000000
310
00000000000000000000000000000000000000000000000000000000000000000000000000000000000000000000000000000000000000000000000000000000000000000000000000000000000000000000000000000000000000000000000000000000000000000000000000000000000000000000000000000000000000
310
00000000000000000000000000000000000000000000000000000000000000000000000000000000000000000000000000000000000000000000000000000000000000000000000000000000000000000000000000000000000000000000000000000000000000000000000000000000000000000000000000000000000000
310
00000000000000000000000000000000000000000000000000000000000000000000000000000000000000000000000000000000000000000000000000000000000000000000000000000000000000000000000000000000000000000000000000000000000000000000000000000000000000000000000000000000000000
310
00000000000000000000000000000000000000000000000000000000000000000000000000000000000000000000000000000000000000000000000000000000000000000000000000000000000000000000000000000000000000000000000000000000000000000000000000000000000000000000000000000000000000
310
00000000000000000000000000000000000000000000000000000000000000000000000000000000000000000000000000000000000000000000000000000000000000000000000000000000000000000000000000000000000000000000000000000000000000000000000000000000000000000000000000000000000000
310
00000000000000000000000000000000000000000000000000000000000000000000000000000000000000000000000000000000000000000000000000000000000000000000000000000000000000000000000000000000000000000000000000000000000000000000000000000000000000000000000000000000000000
310
00000000000000000000000000000000000000000000000000000000000000000000000000000000000000000000000000000000000000000000000000000000000000000000000000000000000000000000000000000000000000000000000000000000000000000000000000000000000000000000000000000000000000
310
00000000000000000000000000000000000000000000000000000000000000000000000000000000000000000000000000000000000000000000000000000000000000000000000000000000000000000000000000000000000000000000000000000000000000000000000000000000000000000000000000000000000000
310
00000000000000000000000000000000000000000000000000000000000000000000000000000000000000000000000000000000000000000000000000000000000000000000000000000000000000000000000000000000000000000000000000000000000000000000000000000000000000000000000000000000000000
310
00000000000000000000000000000000000000000000000000000000000000000000000000000000000000000000000000000000000000000000000000000000000000000000000000000000000000000000000000000000000000000000000000000000000000000000000000000000000000000000000000000000000000
310
00000000000000000000000000000000000000000000000000000000000000000000000000000000000000000000000000000000000000000000000000000000000000000000000000000000000000000000000000000000000000000000000000000000000000000000000000000000000000000000000000000000000000
310
00000000000000000000000000000000000000000000000000000000000000000000000000000000000000000000000000000000000000000000000000000000000000000000000000000000000000000000000000000000000000000000000000000000000000000000000000000000000000000000000000000000000000
310
00000000000000000000000000000000000000000000000000000000000000000000000000000000000000000000000000000000000000000000000000000000000000000000000000000000000000000000000000000000000000000000000000000000000000000000000000000000000000000000000000000000000000
310
00000000000000000000000000000000000000000000000000000000000000000000000000000000000000000000000000000000000000000000000000000000000000000000000000000000000000000000000000000000000000000000000000000000000000000000000000000000000000000000000000000000000000
310
00000000000000000000000000000000000000000000000000000000000000000000000000000000000000000000000000000000000000000000000000000000000000000000000000000000000000000000000000000000000000000000000000000000000000000000000000000000000000000000000000000000000000
310
00000000000000000000000000000000000000000000000000000000000000000000000000000000000000000000000000000000000000000000000000000000000000000000000000000000000000000000000000000000000000000000000000000000000000000000000000000000000000000000000000000000000000
310
00000000000000000000000000000000000000000000000000000000000000000000000000000000000000000000000000000000000000000000000000000000000000000000000000000000000000000000000000000000000000000000000000000000000000000000000000000000000000000000000000000000000000
310
00000000000000000000000000000000000000000000000000000000000000000000000000000000000000000000000000000000000000000000000000000000000000000000000000000000000000000000000000000000000000000000000000000000000000000000000000000000000000000000000000000000000000
310
00000000000000000000000000000000000000000000000000000000000000000000000000000000000000000000000000000000000000000000000000000000000000000000000000000000000000000000000000000000000000000000000000000000000000000000000000000000000000000000000000000000000000
310
00000000000000000000000000000000000000000000000000000000000000000000000000000000000000000000000000000000000000000000000000000000000000000000000000000000000000000000000000000000000000000000000000000000000000000000000000000000000000000000000000000000000000
310
00000000000000000000000000000000000000000000000000000000000000000000000000000000000000000000000000000000000000000000000000000000000000000000000000000000000000000000000000000000000000000000000000000000000000000000000000000000000000000000000000000000000000
310
00000000000000000000000000000000000000000000000000000000000000000000000000000000000000000000000000000000000000000000000000000000000000000000000000000000000000000000000000000000000000000000000000000000000000000000000000000000000000000000000000000000000000
310
00000000000000000000000000000000000000000000000000000000000000000000000000000000000000000000000000000000000000000000000000000000000000000000000000000000000000000000000000000000000000000000000000000000000000000000000000000000000000000000000000000000000000
310
00000000000000000000000000000000000000000000000000000000000000000000000000000000000000000000000000000000000000000000000000000000000000000000000000000000000000000000000000000000000000000000000000000000000000000000000000000000000000000000000000000000000000
310
00000000000000000000000000000000000000000000000000000000000000000000000000000000000000000000000000000000000000000000000000000000000000000000000000000000000000000000000000000000000000000000000000000000000000000000000000000000000000000000000000000000000000
310
00000000000000000000000000000000000000000000000000000000000000000000000000000000000000000000000000000000000000000000000000000000000000000000000000000000000000000000000000000000000000000000000000000000000000000000000000000000000000000000000000000000000000
310
00000000000000000000000000000000000000000000000000000000000000000000000000000000000000000000000000000000000000000000000000000000000000000000000000000000000000000000000000000000000000000000000000000000000000000000000000000000000000000000000000000000000000
310
00000000000000000000000000000000000000000000000000000000000000000000000000000000000000000000000000000000000000000000000000000000000000000000000000000000000000000000000000000000000000000000000000000000000000000000000000000000000000000000000000000000000000
310
00000000000000000000000000000000000000000000000000000000000000000000000000000000000000000000000000000000000000000000000000000000000000000000000000000000000000000000000000000000000000000000000000000000000000000000000000000000000000000000000000000000000000
310
00000000000000000000000000000000000000000000000000000000000000000000000000000000000000000000000000000000000000000000000000000000000000000000000000000000000000000000000000000000000000000000000000000000000000000000000000000000000000000000000000000000000000
310
00000000000000000000000000000000000000000000000000000000000000000000000000000000000000000000000000000000000000000000000000000000000000000000000000000000000000000000000000000000000000000000000000000000000000000000000000000000000000000000000000000000000000
310
00000000000000000000000000000000000000000000000000000000000000000000000000000000000000000000000000000000000000000000000000000000000000000000000000000000000000000000000000000000000000000000000000000000000000000000000000000000000000000000000000000000000000
310
00000000000000000000000000000000000000000000000000000000000000000000000000000000000000000000000000000000000000000000000000000000000000000000000000000000000000000000000000000000000000000000000000000000000000000000000000000000000000000000000000000000000000
310
00000000000000000000000000000000000000000000000000000000000000000000000000000000000000000000000000000000000000000000000000000000000000000000000000000000000000000000000000000000000000000000000000000000000000000000000000000000000000000000000000000000000000
310
00000000000000000000000000000000000000000000000000000000000000000000000000000000000000000000000000000000000000000000000000000000000000000000000000000000000000000000000000000000000000000000000000000000000000000000000000000000000000000000000000000000000000
310
00000000000000000000000000000000000000000000000000000000000000000000000000000000000000000000000000000000000000000000000000000000000000000000000000000000000000000000000000000000000000000000000000000000000000000000000000000000000000000000000000000000000000
310
00000000000000000000000000000000000000000000000000000000000000000000000000000000000000000000000000000000000000000000000000000000000000000000000000000000000000000000000000000000000000000000000000000000000000000000000000000000000000000000000000000000000000
310
00000000000000000000000000000000000000000000000000000000000000000000000000000000000000000000000000000000000000000000000000000000000000000000000000000000000000000000000000000000000000000000000000000000000000000000000000000000000000000000000000000000000000
310
00000000000000000000000000000000000000000000000000000000000000000000000000000000000000000000000000000000000000000000000000000000000000000000000000000000000000000000000000000000000000000000000000000000000000000000000000000000000000000000000000000000000000
310
00000000000000000000000000000000000000000000000000000000000000000000000000000000000000000000000000000000000000000000000000000000000000000000000000000000000000000000000000000000000000000000000000000000000000000000000000000000000000000000000000000000000000
310
00000000000000000000000000000000000000000000000000000000000000000000000000000000000000000000000000000000000000000000000000000000000000000000000000000000000000000000000000000000000000000000000000000000000000000000000000000000000000000000000000000000000000
310
00000000000000000000000000000000000000000000000000000000000000000000000000000000000000000000000000000000000000000000000000000000000000000000000000000000000000000000000000000000000000000000000000000000000000000000000000000000000000000000000000000000000000
310
00000000000000000000000000000000000000000000000000000000000000000000000000000000000000000000000000000000000000000000000000000000000000000000000000000000000000000000000000000000000000000000000000000000000000000000000000000000000000000000000000000000000000
310
00000000000000000000000000000000000000000000000000000000000000000000000000000000000000000000000000000000000000000000000000000000000000000000000000000000000000000000000000000000000000000000000000000000000000000000000000000000000000000000000000000000000000
310
00000000000000000000000000000000000000000000000000000000000000000000000000000000000000000000000000000000000000000000000000000000000000000000000000000000000000000000000000000000000000000000000000000000000000000000000000000000000000000000000000000000000000
310
00000000000000000000000000000000000000000000000000000000000000000000000000000000000000000000000000000000000000000000000000000000000000000000000000000000000000000000000000000000000000000000000000000000000000000000000000000000000000000000000000000000000000
310
00000000000000000000000000000000000000000000000000000000000000000000000000000000000000000000000000000000000000000000000000000000000000000000000000000000000000000000000000000000000000000000000000000000000000000000000000000000000000000000000000000000000000
310
00000000000000000000000000000000009600000000000000000000000000000000000000000000000000000000000000000000000000000000000000000000000000000000000000000000000000000000000000000000000000000000000000000000000000000000000000000000000000000000000000000000000000
310
00000000000000000000000000000000000000000000000000000000000000000000000000000000000000000000000000000000000000000000000000000000000000000000960000000000000000000000000000000000000000000000000000000000000000000000000000000000000000000000000000000000000000
310
00000000000000000000000000000000000000000000000000000000000000000000000000000000000000000000000000000000000000000000000000000000000000000000000000000000000000000000000000000000000000000000000000000000000000000000000000000000000000000303030303030396070303
310
03030300000000000000070303030303030303030303039603030303030303030303030303000000000000000000000000000000000000000000000000000000000000000000000000000000000000000000000000000000000000000000000000000000000000000000000000000000000000000000000000000000000000
310
00000000000000000000000000000000000000000000000000000000000000000000000000000000000003000303000007960700000303030000000000000007030007070703000307070707960707070700000307070707000700000000000000000000000000000000000000000000000000000000000000000000000000
310
00000000000000000000000000000000000000000000000000000000000000000000000000000000000000000000000000000000000000000000000000000000000000000000000000000000000000000000000000000000000000000000000300030700000796070700070303000000000000000703039600030300030300
310
00009600000003000003030003070007000000000000000000000000000000000000000000000000000000000000000000000000000000000000000000000000000000000000000000000000000000000000000000000000000000000000000000000000000000000000000000000000000000000000000000000000000000
310
00000000000000000000000000000000000000000003030307070707960703070703030300000000030307030003000303030303000000960000000303030303000307030703000000000000000000000000000000000000000000000000000000000000000000000000000000000000000000000000000000000000000000
310
00000000000000000000000000000000000000000000000000000000000000000000000000000000000000000000000000000000000000000000000000000000000000000000000000000307070307000796070007030707030000030300000000000300030703070300000096000000030707070300030000000003030000
310
00000000000000000000000000000000000000000000000000000000000000000000000000000000000000000000000000000000000000000000000000000000000000000000000000000000000000000000000000000000000000000000000000000000000000000000000000000000000000000000000000000000000000
310
00000007070700960707030700000000000300000000000003000000000000000000960000000000000000000300000000000300000000000000000000000000000000000000000000000000000000000000000000000000000000000000000000000000000000000000000000000000000000000000000000000000000000
310
00000000000000000000000000000000000000000000000000000000000000000000000000000000000000000000000000000000000000000703030396030303070000000000000300000000000300000000000000000796070000000000000000030000000003000000000000000000000000000000000000000000000000
310
00000000000000000000000000000000000000000000000000000000000000000000000000000000000000000000000000000000000000000000000000000000000000000000000000000000000000000000000000000000000000000000000000000000000000000000000000070700009600070307000000000000030000
310
00000000000000000000070700960007000000000000000000000000030000000000000000000000000000000000000000000000000000000000000000000000000000000000000000000000000000000000000000000000000000000000000000000000000000000000000000000000000000000000000000000000000000
310
00000000000000000000000000000000000000000000000000000000000000000000000707030396030307070000000000000003000000000000000000000303000096000303000000000000000000000003000000000000000000000000000000000000000000000000000000000000000000000000000000000000000000
310
00000000000000000000000000000000000000000000000000000000000000000000000000000000000000000000000000000000000000000000000000000000000000000000000000000000000000000000000000000000070007039603030707000000000000000300000000000000070703000303070205030003030700
310
00000000000000030000000000000000000000000000000000000000000000000000000000000000000000000000000000000000000000000000000000000000000000000000000000000000000000000000000000000000000000000000000000000000000000000000000000000000000000000000000000000000000000
310
00000000000000000000000000000007070096070707000000000000000003000000030303070707000000000702000000000007070703030000000300000000000000000000000000000000000000000000000000000000000000000000000000000000000000000000000000000000000000000000000000000000000000
310
00000000000000000000000000000000000000000000000000000000000000000000000000000000000000000000000000000000000000000000000000000000000000000701079600070700000000000000000003000303030007000000000000070700000000000007070003030300030000000000000000000000000000
310
00000000000000000000000000000000000000000000000000000000000000000000000000000000000000000000000000000000000000000000000000000000000000000000000000000000000000000000000000000000000000000000000000000000000000000000000000000000000000000000000000000007070700
310
00000000000000000000030300000000000000000000000707000000000000000000000000030300000000000000000000000000000000000000000000000000000000000000000000000000000000000000000000000000000000000000000000000000000000000000000000000000000000000000000000000000000000
310
00000000000000000000000000000000000000000000000000000000000000000000000000000000000000000000000000000700000000000000000000000000000000000000000000000000070700000000000000000000000000000000000000000000000000000000000000000000000000000000000000000000000000
310
00000000000000000000000000000000000000000000000000000000000000000000000000000000000000000000000000000000000000000000000000000000000000000000000000000000000000000000000000000000000000000000000000000000000007070700000000000000000000000000000000000000000000
310
00000707070000000000000000000000000000000000000000000000000000000000000000000000000000000000000000000000000000000000000000000000000000000000000000000000000000000000000000000000000000000000000000000000000000000000000000000000000000000000000000000000000000
310
00000000000000000000000000000000000000000000000000000000000000000000000000000000000000000000000000000000000000000000000000000000000000000000000000000000000000000000000000000000000000000000000000000000000000000000000000000000000000000000000000000000000000
310
00000000000000000000000000000000000000000000000000000000000000000000000000000000000000000000000000000000000000000000000000000000000000000000000000000000000000000000000000000000000000000000000000000000000000000000000000000000000000000000000000000000000000
310
00000000000000000000000000000000000000000000000000000000000000000000000000000000000000000000000000000000000000000000000000000000000000000000000000000000000000000000000000000000000000000000000000000000000000000000000000000000000000000000000000000000000000
310
00000000000000000000000000000000000000000000000000000000000000000000000000000000000000000000000000000000000000000000000000000000000000000000000000000000000000000000000000000000000000000000000000000000000000000000000000000000000000000000000000000000000000
310
00000000000000000000000000000000000000000000000000000000000000000000000000000000000000000000000000000000000000000000000000000000000000000000000000000000000000000000000000000000000000000000000000000000000000000000000000000000000000000000000000000000000000
310
00000000000000000000000000000000000000000000000000000000000000000000000000000000000000000000000000000000000000000000000000000000000000000000000000000000000000000000000000000000000000000000000000000000000000000000000000000000000000000000000000000000000000
310
00000000000000030303000000000000000003030303000000000000000000000000000000000000000000000000000000000000000000000000000000000000000000000000000000000000000000000000000000000000000000000000000000000000000000000000000000000000000000000000000000000000000000
310
00000000000000000000000000000000000000000000000000000000000000000000000000000000000000000000000000000000000000000000000307070700000000960000000307070700000000000000000000000000000000000000000000000000000000000000000000000000000000000000000000000000000000
310
00000000000000000000000000000000000000000000000000000000000000000000000000000000000000000000000000000000000000000000000000000000000000000000000000000000000000000000000000000000000000000000000000000000000000000000000000000707070707070307070707070707030707
310
07070700000000000000000000000000000000000000000000000000000000000000000000000000000000000000000000000000000000000000000000000000000000000000000000000000000000000000000000000000000000000000000000000000000000000000000000000000000000000000000000000000000000
310
00000000000000000000000000000000000000000000000000000000000000030303030307030303030303030303030303030303030303030703030303030000000000000000000000000000000000000000000000000000000000000000000000000000000000000000000000000000000000000000000000000000000000
310
00000000000000000000000000000000000000000000000000000000000000000000000000000000000000000000000000000000000000000000000000000000000000000000000000000000000000000000000303000000000000000000000000000096000000000000000000000000000303030000000000000000000000
310
00000000000000000000000000000000000000000000000000000000000000000000000000000000000000000000000000000000000000000000000000000000000000000000000000000000000000000000000000000000000000000000000000000000000000000000000000000000000000000000000000000000000000
310
00000000000000000003030000000707070700000000000303030303000000000707070707000003000300000000000000000000000000000000000000000000000000000000000000000000000000000000000000000000000000000000000000000000000000000000000000000000000000000000000000000000000000
310
00000000000000000000000000000000000000000000000000000000000000000000000000000000000000000000000000000000000000000000000000030303030000000000070707000003000707070300000007070700000000000300030000000000000000000000000000000000000000000000000000000000000000
310
00000000000000000000000000000000000000000000000000000000000000000000000000000000000000000000000000000000000000000000000000000000000000000000000000000000000000000000000000000000000000000000000000000000000000000000000000000000000096969696969696969696969696
310
96969696969696969696969696969696969696969600000000000000000000000000000000000000000000000000000000000000000000000000000000000000000000000000000000000000000000000000000000000000000000000000000000000000000000000000000000000000000000000000000000000000000000
310
00000000000000000000000000000000000000000000000000000000000000000000000000000000030300030000000000070707000000030707030300000007070700000000000300030000000000000000000000000000000000000000000000000000000000000000000000000000000000000000000000000000000000
310
00000000000000000000000000000000000000000000000000000000000000000000000000000000000000000000000000000000000000000000000000000000000000000000000000000000000000000000000000000000000000000000030303000007070707000000000003030303030000000007070707070000030003
310
00000000000000000000000000000000000000000000000000000000000000000000000000000000000000000000000000000000000000000000000000000000000000000000000000000000000000000000000000000000000000000000000000000000000000000000000000000000000000000000000000000000000000
310
00000000000000000000000000000000000000000303000000000000000000000000000096000000000000000000000000000303030000000000000000000000000000000000000000000000000000000000000000000000000000000000000000000000000000000000000000000000000000000000000000000000000000
310
00000000000000000000000000000000000000000000000000000000000000000000000000000000000000000000000000000000000000000000000000000000000000000000000000000303030303070303030303030303030303030307070707030307070707070700000000000000000000000000000000000000000000
310
00000000000000000000000000000000000000000000000000000000000000000000000000000000000000000000000000000000000000000000000000000000000000000000000000000000000000000000000000000000000000000000000000000000000000000000000000000000000000000000000000000000000000
310
00000000000707070707070307070707070707070707070707000000000000000000000000000000000000000000000000000000000000000000000000000000000000000000000000000000000000000000000000000000000000000000000000000000000000000000000000000000000000000000000000000000000000
310
00000000000000000000000000000000000000000000000000000000000000000000000000000000000000000000000000000000000000000000000000070707030000000000000003070707000000000000000000000000000000000000000000000000000000000000000000000000000000000000000000000000000000
310
00000000000000000000000000000000000000000000000000000000000000000000000000000000000000000000000000000000000000000000000000000000000000000000000000000000000000000000000000000000000000000000000000000000000000000000000000000000000003030300000000000000000003
310
03000000000000000000000000000000000000000000000000000000000000000000000000000000000000000000000000000000000000000000000000000000000000000000000000000000000000000000000000000000000000000000000000000000000000000000000000000000000000000000000000000000000000
310
00000000000000000000000000000000000000000000000000000000000000000000000000000000000000000000000000000000000000000000000000000000000000000000000000000000000000000000000000000000000000000000000000000000000000000000000000000000000000000000000000000000000000
310
00000000000000000000000000000000000000000000000000000000000000000000000000000000000000000000000000000000000000000000000000000000000000000000000000000000000000000000000000000000000000000000000000000000000000000000000000000000000000000000000000000000000000
310
00000000000000000000000000000000000000000000000000000000000000000000000000000000000000000000000000000000000000000000000000000000000000000000000000000000000000000000000000000000000000000000000000000000000000000000000000000000000000000000000000000000000000
310
000000000000000000000000000000000000000000000000000000000000000000000000000000000000000000000000000000000000000000000000000000000000000000000000000000000000000000000000000000000000000000000000000000000000000000000000
  0
ENDSEC
  0
EOF
