  0
SECTION
  2
HEADER
  9
$ACADVER
  1
AC1015
  9
$ACADMAINTVER
 70
     6
  9
$DWGCODEPAGE
  3
ANSI_932
  9
$INSBASE
 10
0.0
 20
0.0
 30
0.0
  9
$EXTMIN
 10
44.27847791972908
 20
7.950000000000045
 30
0.0
  9
$EXTMAX
 10
186.0
 20
257.2208223555231
 30
0.0
  9
$LIMMIN
 10
44.27847791972908
 20
7.950000000000045
  9
$LIMMAX
 10
186.0
 20
257.2208223555231
  9
$ORTHOMODE
 70
     0
  9
$REGENMODE
 70
     1
  9
$FILLMODE
 70
     1
  9
$QTEXTMODE
 70
     0
  9
$MIRRTEXT
 70
     1
  9
$LTSCALE
 40
0.1439359079218244
  9
$ATTMODE
 70
     1
  9
$TEXTSIZE
 40
2.5
  9
$TRACEWID
 40
1.0
  9
$TEXTSTYLE
  7
Standard
  9
$CLAYER
  8
0
  9
$CELTYPE
  6
ByLayer
  9
$CECOLOR
 62
   256
  9
$CELTSCALE
 40
1.0
  9
$DISPSILH
 70
     0
  9
$DIMSCALE
 40
1.0
  9
$DIMASZ
 40
2.5
  9
$DIMEXO
 40
0.625
  9
$DIMDLI
 40
3.75
  9
$DIMRND
 40
0.0
  9
$DIMDLE
 40
0.0
  9
$DIMEXE
 40
1.25
  9
$DIMTP
 40
0.0
  9
$DIMTM
 40
0.0
  9
$DIMTXT
 40
2.5
  9
$DIMCEN
 40
2.5
  9
$DIMTSZ
 40
0.0
  9
$DIMTOL
 70
     0
  9
$DIMLIM
 70
     0
  9
$DIMTIH
 70
     0
  9
$DIMTOH
 70
     0
  9
$DIMSE1
 70
     0
  9
$DIMSE2
 70
     0
  9
$DIMTAD
 70
     1
  9
$DIMZIN
 70
     0
  9
$DIMBLK
  1

  9
$DIMASO
 70
     1
  9
$DIMSHO
 70
     1
  9
$DIMPOST
  1

  9
$DIMAPOST
  1

  9
$DIMALT
 70
     0
  9
$DIMALTD
 70
     3
  9
$DIMALTF
 40
0.03937007874016
  9
$DIMLFAC
 40
1.0
  9
$DIMTOFL
 70
     1
  9
$DIMTVP
 40
0.0
  9
$DIMTIX
 70
     0
  9
$DIMSOXD
 70
     0
  9
$DIMSAH
 70
     0
  9
$DIMBLK1
  1

  9
$DIMBLK2
  1

  9
$DIMSTYLE
  2
Standard
  9
$DIMCLRD
 70
     0
  9
$DIMCLRE
 70
     0
  9
$DIMCLRT
 70
     0
  9
$DIMTFAC
 40
0.75
  9
$DIMGAP
 40
0.625
  9
$DIMJUST
 70
     0
  9
$DIMSD1
 70
     0
  9
$DIMSD2
 70
     0
  9
$DIMTOLJ
 70
     0
  9
$DIMTZIN
 70
     8
  9
$DIMALTZ
 70
     0
  9
$DIMALTTZ
 70
     0
  9
$DIMUPT
 70
     0
  9
$DIMDEC
 70
     2
  9
$DIMTDEC
 70
     2
  9
$DIMALTU
 70
     2
  9
$DIMALTTD
 70
     3
  9
$DIMTXSTY
  7
Standard
  9
$DIMAUNIT
 70
     0
  9
$DIMADEC
 70
     0
  9
$DIMALTRND
 40
0.0
  9
$DIMAZIN
 70
     0
  9
$DIMDSEP
 70
    46
  9
$DIMATFIT
 70
     3
  9
$DIMFRAC
 70
     0
  9
$DIMLDRBLK
  1

  9
$DIMLUNIT
 70
     2
  9
$DIMLWD
 70
    -2
  9
$DIMLWE
 70
    -2
  9
$DIMTMOVE
 70
     0
  9
$LUNITS
 70
     2
  9
$LUPREC
 70
     4
  9
$SKETCHINC
 40
1.0
  9
$FILLETRAD
 40
10.0
  9
$AUNITS
 70
     0
  9
$AUPREC
 70
     0
  9
$MENU
  1
.
  9
$ELEVATION
 40
0.0
  9
$PELEVATION
 40
0.0
  9
$THICKNESS
 40
0.0
  9
$LIMCHECK
 70
     0
  9
$CHAMFERA
 40
10.0
  9
$CHAMFERB
 40
10.0
  9
$CHAMFERC
 40
20.0
  9
$CHAMFERD
 40
0.0
  9
$SKPOLY
 70
     0
  9
$TDCREATE
 40
2455188.75
  9
$TDUCREATE
 40
2455188.375
  9
$TDUPDATE
 40
2455188.75
  9
$TDUUPDATE
 40
2455188.375
  9
$TDINDWG
 40
0.0000000116
  9
$TDUSRTIMER
 40
0.0000000116
  9
$USRTIMER
 70
     1
  9
$ANGBASE
 50
0.0
  9
$ANGDIR
 70
     0
  9
$PDMODE
 70
     0
  9
$PDSIZE
 40
0.0
  9
$PLINEWID
 40
0.0
  9
$SPLFRAME
 70
     0
  9
$SPLINETYPE
 70
     6
  9
$SPLINESEGS
 70
     8
  9
$HANDSEED
  5
2C2
  9
$SURFTAB1
 70
     6
  9
$SURFTAB2
 70
     6
  9
$SURFTYPE
 70
     6
  9
$SURFU
 70
     6
  9
$SURFV
 70
     6
  9
$UCSBASE
  2

  9
$UCSNAME
  2

  9
$UCSORG
 10
0.0
 20
0.0
 30
0.0
  9
$UCSXDIR
 10
1.0
 20
0.0
 30
0.0
  9
$UCSYDIR
 10
0.0
 20
1.0
 30
0.0
  9
$UCSORTHOREF
  2

  9
$UCSORTHOVIEW
 70
     0
  9
$UCSORGTOP
 10
0.0
 20
0.0
 30
0.0
  9
$UCSORGBOTTOM
 10
0.0
 20
0.0
 30
0.0
  9
$UCSORGLEFT
 10
0.0
 20
0.0
 30
0.0
  9
$UCSORGRIGHT
 10
0.0
 20
0.0
 30
0.0
  9
$UCSORGFRONT
 10
0.0
 20
0.0
 30
0.0
  9
$UCSORGBACK
 10
0.0
 20
0.0
 30
0.0
  9
$PUCSBASE
  2

  9
$PUCSNAME
  2

  9
$PUCSORG
 10
0.0
 20
0.0
 30
0.0
  9
$PUCSXDIR
 10
1.0
 20
0.0
 30
0.0
  9
$PUCSYDIR
 10
0.0
 20
1.0
 30
0.0
  9
$PUCSORTHOREF
  2

  9
$PUCSORTHOVIEW
 70
     0
  9
$PUCSORGTOP
 10
0.0
 20
0.0
 30
0.0
  9
$PUCSORGBOTTOM
 10
0.0
 20
0.0
 30
0.0
  9
$PUCSORGLEFT
 10
0.0
 20
0.0
 30
0.0
  9
$PUCSORGRIGHT
 10
0.0
 20
0.0
 30
0.0
  9
$PUCSORGFRONT
 10
0.0
 20
0.0
 30
0.0
  9
$PUCSORGBACK
 10
0.0
 20
0.0
 30
0.0
  9
$USERI1
 70
     0
  9
$USERI2
 70
     0
  9
$USERI3
 70
     0
  9
$USERI4
 70
     0
  9
$USERI5
 70
     0
  9
$USERR1
 40
0.0
  9
$USERR2
 40
0.0
  9
$USERR3
 40
0.0
  9
$USERR4
 40
0.0
  9
$USERR5
 40
0.0
  9
$WORLDVIEW
 70
     1
  9
$SHADEDGE
 70
     3
  9
$SHADEDIF
 70
    70
  9
$TILEMODE
 70
     1
  9
$MAXACTVP
 70
    64
  9
$PINSBASE
 10
0.0
 20
0.0
 30
0.0
  9
$PLIMCHECK
 70
     0
  9
$PEXTMIN
 10
1.000000000000000E+20
 20
1.000000000000000E+20
 30
1.000000000000000E+20
  9
$PEXTMAX
 10
-1.000000000000000E+20
 20
-1.000000000000000E+20
 30
-1.000000000000000E+20
  9
$PLIMMIN
 10
0.0
 20
0.0
  9
$PLIMMAX
 10
420.0
 20
297.0
  9
$UNITMODE
 70
     0
  9
$VISRETAIN
 70
     1
  9
$PLINEGEN
 70
     0
  9
$PSLTSCALE
 70
     0
  9
$TREEDEPTH
 70
  3020
  9
$CMLSTYLE
  2
Standard
  9
$CMLJUST
 70
     0
  9
$CMLSCALE
 40
20.0
  9
$PROXYGRAPHICS
 70
     1
  9
$MEASUREMENT
 70
     1
  9
$CELWEIGHT
370
    -1
  9
$ENDCAPS
280
     0
  9
$JOINSTYLE
280
     0
  9
$LWDISPLAY
290
     0
  9
$INSUNITS
 70
     4
  9
$HYPERLINKBASE
  1

  9
$STYLESHEET
  1

  9
$XEDIT
290
     1
  9
$CEPSNTYPE
380
     0
  9
$PSTYLEMODE
290
     1
  9
$FINGERPRINTGUID
  2
{F032DCC6-1AE3-4338-A727-3D7630343731}
  9
$VERSIONGUID
  2
{FAEB1C32-E019-11D5-929B-00C0DF256EC4}
  9
$EXTNAMES
290
     1
  9
$PSVPSCALE
 40
0.0
  9
$OLESTARTUP
290
     0
  0
ENDSEC
  0
SECTION
  2
CLASSES
  0
CLASS
  1
ACDBDICTIONARYWDFLT
  2
AcDbDictionaryWithDefault
  3
ObjectDBX Classes
 90
        0
280
     0
281
     0
  0
CLASS
  1
VISUALSTYLE
  2
AcDbVisualStyle
  3
ObjectDBX Classes
 90
     4095
280
     0
281
     0
  0
CLASS
  1
MATERIAL
  2
AcDbMaterial
  3
ObjectDBX Classes
 90
     1153
280
     0
281
     0
  0
CLASS
  1
SCALE
  2
AcDbScale
  3
ObjectDBX Classes
 90
     1153
280
     0
281
     0
  0
CLASS
  1
SUN
  2
AcDbSun
  3
SCENEOE
 90
     1153
280
     0
281
     0
  0
CLASS
  1
DICTIONARYVAR
  2
AcDbDictionaryVar
  3
ObjectDBX Classes
 90
        0
280
     0
281
     0
  0
CLASS
  1
ACDBPLACEHOLDER
  2
AcDbPlaceHolder
  3
ObjectDBX Classes
 90
        0
280
     0
281
     0
  0
CLASS
  1
LAYOUT
  2
AcDbLayout
  3
ObjectDBX Classes
 90
        0
280
     0
281
     0
  0
ENDSEC
  0
SECTION
  2
TABLES
  0
TABLE
  2
VPORT
  5
8
330
0
100
AcDbSymbolTable
 70
     1
  0
VPORT
  5
29
330
8
100
AcDbSymbolTableRecord
100
AcDbViewportTableRecord
  2
*Active
 70
     0
 10
0.0
 20
0.0
 11
1.0
 21
1.0
 12
115.1392389598645
 22
132.5854111777616
 13
0.0
 23
0.0
 14
10.0
 24
10.0
 15
10.0
 25
10.0
 16
0.0
 26
0.0
 36
1.0
 17
0.0
 27
0.0
 37
0.0
 40
274.1979045910754
 41
1.333333333333333
 42
50.0
 43
0.0
 44
0.0
 50
0.0
 51
0.0
 71
     0
 72
 20000
 73
     1
 74
     3
 75
     0
 76
     0
 77
     0
 78
     0
281
     0
 65
     1
110
0.0
120
0.0
130
0.0
111
1.0
121
0.0
131
0.0
112
0.0
122
1.0
132
0.0
 79
     0
146
0.0
  0
ENDTAB
  0
TABLE
  2
LTYPE
  5
5
330
0
100
AcDbSymbolTable
 70
     7
  0
LTYPE
  5
14
330
5
100
AcDbSymbolTableRecord
100
AcDbLinetypeTableRecord
  2
ByBlock
 70
     0
  3

 72
    65
 73
     0
 40
0.0
  0
LTYPE
  5
15
330
5
100
AcDbSymbolTableRecord
100
AcDbLinetypeTableRecord
  2
ByLayer
 70
     0
  3

 72
    65
 73
     0
 40
0.0
  0
LTYPE
  5
16
330
5
100
AcDbSymbolTableRecord
100
AcDbLinetypeTableRecord
  2
Continuous
 70
     0
  3
Solid line
 72
    65
 73
     0
 40
0.0
  0
LTYPE
  5
6B
330
5
100
AcDbSymbolTableRecord
100
AcDbLinetypeTableRecord
  2
DASHED
 70
     0
  3
ICAD/SX(2) Dashed __ __ __ __ __ __ __ __ __ __ __ __ __ _
 72
    65
 73
     2
 40
19.05
 49
12.7
 74
     0
 49
-6.35
 74
     0
  0
LTYPE
  5
6C
330
5
100
AcDbSymbolTableRecord
100
AcDbLinetypeTableRecord
  2
CENTER
 70
     0
  3
ICAD/SX(3) Center ____ _ ____ _ ____ _ ____ _ ____ _ ____
 72
    65
 73
     4
 40
50.8
 49
31.75
 74
     0
 49
-6.35
 74
     0
 49
6.35
 74
     0
 49
-6.35
 74
     0
  0
LTYPE
  5
6D
330
5
100
AcDbSymbolTableRecord
100
AcDbLinetypeTableRecord
  2
PHANTOM
 70
     0
  3
ICAD/SX(4) Phantom ______  __  __  ______  __  __  ______
 72
    65
 73
     6
 40
63.5
 49
31.75
 74
     0
 49
-6.35
 74
     0
 49
6.35
 74
     0
 49
-6.35
 74
     0
 49
6.35
 74
     0
 49
-6.35
 74
     0
  0
LTYPE
  5
6E
330
5
100
AcDbSymbolTableRecord
100
AcDbLinetypeTableRecord
  2
DOT
 70
     0
  3
ICAD/SX(5) Dot . . . . . . . . . . . . . . . . . . . . . . . .
 72
    65
 73
     2
 40
6.35
 49
0.0
 74
     0
 49
-6.35
 74
     0
  0
LTYPE
  5
6F
330
5
100
AcDbSymbolTableRecord
100
AcDbLinetypeTableRecord
  2
HIDDEN
 70
     0
  3
ICAD/SX(6) Hidden __ __ __ __ __ __ __ __ __ __ __ __ __ __
 72
    65
 73
     2
 40
9.525
 49
6.35
 74
     0
 49
-3.175
 74
     0
  0
LTYPE
  5
70
330
5
100
AcDbSymbolTableRecord
100
AcDbLinetypeTableRecord
  2
DOTSX
 70
     0
  3
ICAD/SX(5) Dot . . . . . . . . . . . . . . . . . . . . . . . .
 72
    65
 73
     2
 40
6.35
 49
3.175
 74
     0
 49
-3.175
 74
     0
  0
ENDTAB
  0
TABLE
  2
LAYER
  5
2
330
0
100
AcDbSymbolTable
 70
     9
  0
LAYER
  5
10
330
2
100
AcDbSymbolTableRecord
100
AcDbLayerTableRecord
  2
0
 70
     0
 62
     7
  6
Continuous
370
    -3
390
F
  0
LAYER
  5
71
330
2
100
AcDbSymbolTableRecord
100
AcDbLayerTableRecord
  2
NoLayerName_001
 70
     0
 62
     7
  6
Continuous
370
    -3
390
F
  0
LAYER
  5
72
330
2
100
AcDbSymbolTableRecord
100
AcDbLayerTableRecord
  2
NoLayerName_002
 70
     0
 62
     7
  6
Continuous
370
    -3
390
F
  0
LAYER
  5
73
330
2
100
AcDbSymbolTableRecord
100
AcDbLayerTableRecord
  2
NoLayerName_003
 70
     0
 62
     7
  6
Continuous
370
    -3
390
F
  0
LAYER
  5
74
330
2
100
AcDbSymbolTableRecord
100
AcDbLayerTableRecord
  2
NoLayerName_004
 70
     0
 62
     7
  6
Continuous
370
    -3
390
F
  0
LAYER
  5
75
330
2
100
AcDbSymbolTableRecord
100
AcDbLayerTableRecord
  2
NoLayerName_005
 70
     0
 62
     7
  6
Continuous
370
    -3
390
F
  0
LAYER
  5
76
330
2
100
AcDbSymbolTableRecord
100
AcDbLayerTableRecord
  2
NoLayerName_006
 70
     0
 62
     7
  6
Continuous
370
    -3
390
F
  0
LAYER
  5
77
330
2
100
AcDbSymbolTableRecord
100
AcDbLayerTableRecord
  2
NoLayerName_007
 70
     0
 62
     7
  6
Continuous
370
    -3
390
F
  0
LAYER
  5
78
330
2
100
AcDbSymbolTableRecord
100
AcDbLayerTableRecord
  2
Defpoints
 70
     0
 62
     7
  6
Continuous
290
     0
370
    -3
390
F
  0
ENDTAB
  0
TABLE
  2
STYLE
  5
3
330
0
100
AcDbSymbolTable
 70
     2
  0
STYLE
  5
11
330
3
100
AcDbSymbolTableRecord
100
AcDbTextStyleTableRecord
  2
Standard
 70
     0
 40
0.0
 41
1.0
 50
0.0
 71
     0
 42
2.5
  3
txt
  4
extfont2
  0
STYLE
  5
6A
330
3
100
AcDbSymbolTableRecord
100
AcDbTextStyleTableRecord
  2

 70
     1
 40
0.0
 41
1.0
 50
0.0
 71
     0
 42
2.5
  3
ltypeshp.shx
  4

  0
ENDTAB
  0
TABLE
  2
VIEW
  5
6
330
0
100
AcDbSymbolTable
 70
     0
  0
ENDTAB
  0
TABLE
  2
UCS
  5
7
330
0
100
AcDbSymbolTable
 70
     0
  0
ENDTAB
  0
TABLE
  2
APPID
  5
9
330
0
100
AcDbSymbolTable
 70
     1
  0
APPID
  5
12
330
9
100
AcDbSymbolTableRecord
100
AcDbRegAppTableRecord
  2
ACAD
 70
     0
  0
ENDTAB
  0
TABLE
  2
DIMSTYLE
  5
A
330
0
100
AcDbSymbolTable
 70
     1
100
AcDbDimStyleTable
  0
DIMSTYLE
105
27
330
A
100
AcDbSymbolTableRecord
100
AcDbDimStyleTableRecord
  2
Standard
 70
     0
 41
2.5
 42
0.625
 43
3.75
 44
1.25
 73
     0
 74
     0
 77
     1
140
2.5
141
2.5
143
0.03937007874016
146
0.75
147
0.625
171
     3
172
     1
178
     0
271
     2
272
     2
274
     3
283
     0
284
     8
340
11
  0
ENDTAB
  0
TABLE
  2
BLOCK_RECORD
  5
1
330
0
100
AcDbSymbolTable
 70
     5
  0
BLOCK_RECORD
  5
1F
330
1
100
AcDbSymbolTableRecord
100
AcDbBlockTableRecord
  2
*Model_Space
340
22
  0
BLOCK_RECORD
  5
1B
330
1
100
AcDbSymbolTableRecord
100
AcDbBlockTableRecord
  2
*Paper_Space
340
1E
  0
BLOCK_RECORD
  5
23
330
1
100
AcDbSymbolTableRecord
100
AcDbBlockTableRecord
  2
*Paper_Space0
340
0
  0
BLOCK_RECORD
  5
7B
330
1
100
AcDbSymbolTableRecord
100
AcDbBlockTableRecord
  2
*X1
340
0
102
{BLKREFS
331
7E
102
}
  0
BLOCK_RECORD
  5
7F
330
1
100
AcDbSymbolTableRecord
100
AcDbBlockTableRecord
  2
*X2
340
0
102
{BLKREFS
331
BC
102
}
  0
BLOCK_RECORD
  5
BD
330
1
100
AcDbSymbolTableRecord
100
AcDbBlockTableRecord
  2
*X3
340
0
102
{BLKREFS
331
FB
102
}
  0
BLOCK_RECORD
  5
FC
330
1
100
AcDbSymbolTableRecord
100
AcDbBlockTableRecord
  2
*X4
340
0
102
{BLKREFS
331
119
102
}
  0
ENDTAB
  0
ENDSEC
  0
SECTION
  2
BLOCKS
  0
BLOCK
  5
20
330
1F
100
AcDbEntity
  8
0
100
AcDbBlockBegin
  2
*Model_Space
 70
     0
 10
0.0
 20
0.0
 30
0.0
  3
*Model_Space
  1
*Model_Space
  0
ENDBLK
  5
21
330
1F
100
AcDbEntity
  8
0
100
AcDbBlockEnd
  0
BLOCK
  5
1C
330
1B
100
AcDbEntity
 67
     1
  8
0
100
AcDbBlockBegin
  2
*Paper_Space
 70
     0
 10
0.0
 20
0.0
 30
0.0
  3
*Paper_Space
  1
*Paper_Space
  0
ENDBLK
  5
1D
330
1B
100
AcDbEntity
 67
     1
  8
0
100
AcDbBlockEnd
  0
BLOCK
  5
24
330
23
100
AcDbEntity
  8
0
100
AcDbBlockBegin
  2
*Paper_Space0
 70
     0
 10
0.0
 20
0.0
 30
0.0
  3
*Paper_Space0
  1
*Paper_Space0
  0
ENDBLK
  5
25
330
23
100
AcDbEntity
  8
0
100
AcDbBlockEnd
  0
BLOCK
  5
7C
330
7B
100
AcDbEntity
  8
0
100
AcDbBlockBegin
  2
*X1
 70
     1
 10
0.0
 20
0.0
 30
0.0
  3
*X1
  1
*X1
  0
ENDBLK
  5
7D
330
7B
100
AcDbEntity
  8
0
100
AcDbBlockEnd
  0
BLOCK
  5
80
330
7F
100
AcDbEntity
  8
0
100
AcDbBlockBegin
  2
*X2
 70
     1
 10
0.0
 20
0.0
 30
0.0
  3
*X2
  1
*X2
  0
LINE
  5
82
330
7F
100
AcDbEntity
  8
0
  6
Continuous
 62
     8
370
    25
100
AcDbLine
 10
56.72844802961623
 20
0.0766446422808897
 30
0.0
 11
59.42335558599279
 21
2.771552198657453
 31
0.0
  0
LINE
  5
83
330
7F
100
AcDbEntity
  8
0
  6
Continuous
 62
     8
370
    25
100
AcDbLine
 10
55.23759005323595
 20
0.0000002282737057
 30
0.0
 11
59.49999999999999
 21
4.262410175037751
 31
0.0
  0
LINE
  5
84
330
7F
100
AcDbEntity
  8
0
  6
Continuous
 62
     8
370
    25
100
AcDbLine
 10
53.82337649086287
 20
0.0000002282736986
 30
0.0
 11
59.50000000000001
 21
5.676623737410838
 31
0.0
  0
LINE
  5
85
330
7F
100
AcDbEntity
  8
0
  6
Continuous
 62
     8
370
    25
100
AcDbLine
 10
52.40916292848976
 20
0.0000002282737128
 30
0.0
 11
55.90916292848977
 21
3.500000228273721
 31
0.0
  0
LINE
  5
86
330
7F
100
AcDbEntity
  8
0
  6
Continuous
 62
     8
370
    25
100
AcDbLine
 10
56.0
 20
3.590837299783935
 30
0.0
 11
59.50000000000001
 21
7.090837299783943
 31
0.0
  0
LINE
  5
87
330
7F
100
AcDbEntity
  8
0
  6
Continuous
 62
     8
370
    25
100
AcDbLine
 10
50.99494936611666
 20
0.0000002282737057
 30
0.0
 11
54.49494936611666
 21
3.500000228273714
 31
0.0
  0
LINE
  5
88
330
7F
100
AcDbEntity
  8
0
  6
Continuous
 62
     8
370
    25
100
AcDbLine
 10
56.0
 20
5.00505086215702
 30
0.0
 11
59.50000000000001
 21
8.505050862157027
 31
0.0
  0
LINE
  5
89
330
7F
100
AcDbEntity
  8
0
  6
Continuous
 62
     8
370
    25
100
AcDbLine
 10
49.58073580374358
 20
0.0000002282736986
 30
0.0
 11
53.08073580374359
 21
3.500000228273707
 31
0.0
  0
LINE
  5
8A
330
7F
100
AcDbEntity
  8
0
  6
Continuous
 62
     8
370
    25
100
AcDbLine
 10
56.0
 20
6.419264424530127
 30
0.0
 11
59.50000000000001
 21
9.919264424530134
 31
0.0
  0
LINE
  5
8B
330
7F
100
AcDbEntity
  8
0
  6
Continuous
 62
     8
370
    25
100
AcDbLine
 10
48.16652224137047
 20
0.0000002282737057
 30
0.0
 11
51.66652224137048
 21
3.500000228273714
 31
0.0
  0
LINE
  5
8C
330
7F
100
AcDbEntity
  8
0
  6
Continuous
 62
     8
370
    25
100
AcDbLine
 10
56.0
 20
7.833477986903233
 30
0.0
 11
58.66652224137047
 21
10.50000022827371
 31
0.0
  0
LINE
  5
8D
330
7F
100
AcDbEntity
  8
0
  6
Continuous
 62
     8
370
    25
100
AcDbLine
 10
46.75230867899739
 20
0.0000002282736986
 30
0.0
 11
50.2523086789974
 21
3.500000228273707
 31
0.0
  0
LINE
  5
8E
330
7F
100
AcDbEntity
  8
0
  6
Continuous
 62
     8
370
    25
100
AcDbLine
 10
56.0
 20
9.24769154927634
 30
0.0
 11
57.25230867899738
 21
10.50000022827372
 31
0.0
  0
LINE
  5
8F
330
7F
100
AcDbEntity
  8
0
  6
Continuous
 62
     8
370
    25
100
AcDbLine
 10
45.33809511662429
 20
0.0000002282737128
 30
0.0
 11
48.8380951166243
 21
3.500000228273721
 31
0.0
  0
LINE
  5
90
330
7F
100
AcDbEntity
  8
0
  6
Continuous
 62
     8
370
    25
100
AcDbLine
 10
43.92388155425118
 20
0.0000002282737057
 30
0.0
 11
47.42388155425119
 21
3.500000228273714
 31
0.0
  0
LINE
  5
91
330
7F
100
AcDbEntity
  8
0
  6
Continuous
 62
     8
370
    25
100
AcDbLine
 10
42.50966799187808
 20
0.0000002282736986
 30
0.0
 11
46.00966799187808
 21
3.500000228273707
 31
0.0
  0
LINE
  5
92
330
7F
100
AcDbEntity
  8
0
  6
Continuous
 62
     8
370
    25
100
AcDbLine
 10
41.095454429505
 20
0.0000002282737057
 30
0.0
 11
44.595454429505
 21
3.500000228273714
 31
0.0
  0
LINE
  5
93
330
7F
100
AcDbEntity
  8
0
  6
Continuous
 62
     8
370
    25
100
AcDbLine
 10
39.68124086713192
 20
0.0000002282736986
 30
0.0
 11
43.18124086713193
 21
3.500000228273707
 31
0.0
  0
LINE
  5
94
330
7F
100
AcDbEntity
  8
0
  6
Continuous
 62
     8
370
    25
100
AcDbLine
 10
38.26702730475881
 20
0.0000002282737128
 30
0.0
 11
41.76702730475882
 21
3.500000228273721
 31
0.0
  0
LINE
  5
95
330
7F
100
AcDbEntity
  8
0
  6
Continuous
 62
     8
370
    25
100
AcDbLine
 10
36.85281374238571
 20
0.0000002282737057
 30
0.0
 11
40.35281374238571
 21
3.500000228273714
 31
0.0
  0
LINE
  5
96
330
7F
100
AcDbEntity
  8
0
  6
Continuous
 62
     8
370
    25
100
AcDbLine
 10
35.4386001800126
 20
0.0000002282736986
 30
0.0
 11
38.93860018001261
 21
3.500000228273707
 31
0.0
  0
LINE
  5
97
330
7F
100
AcDbEntity
  8
0
  6
Continuous
 62
     8
370
    25
100
AcDbLine
 10
35.0
 20
0.97561361063417
 30
0.0
 11
37.52438661763954
 21
3.500000228273704
 31
0.0
  0
LINE
  5
98
330
7F
100
AcDbEntity
  8
0
  6
Continuous
 62
     8
370
    25
100
AcDbLine
 10
33.61017305526644
 20
1.000000228273713
 30
0.0
 11
34.0
 21
1.389827173007266
 31
0.0
  0
LINE
  5
99
330
7F
100
AcDbEntity
  8
0
  6
Continuous
 62
     8
370
    25
100
AcDbLine
 10
35.00000000000003
 20
2.389827173007284
 30
0.0
 11
36.11017305526645
 21
3.500000228273702
 31
0.0
  0
LINE
  5
9A
330
7F
100
AcDbEntity
  8
0
  6
Continuous
 62
     8
370
    25
100
AcDbLine
 10
32.19595949289334
 20
1.000000228273699
 30
0.0
 11
34.00000000000003
 21
2.804040735380386
 31
0.0
  0
LINE
  5
9B
330
7F
100
AcDbEntity
  8
0
  6
Continuous
 62
     8
370
    25
100
AcDbLine
 10
34.19595949289334
 20
3.000000228273713
 30
0.0
 11
34.69595949289334
 21
3.500000228273717
 31
0.0
  0
LINE
  5
9C
330
7F
100
AcDbEntity
  8
0
  6
Continuous
 62
     8
370
    25
100
AcDbLine
 10
30.78174593052026
 20
1.00000022827372
 30
0.0
 11
33.28174593052026
 21
3.50000022827372
 31
0.0
  0
LINE
  5
9D
330
7F
100
AcDbEntity
  8
0
  6
Continuous
 62
     8
370
    25
100
AcDbLine
 10
28.36753236814712
 20
0.0000002282736986
 30
0.0
 11
28.99999999999997
 21
0.6324678601265447
 31
0.0
  0
LINE
  5
9E
330
7F
100
AcDbEntity
  8
0
  6
Continuous
 62
     8
370
    25
100
AcDbLine
 10
30.0
 20
1.63246786012656
 30
0.0
 11
31.86753236814715
 21
3.500000228273714
 31
0.0
  0
LINE
  5
9F
330
7F
100
AcDbEntity
  8
0
  6
Continuous
 62
     8
370
    25
100
AcDbLine
 10
26.95331880577405
 20
0.0000002282737057
 30
0.0
 11
28.99999999999999
 21
2.046681422499647
 31
0.0
  0
LINE
  5
A0
330
7F
100
AcDbEntity
  8
0
  6
Continuous
 62
     8
370
    25
100
AcDbLine
 10
29.95331880577405
 20
3.000000228273692
 30
0.0
 11
30.45331880577407
 21
3.500000228273715
 31
0.0
  0
LINE
  5
A1
330
7F
100
AcDbEntity
  8
0
  6
Continuous
 62
     8
370
    25
100
AcDbLine
 10
25.53910524340094
 20
0.0000002282736844
 30
0.0
 11
29.03910524340097
 21
3.500000228273712
 31
0.0
  0
LINE
  5
A2
330
7F
100
AcDbEntity
  8
0
  6
Continuous
 62
     8
370
    25
100
AcDbLine
 10
24.12489168102783
 20
0.0000002282736844
 30
0.0
 11
27.62489168102786
 21
3.500000228273712
 31
0.0
  0
LINE
  5
A3
330
7F
100
AcDbEntity
  8
0
  6
Continuous
 62
     8
370
    25
100
AcDbLine
 10
22.71067811865476
 20
0.0000002282736915
 30
0.0
 11
26.21067811865478
 21
3.500000228273719
 31
0.0
  0
LINE
  5
A4
330
7F
100
AcDbEntity
  8
0
  6
Continuous
 62
     8
370
    25
100
AcDbLine
 10
22.0
 20
0.7035356719920358
 30
0.0
 11
24.79646455628168
 21
3.500000228273719
 31
0.0
  0
LINE
  5
A5
330
7F
100
AcDbEntity
  8
0
  6
Continuous
 62
     8
370
    25
100
AcDbLine
 10
20.88225099390857
 20
1.000000228273692
 30
0.0
 11
20.99999999999999
 21
1.117749234365116
 31
0.0
  0
LINE
  5
A6
330
7F
100
AcDbEntity
  8
0
  6
Continuous
 62
     8
370
    25
100
AcDbLine
 10
22.0
 20
2.117749234365121
 30
0.0
 11
23.38225099390859
 21
3.500000228273709
 31
0.0
  0
LINE
  5
A7
330
7F
100
AcDbEntity
  8
0
  6
Continuous
 62
     8
370
    25
100
AcDbLine
 10
19.46803743153549
 20
1.000000228273713
 30
0.0
 11
20.99999999999999
 21
2.531962796738211
 31
0.0
  0
LINE
  5
A8
330
7F
100
AcDbEntity
  8
0
  6
Continuous
 62
     8
370
    25
100
AcDbLine
 10
21.46803743153549
 20
3.000000228273713
 30
0.0
 11
21.9680374315355
 21
3.500000228273717
 31
0.0
  0
LINE
  5
A9
330
7F
100
AcDbEntity
  8
0
  6
Continuous
 62
     8
370
    25
100
AcDbLine
 10
18.05382386916239
 20
1.000000228273713
 30
0.0
 11
20.55382386916239
 21
3.500000228273713
 31
0.0
  0
LINE
  5
AA
330
7F
100
AcDbEntity
  8
0
  6
Continuous
 62
     8
370
    25
100
AcDbLine
 10
15.63961030678929
 20
0.0000002282737057
 30
0.0
 11
15.99999999999999
 21
0.3603899214844027
 31
0.0
  0
LINE
  5
AB
330
7F
100
AcDbEntity
  8
0
  6
Continuous
 62
     8
370
    25
100
AcDbLine
 10
17.00000000000001
 20
1.360389921484426
 30
0.0
 11
19.1396103067893
 21
3.500000228273709
 31
0.0
  0
LINE
  5
AC
330
7F
100
AcDbEntity
  8
0
  6
Continuous
 62
     8
370
    25
100
AcDbLine
 10
14.22539674441619
 20
0.0000002282736986
 30
0.0
 11
15.99999999999998
 21
1.77460348385749
 31
0.0
  0
LINE
  5
AD
330
7F
100
AcDbEntity
  8
0
  6
Continuous
 62
     8
370
    25
100
AcDbLine
 10
17.0
 20
2.774603483857511
 30
0.0
 11
17.72539674441621
 21
3.500000228273719
 31
0.0
  0
LINE
  5
AE
330
7F
100
AcDbEntity
  8
0
  6
Continuous
 62
     8
370
    25
100
AcDbLine
 10
12.8111831820431
 20
0.0000002282737057
 30
0.0
 11
16.3111831820431
 21
3.500000228273714
 31
0.0
  0
LINE
  5
AF
330
7F
100
AcDbEntity
  8
0
  6
Continuous
 62
     8
370
    25
100
AcDbLine
 10
11.39696961967
 20
0.0000002282737057
 30
0.0
 11
14.89696961967001
 21
3.500000228273714
 31
0.0
  0
LINE
  5
B0
330
7F
100
AcDbEntity
  8
0
  6
Continuous
 62
     8
370
    25
100
AcDbLine
 10
9.98275605729691
 20
0.0000002282737057
 30
0.0
 11
13.48275605729692
 21
3.500000228273714
 31
0.0
  0
LINE
  5
B1
330
7F
100
AcDbEntity
  8
0
  6
Continuous
 62
     8
370
    25
100
AcDbLine
 10
8.568542494923818
 20
0.0000002282737057
 30
0.0
 11
12.06854249492383
 21
3.500000228273714
 31
0.0
  0
LINE
  5
B2
330
7F
100
AcDbEntity
  8
0
  6
Continuous
 62
     8
370
    25
100
AcDbLine
 10
7.154328932550712
 20
0.0000002282737128
 30
0.0
 11
10.65432893255072
 21
3.500000228273721
 31
0.0
  0
LINE
  5
B3
330
7F
100
AcDbEntity
  8
0
  6
Continuous
 62
     8
370
    25
100
AcDbLine
 10
5.74011537017762
 20
0.0000002282737057
 30
0.0
 11
9.240115370177628
 21
3.500000228273714
 31
0.0
  0
LINE
  5
B4
330
7F
100
AcDbEntity
  8
0
  6
Continuous
 62
     8
370
    25
100
AcDbLine
 10
5.0
 20
0.6740984204691784
 30
0.0
 11
7.82590180780454
 21
3.500000228273717
 31
0.0
  0
LINE
  5
B5
330
7F
100
AcDbEntity
  8
0
  6
Continuous
 62
     8
370
    25
100
AcDbLine
 10
2.911688245431435
 20
0.0000002282737057
 30
0.0
 11
3.999999999999991
 21
1.088311982842262
 31
0.0
  0
LINE
  5
B6
330
7F
100
AcDbEntity
  8
0
  6
Continuous
 62
     8
370
    25
100
AcDbLine
 10
5.0
 20
2.088311982842271
 30
0.0
 11
6.411688245431444
 21
3.500000228273715
 31
0.0
  0
LINE
  5
B7
330
7F
100
AcDbEntity
  8
0
  6
Continuous
 62
     8
370
    25
100
AcDbLine
 10
1.497474683058343
 20
0.0000002282737057
 30
0.0
 11
3.999999999999994
 21
2.502525545215357
 31
0.0
  0
LINE
  5
B8
330
7F
100
AcDbEntity
  8
0
  6
Continuous
 62
     8
370
    25
100
AcDbLine
 10
4.497474683058343
 20
3.000000228273706
 30
0.0
 11
4.997474683058347
 21
3.50000022827371
 31
0.0
  0
LINE
  5
B9
330
7F
100
AcDbEntity
  8
0
  6
Continuous
 62
     8
370
    25
100
AcDbLine
 10
0.0832611206852363
 20
0.0000002282737128
 30
0.0
 11
1.583261120685229
 21
1.500000228273705
 31
0.0
  0
LINE
  5
BA
330
7F
100
AcDbEntity
  8
0
  6
Continuous
 62
     8
370
    25
100
AcDbLine
 10
2.5
 20
2.416739107588462
 30
0.0
 11
3.583261120685254
 21
3.500000228273716
 31
0.0
  0
LINE
  5
BB
330
7F
100
AcDbEntity
  8
0
  6
Continuous
 62
     8
370
    25
100
AcDbLine
 10
0.0
 20
1.330952669961562
 30
0.0
 11
0.1690475583121429
 21
1.500000228273705
 31
0.0
  0
ENDBLK
  5
81
330
7F
100
AcDbEntity
  8
0
100
AcDbBlockEnd
  0
BLOCK
  5
BE
330
BD
100
AcDbEntity
  8
0
100
AcDbBlockBegin
  2
*X3
 70
     1
 10
0.0
 20
0.0
 30
0.0
  3
*X3
  1
*X3
  0
LINE
  5
C0
330
BD
100
AcDbEntity
  8
0
  6
Continuous
 62
     8
370
    25
100
AcDbLine
 10
58.16904755831214
 20
0.0000002282737128
 30
0.0
 11
59.5
 21
1.330952669961572
 31
0.0
  0
LINE
  5
C1
330
BD
100
AcDbEntity
  8
0
  6
Continuous
 62
     8
370
    25
100
AcDbLine
 10
56.75483399593905
 20
0.0000002282737128
 30
0.0
 11
58.25483399593905
 21
1.500000228273715
 31
0.0
  0
LINE
  5
C2
330
BD
100
AcDbEntity
  8
0
  6
Continuous
 62
     8
370
    25
100
AcDbLine
 10
55.5
 20
0.1593797947077391
 30
0.0
 11
57.00000000000001
 21
1.659379794707751
 31
0.0
  0
LINE
  5
C3
330
BD
100
AcDbEntity
  8
0
  6
Continuous
 62
     8
370
    25
100
AcDbLine
 10
53.92640687119287
 20
0.0000002282737128
 30
0.0
 11
54.5
 21
0.5735933570808468
 31
0.0
  0
LINE
  5
C4
330
BD
100
AcDbEntity
  8
0
  6
Continuous
 62
     8
370
    25
100
AcDbLine
 10
55.49999999999999
 20
1.573593357080831
 30
0.0
 11
57.0
 21
3.073593357080843
 31
0.0
  0
LINE
  5
C5
330
BD
100
AcDbEntity
  8
0
  6
Continuous
 62
     8
370
    25
100
AcDbLine
 10
52.51219330881976
 20
0.0000002282737199
 30
0.0
 11
54.49999999999999
 21
1.987806919453949
 31
0.0
  0
LINE
  5
C6
330
BD
100
AcDbEntity
  8
0
  6
Continuous
 62
     8
370
    25
100
AcDbLine
 10
55.49999999999999
 20
2.987806919453931
 30
0.0
 11
56.01219330881977
 21
3.500000228273712
 31
0.0
  0
LINE
  5
C7
330
BD
100
AcDbEntity
  8
0
  6
Continuous
 62
     8
370
    25
100
AcDbLine
 10
51.09797974644667
 20
0.0000002282737128
 30
0.0
 11
54.59797974644667
 21
3.500000228273711
 31
0.0
  0
LINE
  5
C8
330
BD
100
AcDbEntity
  8
0
  6
Continuous
 62
     8
370
    25
100
AcDbLine
 10
49.68376618407358
 20
0.0000002282737128
 30
0.0
 11
53.18376618407358
 21
3.500000228273711
 31
0.0
  0
LINE
  5
C9
330
BD
100
AcDbEntity
  8
0
  6
Continuous
 62
     8
370
    25
100
AcDbLine
 10
48.26955262170048
 20
0.0000002282737128
 30
0.0
 11
51.76955262170048
 21
3.500000228273711
 31
0.0
  0
LINE
  5
CA
330
BD
100
AcDbEntity
  8
0
  6
Continuous
 62
     8
370
    25
100
AcDbLine
 10
46.85533905932739
 20
0.0000002282737128
 30
0.0
 11
50.35533905932739
 21
3.500000228273711
 31
0.0
  0
LINE
  5
CB
330
BD
100
AcDbEntity
  8
0
  6
Continuous
 62
     8
370
    25
100
AcDbLine
 10
45.44112549695429
 20
0.0000002282737199
 30
0.0
 11
48.94112549695429
 21
3.500000228273718
 31
0.0
  0
LINE
  5
CC
330
BD
100
AcDbEntity
  8
0
  6
Continuous
 62
     8
370
    25
100
AcDbLine
 10
44.02691193458121
 20
0.0000002282737128
 30
0.0
 11
47.52691193458121
 21
3.500000228273711
 31
0.0
  0
LINE
  5
CD
330
BD
100
AcDbEntity
  8
0
  6
Continuous
 62
     8
370
    25
100
AcDbLine
 10
43.49999999999999
 20
0.8873018560655979
 30
0.0
 11
46.1126983722081
 21
3.50000022827371
 31
0.0
  0
LINE
  5
CE
330
BD
100
AcDbEntity
  8
0
  6
Continuous
 62
     8
370
    25
100
AcDbLine
 10
42.19848480983501
 20
1.00000022827372
 30
0.0
 11
42.49999999999999
 21
1.301515418438705
 31
0.0
  0
LINE
  5
CF
330
BD
100
AcDbEntity
  8
0
  6
Continuous
 62
     8
370
    25
100
AcDbLine
 10
43.5
 20
2.301515418438697
 30
0.0
 11
44.69848480983502
 21
3.500000228273714
 31
0.0
  0
LINE
  5
D0
330
BD
100
AcDbEntity
  8
0
  6
Continuous
 62
     8
370
    25
100
AcDbLine
 10
40.78427124746192
 20
1.000000228273713
 30
0.0
 11
42.50000000000001
 21
2.715728980811803
 31
0.0
  0
LINE
  5
D1
330
BD
100
AcDbEntity
  8
0
  6
Continuous
 62
     8
370
    25
100
AcDbLine
 10
42.78427124746192
 20
3.000000228273713
 30
0.0
 11
43.28427124746191
 21
3.500000228273707
 31
0.0
  0
LINE
  5
D2
330
BD
100
AcDbEntity
  8
0
  6
Continuous
 62
     8
370
    25
100
AcDbLine
 10
39.37005768508881
 20
1.000000228273706
 30
0.0
 11
41.87005768508881
 21
3.500000228273706
 31
0.0
  0
LINE
  5
D3
330
BD
100
AcDbEntity
  8
0
  6
Continuous
 62
     8
370
    25
100
AcDbLine
 10
36.95584412271572
 20
0.0000002282736986
 30
0.0
 11
37.49999999999999
 21
0.5441561055579766
 31
0.0
  0
LINE
  5
D4
330
BD
100
AcDbEntity
  8
0
  6
Continuous
 62
     8
370
    25
100
AcDbLine
 10
38.5
 20
1.544156105557995
 30
0.0
 11
40.45584412271572
 21
3.500000228273717
 31
0.0
  0
LINE
  5
D5
330
BD
100
AcDbEntity
  8
0
  6
Continuous
 62
     8
370
    25
100
AcDbLine
 10
35.54163056034263
 20
0.0000002282737128
 30
0.0
 11
37.50000000000001
 21
1.958369667931096
 31
0.0
  0
LINE
  5
D6
330
BD
100
AcDbEntity
  8
0
  6
Continuous
 62
     8
370
    25
100
AcDbLine
 10
38.5
 20
2.958369667931088
 30
0.0
 11
39.04163056034263
 21
3.500000228273715
 31
0.0
  0
LINE
  5
D7
330
BD
100
AcDbEntity
  8
0
  6
Continuous
 62
     8
370
    25
100
AcDbLine
 10
34.12741699796953
 20
0.0000002282737057
 30
0.0
 11
37.62741699796954
 21
3.500000228273714
 31
0.0
  0
LINE
  5
D8
330
BD
100
AcDbEntity
  8
0
  6
Continuous
 62
     8
370
    25
100
AcDbLine
 10
32.71320343559643
 20
0.0000002282737128
 30
0.0
 11
36.21320343559643
 21
3.500000228273721
 31
0.0
  0
LINE
  5
D9
330
BD
100
AcDbEntity
  8
0
  6
Continuous
 62
     8
370
    25
100
AcDbLine
 10
31.29898987322333
 20
0.0000002282737057
 30
0.0
 11
34.79898987322334
 21
3.500000228273714
 31
0.0
  0
LINE
  5
DA
330
BD
100
AcDbEntity
  8
0
  6
Continuous
 62
     8
370
    25
100
AcDbLine
 10
30.5
 20
0.6152239174234566
 30
0.0
 11
33.38477631085025
 21
3.500000228273707
 31
0.0
  0
LINE
  5
DB
330
BD
100
AcDbEntity
  8
0
  6
Continuous
 62
     8
370
    25
100
AcDbLine
 10
29.47056274847716
 20
1.000000228273727
 30
0.0
 11
29.5
 21
1.029437479796563
 31
0.0
  0
LINE
  5
DC
330
BD
100
AcDbEntity
  8
0
  6
Continuous
 62
     8
370
    25
100
AcDbLine
 10
30.5
 20
2.029437479796563
 30
0.0
 11
31.97056274847716
 21
3.500000228273719
 31
0.0
  0
LINE
  5
DD
330
BD
100
AcDbEntity
  8
0
  6
Continuous
 62
     8
370
    25
100
AcDbLine
 10
28.05634918610406
 20
1.00000022827372
 30
0.0
 11
29.5
 21
2.443651042169661
 31
0.0
  0
LINE
  5
DE
330
BD
100
AcDbEntity
  8
0
  6
Continuous
 62
     8
370
    25
100
AcDbLine
 10
30.05634918610406
 20
3.000000228273706
 30
0.0
 11
30.55634918610406
 21
3.50000022827371
 31
0.0
  0
LINE
  5
DF
330
BD
100
AcDbEntity
  8
0
  6
Continuous
 62
     8
370
    25
100
AcDbLine
 10
26.64213562373097
 20
1.000000228273713
 30
0.0
 11
29.14213562373097
 21
3.500000228273713
 31
0.0
  0
LINE
  5
E0
330
BD
100
AcDbEntity
  8
0
  6
Continuous
 62
     8
370
    25
100
AcDbLine
 10
24.22792206135786
 20
0.0000002282737057
 30
0.0
 11
24.5
 21
0.2720781669158447
 31
0.0
  0
LINE
  5
E1
330
BD
100
AcDbEntity
  8
0
  6
Continuous
 62
     8
370
    25
100
AcDbLine
 10
25.49999999999999
 20
1.272078166915847
 30
0.0
 11
27.72792206135786
 21
3.500000228273718
 31
0.0
  0
LINE
  5
E2
330
BD
100
AcDbEntity
  8
0
  6
Continuous
 62
     8
370
    25
100
AcDbLine
 10
22.81370849898477
 20
0.0000002282736986
 30
0.0
 11
24.5
 21
1.686291729288933
 31
0.0
  0
LINE
  5
E3
330
BD
100
AcDbEntity
  8
0
  6
Continuous
 62
     8
370
    25
100
AcDbLine
 10
25.5
 20
2.686291729288932
 30
0.0
 11
26.31370849898478
 21
3.500000228273708
 31
0.0
  0
LINE
  5
E4
330
BD
100
AcDbEntity
  8
0
  6
Continuous
 62
     8
370
    25
100
AcDbLine
 10
21.39949493661167
 20
0.0000002282737128
 30
0.0
 11
24.89949493661168
 21
3.500000228273721
 31
0.0
  0
LINE
  5
E5
330
BD
100
AcDbEntity
  8
0
  6
Continuous
 62
     8
370
    25
100
AcDbLine
 10
19.98528137423858
 20
0.0000002282737057
 30
0.0
 11
23.48528137423859
 21
3.500000228273714
 31
0.0
  0
LINE
  5
E6
330
BD
100
AcDbEntity
  8
0
  6
Continuous
 62
     8
370
    25
100
AcDbLine
 10
18.57106781186548
 20
0.0000002282737057
 30
0.0
 11
22.07106781186548
 21
3.500000228273714
 31
0.0
  0
LINE
  5
E7
330
BD
100
AcDbEntity
  8
0
  6
Continuous
 62
     8
370
    25
100
AcDbLine
 10
17.15685424949238
 20
0.0000002282737057
 30
0.0
 11
20.65685424949239
 21
3.500000228273714
 31
0.0
  0
LINE
  5
E8
330
BD
100
AcDbEntity
  8
0
  6
Continuous
 62
     8
370
    25
100
AcDbLine
 10
15.74264068711929
 20
0.0000002282737057
 30
0.0
 11
19.2426406871193
 21
3.500000228273714
 31
0.0
  0
LINE
  5
E9
330
BD
100
AcDbEntity
  8
0
  6
Continuous
 62
     8
370
    25
100
AcDbLine
 10
14.32842712474619
 20
0.0000002282737128
 30
0.0
 11
17.8284271247462
 21
3.500000228273721
 31
0.0
  0
LINE
  5
EA
330
BD
100
AcDbEntity
  8
0
  6
Continuous
 62
     8
370
    25
100
AcDbLine
 10
12.9142135623731
 20
0.0000002282737057
 30
0.0
 11
16.41421356237311
 21
3.500000228273714
 31
0.0
  0
LINE
  5
EB
330
BD
100
AcDbEntity
  8
0
  6
Continuous
 62
     8
370
    25
100
AcDbLine
 10
11.50000000000001
 20
0.0000002282737057
 30
0.0
 11
15.00000000000002
 21
3.500000228273714
 31
0.0
  0
LINE
  5
EC
330
BD
100
AcDbEntity
  8
0
  6
Continuous
 62
     8
370
    25
100
AcDbLine
 10
10.08578643762691
 20
0.0000002282737057
 30
0.0
 11
13.58578643762692
 21
3.500000228273714
 31
0.0
  0
LINE
  5
ED
330
BD
100
AcDbEntity
  8
0
  6
Continuous
 62
     8
370
    25
100
AcDbLine
 10
8.671572875253815
 20
0.0000002282737057
 30
0.0
 11
12.17157287525382
 21
3.500000228273714
 31
0.0
  0
LINE
  5
EE
330
BD
100
AcDbEntity
  8
0
  6
Continuous
 62
     8
370
    25
100
AcDbLine
 10
7.257359312880716
 20
0.0000002282737128
 30
0.0
 11
10.75735931288072
 21
3.500000228273721
 31
0.0
  0
LINE
  5
EF
330
BD
100
AcDbEntity
  8
0
  6
Continuous
 62
     8
370
    25
100
AcDbLine
 10
5.843145750507624
 20
0.0000002282737128
 30
0.0
 11
9.343145750507633
 21
3.500000228273721
 31
0.0
  0
LINE
  5
F0
330
BD
100
AcDbEntity
  8
0
  6
Continuous
 62
     8
370
    25
100
AcDbLine
 10
4.428932188134532
 20
0.0000002282737057
 30
0.0
 11
7.92893218813454
 21
3.500000228273714
 31
0.0
  0
LINE
  5
F1
330
BD
100
AcDbEntity
  8
0
  6
Continuous
 62
     8
370
    25
100
AcDbLine
 10
3.044486952824734
 20
0.0297685553370002
 30
0.0
 11
6.514718625761446
 21
3.500000228273711
 31
0.0
  0
LINE
  5
F2
330
BD
100
AcDbEntity
  8
0
  6
Continuous
 62
     8
370
    25
100
AcDbLine
 10
1.95833112278288
 20
0.3578262876682459
 30
0.0
 11
5.100505063388349
 21
3.500000228273715
 31
0.0
  0
LINE
  5
F3
330
BD
100
AcDbEntity
  8
0
  6
Continuous
 62
     8
370
    25
100
AcDbLine
 10
1.120025480653695
 20
0.9337342079121669
 30
0.0
 11
3.686291501015245
 21
3.500000228273717
 31
0.0
  0
LINE
  5
F4
330
BD
100
AcDbEntity
  8
0
  6
Continuous
 62
     8
370
    25
100
AcDbLine
 10
0.4885294588482409
 20
1.716451748479805
 30
0.0
 11
3.499999999999995
 21
4.727922289631559
 31
0.0
  0
LINE
  5
F5
330
BD
100
AcDbEntity
  8
0
  6
Continuous
 62
     8
370
    25
100
AcDbLine
 10
0.0861398342558743
 20
2.728275686260531
 30
0.0
 11
3.499999999999999
 21
6.142135852004655
 31
0.0
  0
LINE
  5
F6
330
BD
100
AcDbEntity
  8
0
  6
Continuous
 62
     8
370
    25
100
AcDbLine
 10
0.0
 20
4.056349414377749
 30
0.0
 11
3.499999999999998
 21
7.556349414377747
 31
0.0
  0
LINE
  5
F7
330
BD
100
AcDbEntity
  8
0
  6
Continuous
 62
     8
370
    25
100
AcDbLine
 10
0.0000000000000071
 20
5.470562976750848
 30
0.0
 11
3.500000000000005
 21
8.970562976750847
 31
0.0
  0
LINE
  5
F8
330
BD
100
AcDbEntity
  8
0
  6
Continuous
 62
     8
370
    25
100
AcDbLine
 10
0.0
 20
6.884776539123941
 30
0.0
 11
3.499999999999998
 21
10.38477653912394
 31
0.0
  0
LINE
  5
F9
330
BD
100
AcDbEntity
  8
0
  6
Continuous
 62
     8
370
    25
100
AcDbLine
 10
0.0
 20
8.298990101497033
 30
0.0
 11
2.201010126776676
 21
10.50000022827371
 31
0.0
  0
LINE
  5
FA
330
BD
100
AcDbEntity
  8
0
  6
Continuous
 62
     8
370
    25
100
AcDbLine
 10
0.0
 20
9.71320366387014
 30
0.0
 11
0.7867965644035811
 21
10.50000022827372
 31
0.0
  0
ENDBLK
  5
BF
330
BD
100
AcDbEntity
  8
0
100
AcDbBlockEnd
  0
BLOCK
  5
FD
330
FC
100
AcDbEntity
  8
0
100
AcDbBlockBegin
  2
*X4
 70
     1
 10
0.0
 20
0.0
 30
0.0
  3
*X4
  1
*X4
  0
LINE
  5
FF
330
FC
100
AcDbEntity
  8
0
  6
Continuous
 62
     8
370
    25
100
AcDbLine
 10
3.067003375592222
 20
0.0000037920306681
 30
0.0
 11
3.499999999999999
 21
0.4330004164384454
 31
0.0
  0
LINE
  5
100
330
FC
100
AcDbEntity
  8
0
  6
Continuous
 62
     8
370
    25
100
AcDbLine
 10
2.595598854801196
 20
0.9428128336127344
 30
0.0
 11
3.499999999999998
 21
1.847213978811537
 31
0.0
  0
LINE
  5
101
330
FC
100
AcDbEntity
  8
0
  6
Continuous
 62
     8
370
    25
100
AcDbLine
 10
2.124194334010163
 20
1.885621875194801
 30
0.0
 11
3.5
 21
3.261427541184638
 31
0.0
  0
LINE
  5
102
330
FC
100
AcDbEntity
  8
0
  6
Continuous
 62
     8
370
    25
100
AcDbLine
 10
2.0
 20
3.175641103557737
 30
0.0
 11
3.500000000000002
 21
4.675641103557739
 31
0.0
  0
LINE
  5
103
330
FC
100
AcDbEntity
  8
0
  6
Continuous
 62
     8
370
    25
100
AcDbLine
 10
2.0
 20
4.589854665930829
 30
0.0
 11
3.500000000000002
 21
6.089854665930831
 31
0.0
  0
LINE
  5
104
330
FC
100
AcDbEntity
  8
0
  6
Continuous
 62
     8
370
    25
100
AcDbLine
 10
2.0
 20
6.004068228303922
 30
0.0
 11
3.500000000000002
 21
7.504068228303924
 31
0.0
  0
LINE
  5
105
330
FC
100
AcDbEntity
  8
0
  6
Continuous
 62
     8
370
    25
100
AcDbLine
 10
2.0
 20
7.418281790677014
 30
0.0
 11
3.500000000000002
 21
8.918281790677016
 31
0.0
  0
LINE
  5
106
330
FC
100
AcDbEntity
  8
0
  6
Continuous
 62
     8
370
    25
100
AcDbLine
 10
2.0
 20
8.832495353050106
 30
0.0
 11
3.500000000000002
 21
10.33249535305011
 31
0.0
  0
LINE
  5
107
330
FC
100
AcDbEntity
  8
0
  6
Continuous
 62
     8
370
    25
100
AcDbLine
 10
2.0
 20
10.2467089154232
 30
0.0
 11
3.500000000000002
 21
11.7467089154232
 31
0.0
  0
LINE
  5
108
330
FC
100
AcDbEntity
  8
0
  6
Continuous
 62
     8
370
    25
100
AcDbLine
 10
2.0
 20
11.6609224777963
 30
0.0
 11
3.499999999999992
 21
13.1609224777963
 31
0.0
  0
LINE
  5
109
330
FC
100
AcDbEntity
  8
0
  6
Continuous
 62
     8
370
    25
100
AcDbLine
 10
2.0
 20
13.0751360401694
 30
0.0
 11
3.238802085240066
 21
14.31393812540946
 31
0.0
  0
LINE
  5
10A
330
FC
100
AcDbEntity
  8
0
  6
Continuous
 62
     8
370
    25
100
AcDbLine
 10
2.0
 20
14.48934960254249
 30
0.0
 11
2.909087912998948
 21
15.39843751554144
 31
0.0
  0
LINE
  5
10B
330
FC
100
AcDbEntity
  8
0
  6
Continuous
 62
     8
370
    25
100
AcDbLine
 10
1.826149297276864
 20
15.72971246219247
 30
0.0
 11
2.665110664362465
 21
16.56867382927807
 31
0.0
  0
LINE
  5
10C
330
FC
100
AcDbEntity
  8
0
  6
Continuous
 62
     8
370
    25
100
AcDbLine
 10
1.61620077080903
 20
16.9339774980977
 30
0.0
 11
2.524152905082634
 21
17.84192963237131
 31
0.0
  0
LINE
  5
10D
330
FC
100
AcDbEntity
  8
0
  6
Continuous
 62
     8
370
    25
100
AcDbLine
 10
1.508694496322001
 20
18.24068478598377
 30
0.0
 11
2.514432987210256
 21
19.24642327687203
 31
0.0
  0
LINE
  5
10E
330
FC
100
AcDbEntity
  8
0
  6
Continuous
 62
     8
370
    25
100
AcDbLine
 10
1.531866592000895
 20
19.67807044403575
 30
0.0
 11
2.687443790043137
 21
20.833647642078
 31
0.0
  0
LINE
  5
10F
330
FC
100
AcDbEntity
  8
0
  6
Continuous
 62
     8
370
    25
100
AcDbLine
 10
1.573593128807147
 20
21.13401054321513
 30
0.0
 11
3.1584446746652
 21
22.71886208907318
 31
0.0
  0
LINE
  5
110
330
FC
100
AcDbEntity
  8
0
  6
Continuous
 62
     8
370
    25
100
AcDbLine
 10
0.1593795664340618
 20
21.13401054321513
 30
0.0
 11
3.499999999999993
 21
24.47463097678106
 31
0.0
  0
LINE
  5
111
330
FC
100
AcDbEntity
  8
0
  6
Continuous
 62
     8
370
    25
100
AcDbLine
 10
0.0
 20
22.38884453915415
 30
0.0
 11
3.499999999999998
 21
25.88884453915415
 31
0.0
  0
LINE
  5
112
330
FC
100
AcDbEntity
  8
0
  6
Continuous
 62
     8
370
    25
100
AcDbLine
 10
-0.0000000000000071
 20
23.80305810152724
 30
0.0
 11
3.499999999999991
 21
27.30305810152724
 31
0.0
  0
LINE
  5
113
330
FC
100
AcDbEntity
  8
0
  6
Continuous
 62
     8
370
    25
100
AcDbLine
 10
0.0
 20
25.21727166390035
 30
0.0
 11
3.499999999999998
 21
28.71727166390034
 31
0.0
  0
LINE
  5
114
330
FC
100
AcDbEntity
  8
0
  6
Continuous
 62
     8
370
    25
100
AcDbLine
 10
0.0
 20
26.63148522627344
 30
0.0
 11
3.499999999999988
 21
30.13148522627343
 31
0.0
  0
LINE
  5
115
330
FC
100
AcDbEntity
  8
0
  6
Continuous
 62
     8
370
    25
100
AcDbLine
 10
0.0000000000000071
 20
28.04569878864655
 30
0.0
 11
3.499999999999996
 21
31.54569878864653
 31
0.0
  0
LINE
  5
116
330
FC
100
AcDbEntity
  8
0
  6
Continuous
 62
     8
370
    25
100
AcDbLine
 10
0.0
 20
29.45991235101964
 30
0.0
 11
3.17409819219549
 21
32.63401054321513
 31
0.0
  0
LINE
  5
117
330
FC
100
AcDbEntity
  8
0
  6
Continuous
 62
     8
370
    25
100
AcDbLine
 10
0.0000000000000071
 20
30.87412591339273
 30
0.0
 11
1.759884629822401
 21
32.63401054321513
 31
0.0
  0
LINE
  5
118
330
FC
100
AcDbEntity
  8
0
  6
Continuous
 62
     8
370
    25
100
AcDbLine
 10
0.0000000000000142
 20
32.28833947576582
 30
0.0
 11
0.3456710674493134
 21
32.63401054321513
 31
0.0
  0
ENDBLK
  5
FE
330
FC
100
AcDbEntity
  8
0
100
AcDbBlockEnd
  0
ENDSEC
  0
SECTION
  2
ENTITIES
  0
LINE
  5
79
330
1F
100
AcDbEntity
  8
NoLayerName_001
  6
CENTER
 62
     2
370
    25
100
AcDbLine
 10
44.27847791972908
 20
189.7208223555231
 30
0.0
 11
170.0
 21
189.7208223555231
 31
0.0
  0
LINE
  5
7A
330
1F
100
AcDbEntity
  8
NoLayerName_001
  6
CENTER
 62
     2
370
    25
100
AcDbLine
 10
106.5
 20
257.2208223555231
 30
0.0
 11
106.5
 21
124.2208223555231
 31
0.0
  0
INSERT
  5
7E
330
1F
100
AcDbEntity
  8
0
  6
Continuous
 62
     8
370
    25
100
AcDbBlockReference
  2
*X1
 10
162.5
 20
63.49261856079102
 30
0.0
  0
INSERT
  5
BC
330
1F
100
AcDbEntity
  8
0
  6
Continuous
 62
     8
370
    25
100
AcDbBlockReference
  2
*X2
 10
106.5
 20
59.23020935058594
 30
0.0
  0
INSERT
  5
FB
330
1F
100
AcDbEntity
  8
0
  6
Continuous
 62
     8
370
    25
100
AcDbBlockReference
  2
*X3
 10
47.0
 20
59.23020935058594
 30
0.0
  0
INSERT
  5
119
330
1F
100
AcDbEntity
  8
0
  6
Continuous
 62
     8
370
    25
100
AcDbBlockReference
  2
*X4
 10
47.0
 20
70.59619903564453
 30
0.0
  0
ARC
  5
11A
330
1F
100
AcDbEntity
  8
NoLayerName_001
  6
Continuous
 62
     4
370
    50
100
AcDbCircle
 10
141.5
 20
137.2208223555231
 30
0.0
 40
5.0
100
AcDbArc
 50
0.0
 51
90.0
  0
ARC
  5
11B
330
1F
100
AcDbEntity
  8
NoLayerName_001
  6
Continuous
 62
     4
370
    50
100
AcDbCircle
 10
141.5
 20
137.2208223555231
 30
0.0
 40
5.0
100
AcDbArc
 50
90.0
 51
180.0
  0
CIRCLE
  5
11C
330
1F
100
AcDbEntity
  8
NoLayerName_001
  6
Continuous
 62
     4
370
    50
100
AcDbCircle
 10
106.5
 20
189.7208223555231
 30
0.0
 40
2.5
  0
LINE
  5
11D
330
1F
100
AcDbEntity
  8
NoLayerName_001
  6
Continuous
 62
     4
370
    50
100
AcDbLine
 10
106.5
 20
133.7208223555231
 30
0.0
 11
106.5
 21
130.2208223555231
 31
0.0
  0
LINE
  5
11E
330
1F
100
AcDbEntity
  8
NoLayerName_001
  6
Continuous
 62
     4
370
    50
100
AcDbLine
 10
162.0
 20
189.7208223555231
 30
0.0
 11
166.0
 21
189.7208223555231
 31
0.0
  0
LINE
  5
11F
330
1F
100
AcDbEntity
  8
NoLayerName_001
  6
Continuous
 62
     4
370
    50
100
AcDbLine
 10
158.0
 20
130.2208223555231
 30
0.0
 11
55.0
 21
130.2208223555231
 31
0.0
  0
LINE
  5
120
330
1F
100
AcDbEntity
  8
NoLayerName_001
  6
Continuous
 62
     4
370
    50
100
AcDbLine
 10
47.0
 20
138.2208223555231
 30
0.0
 11
47.0
 21
241.2208223555231
 31
0.0
  0
LINE
  5
121
330
1F
100
AcDbEntity
  8
NoLayerName_001
  6
Continuous
 62
     4
370
    50
100
AcDbLine
 10
55.00000000000001
 20
249.2208223555231
 30
0.0
 11
158.0
 21
249.2208223555231
 31
0.0
  0
LINE
  5
122
330
1F
100
AcDbEntity
  8
NoLayerName_001
  6
Continuous
 62
     4
370
    50
100
AcDbLine
 10
166.0
 20
241.2208223555231
 30
0.0
 11
166.0
 21
138.2208223555231
 31
0.0
  0
ARC
  5
123
330
1F
100
AcDbEntity
  8
NoLayerName_001
  6
Continuous
 62
     4
370
    50
100
AcDbCircle
 10
71.5
 20
137.2208223555231
 30
0.0
 40
5.0
100
AcDbArc
 50
90.0
 51
180.0
  0
ARC
  5
124
330
1F
100
AcDbEntity
  8
NoLayerName_001
  6
Continuous
 62
     4
370
    50
100
AcDbCircle
 10
71.5
 20
137.2208223555231
 30
0.0
 40
5.0
100
AcDbArc
 50
0.0
 51
90.0
  0
LINE
  5
125
330
1F
100
AcDbEntity
  8
NoLayerName_001
  6
Continuous
 62
     4
370
    50
100
AcDbLine
 10
51.0
 20
189.7208223555231
 30
0.0
 11
47.0
 21
189.7208223555231
 31
0.0
  0
LINE
  5
126
330
1F
100
AcDbEntity
  8
NoLayerName_001
  6
Continuous
 62
     4
370
    50
100
AcDbLine
 10
106.5
 20
245.2208223555231
 30
0.0
 11
106.5
 21
249.2208223555231
 31
0.0
  0
ARC
  5
127
330
1F
100
AcDbEntity
  8
NoLayerName_001
  6
Continuous
 62
     4
370
    50
100
AcDbCircle
 10
141.5
 20
242.2208223555231
 30
0.0
 40
5.0
100
AcDbArc
 50
270.0
 51
0.0
  0
ARC
  5
128
330
1F
100
AcDbEntity
  8
NoLayerName_001
  6
Continuous
 62
     4
370
    50
100
AcDbCircle
 10
141.5
 20
242.2208223555231
 30
0.0
 40
5.0
100
AcDbArc
 50
180.0
 51
270.0
  0
ARC
  5
129
330
1F
100
AcDbEntity
  8
NoLayerName_001
  6
Continuous
 62
     4
370
    50
100
AcDbCircle
 10
71.5
 20
242.2208223555231
 30
0.0
 40
5.0
100
AcDbArc
 50
180.0
 51
270.0
  0
ARC
  5
12A
330
1F
100
AcDbEntity
  8
NoLayerName_001
  6
Continuous
 62
     4
370
    50
100
AcDbCircle
 10
71.5
 20
242.2208223555231
 30
0.0
 40
5.0
100
AcDbArc
 50
270.0
 51
0.0
  0
LINE
  5
12B
330
1F
100
AcDbEntity
  8
NoLayerName_001
  6
Continuous
 62
     4
370
    50
100
AcDbLine
 10
158.5
 20
133.7208223555231
 30
0.0
 11
144.6
 21
133.7208223555231
 31
0.0
  0
LINE
  5
12C
330
1F
100
AcDbEntity
  8
NoLayerName_001
  6
Continuous
 62
     4
370
    50
100
AcDbLine
 10
50.5
 20
241.7208223555231
 30
0.0
 11
50.5
 21
137.7208223555231
 31
0.0
  0
LINE
  5
12D
330
1F
100
AcDbEntity
  8
NoLayerName_001
  6
Continuous
 62
     4
370
    50
100
AcDbLine
 10
54.5
 20
245.7208223555231
 30
0.0
 11
68.4
 21
245.7208223555231
 31
0.0
  0
LINE
  5
12E
330
1F
100
AcDbEntity
  8
NoLayerName_001
  6
Continuous
 62
     4
370
    50
100
AcDbLine
 10
162.5
 20
241.7208223555231
 30
0.0
 11
162.5
 21
137.7208223555231
 31
0.0
  0
ARC
  5
12F
330
1F
100
AcDbEntity
  8
NoLayerName_001
  6
Continuous
 62
     4
370
    50
100
AcDbCircle
 10
71.60000000000002
 20
242.8208223555231
 30
0.0
 40
4.299999999999996
100
AcDbArc
 50
43.09999999999992
 51
137.8000000000001
  0
LINE
  5
130
330
1F
100
AcDbEntity
  8
NoLayerName_001
  6
Continuous
 62
     4
370
    50
100
AcDbLine
 10
74.69999999999993
 20
245.7208223555231
 30
0.0
 11
138.3999999999999
 21
245.7208223555231
 31
0.0
  0
ARC
  5
131
330
1F
100
AcDbEntity
  8
NoLayerName_001
  6
Continuous
 62
     4
370
    50
100
AcDbCircle
 10
141.5
 20
242.7208223555231
 30
0.0
 40
4.300000000000002
100
AcDbArc
 50
43.09999999999992
 51
135.8999999999999
  0
LINE
  5
132
330
1F
100
AcDbEntity
  8
NoLayerName_001
  6
Continuous
 62
     4
370
    50
100
AcDbLine
 10
158.5
 20
245.7208223555231
 30
0.0
 11
144.6999999999999
 21
245.7208223555231
 31
0.0
  0
ARC
  5
133
330
1F
100
AcDbEntity
  8
NoLayerName_001
  6
Continuous
 62
     4
370
    50
100
AcDbCircle
 10
141.5
 20
136.7208223555231
 30
0.0
 40
4.299999999999999
100
AcDbArc
 50
224.1000000000001
 51
316.9000000000001
  0
LINE
  5
134
330
1F
100
AcDbEntity
  8
NoLayerName_001
  6
Continuous
 62
     4
370
    50
100
AcDbLine
 10
138.4
 20
133.7208223555231
 30
0.0
 11
74.69999999999997
 21
133.7208223555231
 31
0.0
  0
ARC
  5
135
330
1F
100
AcDbEntity
  8
NoLayerName_001
  6
Continuous
 62
     4
370
    50
100
AcDbCircle
 10
71.60000000000002
 20
136.6208223555231
 30
0.0
 40
4.299999999999999
100
AcDbArc
 50
222.1999999999999
 51
316.9000000000001
  0
LINE
  5
136
330
1F
100
AcDbEntity
  8
NoLayerName_001
  6
Continuous
 62
     4
370
    50
100
AcDbLine
 10
54.5
 20
133.7208223555231
 30
0.0
 11
68.39999999999998
 21
133.7208223555231
 31
0.0
  0
LINE
  5
137
330
1F
100
AcDbEntity
  8
NoLayerName_001
  6
Continuous
 62
     4
370
    50
100
AcDbLine
 10
106.5
 20
245.7208223555231
 30
0.0
 11
106.5
 21
249.2208223555231
 31
0.0
  0
ARC
  5
138
330
1F
100
AcDbEntity
  8
NoLayerName_001
  6
Continuous
 62
     4
370
    50
100
AcDbCircle
 10
158.0
 20
138.2208223555231
 30
0.0
 40
8.0
100
AcDbArc
 50
270.0
 51
0.0
  0
ARC
  5
139
330
1F
100
AcDbEntity
  8
NoLayerName_001
  6
Continuous
 62
     4
370
    50
100
AcDbCircle
 10
158.0
 20
241.2208223555231
 30
0.0
 40
8.0
100
AcDbArc
 50
0.0
 51
90.0
  0
ARC
  5
13A
330
1F
100
AcDbEntity
  8
NoLayerName_001
  6
Continuous
 62
     4
370
    50
100
AcDbCircle
 10
55.0
 20
241.2208223555231
 30
0.0
 40
8.0
100
AcDbArc
 50
90.0
 51
180.0
  0
ARC
  5
13B
330
1F
100
AcDbEntity
  8
NoLayerName_001
  6
Continuous
 62
     4
370
    50
100
AcDbCircle
 10
55.0
 20
138.2208223555231
 30
0.0
 40
8.0
100
AcDbArc
 50
180.0
 51
270.0
  0
CIRCLE
  5
13C
330
1F
100
AcDbEntity
  8
NoLayerName_001
  6
Continuous
 62
     4
370
    50
100
AcDbCircle
 10
71.5
 20
242.2208223555231
 30
0.0
 40
3.5
  0
LINE
  5
13D
330
1F
100
AcDbEntity
  8
NoLayerName_001
  6
Continuous
 62
     4
370
    50
100
AcDbLine
 10
72.19999999999993
 20
240.2208223555231
 30
0.0
 11
72.19999999999993
 21
241.5208223555231
 31
0.0
  0
LINE
  5
13E
330
1F
100
AcDbEntity
  8
NoLayerName_001
  6
Continuous
 62
     4
370
    50
100
AcDbLine
 10
72.19999999999993
 20
241.5208223555231
 30
0.0
 11
74.89999999999993
 21
241.5208223555231
 31
0.0
  0
LINE
  5
13F
330
1F
100
AcDbEntity
  8
NoLayerName_001
  6
Continuous
 62
     4
370
    50
100
AcDbLine
 10
72.19999999999993
 20
240.2208223555231
 30
0.0
 11
71.49999999999993
 21
240.2208223555231
 31
0.0
  0
LINE
  5
140
330
1F
100
AcDbEntity
  8
NoLayerName_001
  6
Continuous
 62
     4
370
    50
100
AcDbLine
 10
70.80000000000007
 20
240.2208223555231
 30
0.0
 11
70.80000000000007
 21
241.5208223555231
 31
0.0
  0
LINE
  5
141
330
1F
100
AcDbEntity
  8
NoLayerName_001
  6
Continuous
 62
     4
370
    50
100
AcDbLine
 10
70.80000000000007
 20
241.5208223555231
 30
0.0
 11
68.10000000000007
 21
241.5208223555231
 31
0.0
  0
LINE
  5
142
330
1F
100
AcDbEntity
  8
NoLayerName_001
  6
Continuous
 62
     4
370
    50
100
AcDbLine
 10
70.80000000000007
 20
240.2208223555231
 30
0.0
 11
71.50000000000007
 21
240.2208223555231
 31
0.0
  0
LINE
  5
143
330
1F
100
AcDbEntity
  8
NoLayerName_001
  6
Continuous
 62
     4
370
    50
100
AcDbLine
 10
72.19999999999993
 20
244.2208223555231
 30
0.0
 11
72.19999999999993
 21
242.9208223555231
 31
0.0
  0
LINE
  5
144
330
1F
100
AcDbEntity
  8
NoLayerName_001
  6
Continuous
 62
     4
370
    50
100
AcDbLine
 10
72.19999999999993
 20
242.9208223555231
 30
0.0
 11
74.89999999999993
 21
242.9208223555231
 31
0.0
  0
LINE
  5
145
330
1F
100
AcDbEntity
  8
NoLayerName_001
  6
Continuous
 62
     4
370
    50
100
AcDbLine
 10
72.19999999999993
 20
244.2208223555231
 30
0.0
 11
71.49999999999993
 21
244.2208223555231
 31
0.0
  0
LINE
  5
146
330
1F
100
AcDbEntity
  8
NoLayerName_001
  6
Continuous
 62
     4
370
    50
100
AcDbLine
 10
70.80000000000007
 20
244.2208223555231
 30
0.0
 11
70.80000000000007
 21
242.9208223555231
 31
0.0
  0
LINE
  5
147
330
1F
100
AcDbEntity
  8
NoLayerName_001
  6
Continuous
 62
     4
370
    50
100
AcDbLine
 10
70.80000000000007
 20
242.9208223555231
 30
0.0
 11
68.10000000000007
 21
242.9208223555231
 31
0.0
  0
LINE
  5
148
330
1F
100
AcDbEntity
  8
NoLayerName_001
  6
Continuous
 62
     4
370
    50
100
AcDbLine
 10
70.80000000000007
 20
244.2208223555231
 30
0.0
 11
71.50000000000007
 21
244.2208223555231
 31
0.0
  0
CIRCLE
  5
149
330
1F
100
AcDbEntity
  8
NoLayerName_001
  6
Continuous
 62
     4
370
    50
100
AcDbCircle
 10
141.5
 20
242.2208223555231
 30
0.0
 40
3.5
  0
LINE
  5
14A
330
1F
100
AcDbEntity
  8
NoLayerName_001
  6
Continuous
 62
     4
370
    50
100
AcDbLine
 10
142.1999999999999
 20
240.2208223555231
 30
0.0
 11
142.1999999999999
 21
241.5208223555231
 31
0.0
  0
LINE
  5
14B
330
1F
100
AcDbEntity
  8
NoLayerName_001
  6
Continuous
 62
     4
370
    50
100
AcDbLine
 10
142.1999999999999
 20
241.5208223555231
 30
0.0
 11
144.8999999999999
 21
241.5208223555231
 31
0.0
  0
LINE
  5
14C
330
1F
100
AcDbEntity
  8
NoLayerName_001
  6
Continuous
 62
     4
370
    50
100
AcDbLine
 10
142.1999999999999
 20
240.2208223555231
 30
0.0
 11
141.4999999999999
 21
240.2208223555231
 31
0.0
  0
LINE
  5
14D
330
1F
100
AcDbEntity
  8
NoLayerName_001
  6
Continuous
 62
     4
370
    50
100
AcDbLine
 10
140.8000000000001
 20
240.2208223555231
 30
0.0
 11
140.8000000000001
 21
241.5208223555231
 31
0.0
  0
LINE
  5
14E
330
1F
100
AcDbEntity
  8
NoLayerName_001
  6
Continuous
 62
     4
370
    50
100
AcDbLine
 10
140.8000000000001
 20
241.5208223555231
 30
0.0
 11
138.1000000000001
 21
241.5208223555231
 31
0.0
  0
LINE
  5
14F
330
1F
100
AcDbEntity
  8
NoLayerName_001
  6
Continuous
 62
     4
370
    50
100
AcDbLine
 10
140.8000000000001
 20
240.2208223555231
 30
0.0
 11
141.5000000000001
 21
240.2208223555231
 31
0.0
  0
LINE
  5
150
330
1F
100
AcDbEntity
  8
NoLayerName_001
  6
Continuous
 62
     4
370
    50
100
AcDbLine
 10
142.1999999999999
 20
244.2208223555231
 30
0.0
 11
142.1999999999999
 21
242.9208223555231
 31
0.0
  0
LINE
  5
151
330
1F
100
AcDbEntity
  8
NoLayerName_001
  6
Continuous
 62
     4
370
    50
100
AcDbLine
 10
142.1999999999999
 20
242.9208223555231
 30
0.0
 11
144.8999999999999
 21
242.9208223555231
 31
0.0
  0
LINE
  5
152
330
1F
100
AcDbEntity
  8
NoLayerName_001
  6
Continuous
 62
     4
370
    50
100
AcDbLine
 10
142.1999999999999
 20
244.2208223555231
 30
0.0
 11
141.4999999999999
 21
244.2208223555231
 31
0.0
  0
LINE
  5
153
330
1F
100
AcDbEntity
  8
NoLayerName_001
  6
Continuous
 62
     4
370
    50
100
AcDbLine
 10
140.8000000000001
 20
244.2208223555231
 30
0.0
 11
140.8000000000001
 21
242.9208223555231
 31
0.0
  0
LINE
  5
154
330
1F
100
AcDbEntity
  8
NoLayerName_001
  6
Continuous
 62
     4
370
    50
100
AcDbLine
 10
140.8000000000001
 20
242.9208223555231
 30
0.0
 11
138.1000000000001
 21
242.9208223555231
 31
0.0
  0
LINE
  5
155
330
1F
100
AcDbEntity
  8
NoLayerName_001
  6
Continuous
 62
     4
370
    50
100
AcDbLine
 10
140.8000000000001
 20
244.2208223555231
 30
0.0
 11
141.5000000000001
 21
244.2208223555231
 31
0.0
  0
CIRCLE
  5
156
330
1F
100
AcDbEntity
  8
NoLayerName_001
  6
Continuous
 62
     4
370
    50
100
AcDbCircle
 10
71.5
 20
137.2208223555231
 30
0.0
 40
3.5
  0
LINE
  5
157
330
1F
100
AcDbEntity
  8
NoLayerName_001
  6
Continuous
 62
     4
370
    50
100
AcDbLine
 10
72.19999999999993
 20
135.2208223555231
 30
0.0
 11
72.19999999999993
 21
136.5208223555231
 31
0.0
  0
LINE
  5
158
330
1F
100
AcDbEntity
  8
NoLayerName_001
  6
Continuous
 62
     4
370
    50
100
AcDbLine
 10
72.19999999999993
 20
136.5208223555231
 30
0.0
 11
74.89999999999993
 21
136.5208223555231
 31
0.0
  0
LINE
  5
159
330
1F
100
AcDbEntity
  8
NoLayerName_001
  6
Continuous
 62
     4
370
    50
100
AcDbLine
 10
72.19999999999993
 20
135.2208223555231
 30
0.0
 11
71.49999999999993
 21
135.2208223555231
 31
0.0
  0
LINE
  5
15A
330
1F
100
AcDbEntity
  8
NoLayerName_001
  6
Continuous
 62
     4
370
    50
100
AcDbLine
 10
70.80000000000007
 20
135.2208223555231
 30
0.0
 11
70.80000000000007
 21
136.5208223555231
 31
0.0
  0
LINE
  5
15B
330
1F
100
AcDbEntity
  8
NoLayerName_001
  6
Continuous
 62
     4
370
    50
100
AcDbLine
 10
70.80000000000007
 20
136.5208223555231
 30
0.0
 11
68.10000000000007
 21
136.5208223555231
 31
0.0
  0
LINE
  5
15C
330
1F
100
AcDbEntity
  8
NoLayerName_001
  6
Continuous
 62
     4
370
    50
100
AcDbLine
 10
70.80000000000007
 20
135.2208223555231
 30
0.0
 11
71.50000000000007
 21
135.2208223555231
 31
0.0
  0
LINE
  5
15D
330
1F
100
AcDbEntity
  8
NoLayerName_001
  6
Continuous
 62
     4
370
    50
100
AcDbLine
 10
72.19999999999993
 20
139.2208223555231
 30
0.0
 11
72.19999999999993
 21
137.9208223555231
 31
0.0
  0
LINE
  5
15E
330
1F
100
AcDbEntity
  8
NoLayerName_001
  6
Continuous
 62
     4
370
    50
100
AcDbLine
 10
72.19999999999993
 20
137.9208223555231
 30
0.0
 11
74.89999999999993
 21
137.9208223555231
 31
0.0
  0
LINE
  5
15F
330
1F
100
AcDbEntity
  8
NoLayerName_001
  6
Continuous
 62
     4
370
    50
100
AcDbLine
 10
72.19999999999993
 20
139.2208223555231
 30
0.0
 11
71.49999999999993
 21
139.2208223555231
 31
0.0
  0
LINE
  5
160
330
1F
100
AcDbEntity
  8
NoLayerName_001
  6
Continuous
 62
     4
370
    50
100
AcDbLine
 10
70.80000000000007
 20
139.2208223555231
 30
0.0
 11
70.80000000000007
 21
137.9208223555231
 31
0.0
  0
LINE
  5
161
330
1F
100
AcDbEntity
  8
NoLayerName_001
  6
Continuous
 62
     4
370
    50
100
AcDbLine
 10
70.80000000000007
 20
137.9208223555231
 30
0.0
 11
68.10000000000007
 21
137.9208223555231
 31
0.0
  0
LINE
  5
162
330
1F
100
AcDbEntity
  8
NoLayerName_001
  6
Continuous
 62
     4
370
    50
100
AcDbLine
 10
70.80000000000007
 20
139.2208223555231
 30
0.0
 11
71.50000000000007
 21
139.2208223555231
 31
0.0
  0
CIRCLE
  5
163
330
1F
100
AcDbEntity
  8
NoLayerName_001
  6
Continuous
 62
     4
370
    50
100
AcDbCircle
 10
141.5
 20
137.2208223555231
 30
0.0
 40
3.5
  0
LINE
  5
164
330
1F
100
AcDbEntity
  8
NoLayerName_001
  6
Continuous
 62
     4
370
    50
100
AcDbLine
 10
142.1999999999999
 20
135.2208223555231
 30
0.0
 11
142.1999999999999
 21
136.5208223555231
 31
0.0
  0
LINE
  5
165
330
1F
100
AcDbEntity
  8
NoLayerName_001
  6
Continuous
 62
     4
370
    50
100
AcDbLine
 10
142.1999999999999
 20
136.5208223555231
 30
0.0
 11
144.8999999999999
 21
136.5208223555231
 31
0.0
  0
LINE
  5
166
330
1F
100
AcDbEntity
  8
NoLayerName_001
  6
Continuous
 62
     4
370
    50
100
AcDbLine
 10
142.1999999999999
 20
135.2208223555231
 30
0.0
 11
141.4999999999999
 21
135.2208223555231
 31
0.0
  0
LINE
  5
167
330
1F
100
AcDbEntity
  8
NoLayerName_001
  6
Continuous
 62
     4
370
    50
100
AcDbLine
 10
140.8000000000001
 20
135.2208223555231
 30
0.0
 11
140.8000000000001
 21
136.5208223555231
 31
0.0
  0
LINE
  5
168
330
1F
100
AcDbEntity
  8
NoLayerName_001
  6
Continuous
 62
     4
370
    50
100
AcDbLine
 10
140.8000000000001
 20
136.5208223555231
 30
0.0
 11
138.1000000000001
 21
136.5208223555231
 31
0.0
  0
LINE
  5
169
330
1F
100
AcDbEntity
  8
NoLayerName_001
  6
Continuous
 62
     4
370
    50
100
AcDbLine
 10
140.8000000000001
 20
135.2208223555231
 30
0.0
 11
141.5000000000001
 21
135.2208223555231
 31
0.0
  0
LINE
  5
16A
330
1F
100
AcDbEntity
  8
NoLayerName_001
  6
Continuous
 62
     4
370
    50
100
AcDbLine
 10
142.1999999999999
 20
139.2208223555231
 30
0.0
 11
142.1999999999999
 21
137.9208223555231
 31
0.0
  0
LINE
  5
16B
330
1F
100
AcDbEntity
  8
NoLayerName_001
  6
Continuous
 62
     4
370
    50
100
AcDbLine
 10
142.1999999999999
 20
137.9208223555231
 30
0.0
 11
144.8999999999999
 21
137.9208223555231
 31
0.0
  0
LINE
  5
16C
330
1F
100
AcDbEntity
  8
NoLayerName_001
  6
Continuous
 62
     4
370
    50
100
AcDbLine
 10
142.1999999999999
 20
139.2208223555231
 30
0.0
 11
141.4999999999999
 21
139.2208223555231
 31
0.0
  0
LINE
  5
16D
330
1F
100
AcDbEntity
  8
NoLayerName_001
  6
Continuous
 62
     4
370
    50
100
AcDbLine
 10
140.8000000000001
 20
139.2208223555231
 30
0.0
 11
140.8000000000001
 21
137.9208223555231
 31
0.0
  0
LINE
  5
16E
330
1F
100
AcDbEntity
  8
NoLayerName_001
  6
Continuous
 62
     4
370
    50
100
AcDbLine
 10
140.8000000000001
 20
137.9208223555231
 30
0.0
 11
138.1000000000001
 21
137.9208223555231
 31
0.0
  0
LINE
  5
16F
330
1F
100
AcDbEntity
  8
NoLayerName_001
  6
Continuous
 62
     4
370
    50
100
AcDbLine
 10
140.8000000000001
 20
139.2208223555231
 30
0.0
 11
141.5000000000001
 21
139.2208223555231
 31
0.0
  0
LINE
  5
170
330
1F
100
AcDbEntity
  8
NoLayerName_001
  6
Continuous
 62
     4
370
    50
100
AcDbLine
 10
71.5
 20
102.6302095788596
 30
0.0
 11
70.30000000000001
 21
102.6302095788596
 31
0.0
  0
ARC
  5
171
330
1F
100
AcDbEntity
  8
NoLayerName_001
  6
Continuous
 62
     4
370
    50
100
AcDbCircle
 10
70.30000000000007
 20
100.3302095788596
 30
0.0
 40
2.299999999999997
100
AcDbArc
 50
90.0
 51
180.0
  0
LINE
  5
172
330
1F
100
AcDbEntity
  8
NoLayerName_001
  6
Continuous
 62
     4
370
    50
100
AcDbLine
 10
70.80000000000007
 20
102.6302095788596
 30
0.0
 11
70.80000000000007
 21
101.6302095788596
 31
0.0
  0
LINE
  5
173
330
1F
100
AcDbEntity
  8
NoLayerName_001
  6
Continuous
 62
     4
370
    50
100
AcDbLine
 10
70.80000000000007
 20
101.6302095788596
 30
0.0
 11
71.50000000000006
 21
101.6302095788596
 31
0.0
  0
LINE
  5
174
330
1F
100
AcDbEntity
  8
NoLayerName_001
  6
Continuous
 62
     4
370
    50
100
AcDbLine
 10
71.5
 20
102.6302095788596
 30
0.0
 11
72.7
 21
102.6302095788596
 31
0.0
  0
LINE
  5
175
330
1F
100
AcDbEntity
  8
NoLayerName_001
  6
Continuous
 62
     4
370
    50
100
AcDbLine
 10
75.0
 20
100.3302095788596
 30
0.0
 11
75.0
 21
100.2302095788596
 31
0.0
  0
ARC
  5
176
330
1F
100
AcDbEntity
  8
NoLayerName_001
  6
Continuous
 62
     4
370
    50
100
AcDbCircle
 10
72.70000000000005
 20
100.3302095788596
 30
0.0
 40
2.299999999999997
100
AcDbArc
 50
0.0
 51
90.0
  0
LINE
  5
177
330
1F
100
AcDbEntity
  8
NoLayerName_001
  6
Continuous
 62
     4
370
    50
100
AcDbLine
 10
72.20000000000005
 20
102.6302095788596
 30
0.0
 11
72.20000000000005
 21
101.6302095788596
 31
0.0
  0
LINE
  5
178
330
1F
100
AcDbEntity
  8
NoLayerName_001
  6
Continuous
 62
     4
370
    50
100
AcDbLine
 10
72.20000000000005
 20
101.6302095788596
 30
0.0
 11
71.50000000000004
 21
101.6302095788596
 31
0.0
  0
LINE
  5
179
330
1F
100
AcDbEntity
  8
NoLayerName_001
  6
Continuous
 62
     4
370
    50
100
AcDbLine
 10
109.0
 20
62.73020957885965
 30
0.0
 11
109.0
 21
60.73020957885965
 31
0.0
  0
LINE
  5
17A
330
1F
100
AcDbEntity
  8
NoLayerName_001
  6
Continuous
 62
     4
370
    50
100
AcDbLine
 10
106.5
 20
60.73020957885965
 30
0.0
 11
109.0
 21
60.73020957885965
 31
0.0
  0
LINE
  5
17B
330
1F
100
AcDbEntity
  8
NoLayerName_001
  6
Continuous
 62
     4
370
    50
100
AcDbLine
 10
104.0
 20
62.73020957885965
 30
0.0
 11
104.0
 21
60.73020957885965
 31
0.0
  0
LINE
  5
17C
330
1F
100
AcDbEntity
  8
NoLayerName_001
  6
Continuous
 62
     4
370
    50
100
AcDbLine
 10
106.5
 20
60.73020957885965
 30
0.0
 11
104.0
 21
60.73020957885965
 31
0.0
  0
LINE
  5
17D
330
1F
100
AcDbEntity
  8
NoLayerName_001
  6
Continuous
 62
     4
370
    50
100
AcDbLine
 10
128.5
 20
62.23020957885965
 30
0.0
 11
128.5
 21
59.23020957885965
 31
0.0
  0
LINE
  5
17E
330
1F
100
AcDbEntity
  8
NoLayerName_001
  6
Continuous
 62
     4
370
    50
100
AcDbLine
 10
127.5
 20
62.23020957885965
 30
0.0
 11
127.5
 21
60.23020957885965
 31
0.0
  0
LINE
  5
17F
330
1F
100
AcDbEntity
  8
NoLayerName_001
  6
Continuous
 62
     4
370
    50
100
AcDbLine
 10
128.5
 20
62.23020957885965
 30
0.0
 11
127.5
 21
62.23020957885965
 31
0.0
  0
LINE
  5
180
330
1F
100
AcDbEntity
  8
NoLayerName_001
  6
Continuous
 62
     4
370
    50
100
AcDbLine
 10
127.5
 20
60.23020957885965
 30
0.0
 11
125.5
 21
60.23020957885965
 31
0.0
  0
LINE
  5
181
330
1F
100
AcDbEntity
  8
NoLayerName_001
  6
Continuous
 62
     4
370
    50
100
AcDbLine
 10
122.5
 20
62.23020957885965
 30
0.0
 11
122.5
 21
59.23020957885965
 31
0.0
  0
LINE
  5
182
330
1F
100
AcDbEntity
  8
NoLayerName_001
  6
Continuous
 62
     4
370
    50
100
AcDbLine
 10
123.5
 20
62.23020957885965
 30
0.0
 11
123.5
 21
60.23020957885965
 31
0.0
  0
LINE
  5
183
330
1F
100
AcDbEntity
  8
NoLayerName_001
  6
Continuous
 62
     4
370
    50
100
AcDbLine
 10
122.5
 20
62.23020957885965
 30
0.0
 11
123.5
 21
62.23020957885965
 31
0.0
  0
LINE
  5
184
330
1F
100
AcDbEntity
  8
NoLayerName_001
  6
Continuous
 62
     4
370
    50
100
AcDbLine
 10
123.5
 20
60.23020957885965
 30
0.0
 11
125.5
 21
60.23020957885965
 31
0.0
  0
LINE
  5
185
330
1F
100
AcDbEntity
  8
NoLayerName_001
  6
Continuous
 62
     4
370
    50
100
AcDbLine
 10
141.5
 20
62.23020957885965
 30
0.0
 11
141.5
 21
59.23020957885965
 31
0.0
  0
LINE
  5
186
330
1F
100
AcDbEntity
  8
NoLayerName_001
  6
Continuous
 62
     4
370
    50
100
AcDbLine
 10
140.5
 20
62.23020957885965
 30
0.0
 11
140.5
 21
60.23020957885965
 31
0.0
  0
LINE
  5
187
330
1F
100
AcDbEntity
  8
NoLayerName_001
  6
Continuous
 62
     4
370
    50
100
AcDbLine
 10
141.5
 20
62.23020957885965
 30
0.0
 11
140.5
 21
62.23020957885965
 31
0.0
  0
LINE
  5
188
330
1F
100
AcDbEntity
  8
NoLayerName_001
  6
Continuous
 62
     4
370
    50
100
AcDbLine
 10
140.5
 20
60.23020957885965
 30
0.0
 11
138.5
 21
60.23020957885965
 31
0.0
  0
LINE
  5
189
330
1F
100
AcDbEntity
  8
NoLayerName_001
  6
Continuous
 62
     4
370
    50
100
AcDbLine
 10
135.5
 20
62.23020957885965
 30
0.0
 11
135.5
 21
59.23020957885965
 31
0.0
  0
LINE
  5
18A
330
1F
100
AcDbEntity
  8
NoLayerName_001
  6
Continuous
 62
     4
370
    50
100
AcDbLine
 10
136.5
 20
62.23020957885965
 30
0.0
 11
136.5
 21
60.23020957885965
 31
0.0
  0
LINE
  5
18B
330
1F
100
AcDbEntity
  8
NoLayerName_001
  6
Continuous
 62
     4
370
    50
100
AcDbLine
 10
135.5
 20
62.23020957885965
 30
0.0
 11
136.5
 21
62.23020957885965
 31
0.0
  0
LINE
  5
18C
330
1F
100
AcDbEntity
  8
NoLayerName_001
  6
Continuous
 62
     4
370
    50
100
AcDbLine
 10
136.5
 20
60.23020957885965
 30
0.0
 11
138.5
 21
60.23020957885965
 31
0.0
  0
LINE
  5
18D
330
1F
100
AcDbEntity
  8
NoLayerName_001
  6
Continuous
 62
     4
370
    50
100
AcDbLine
 10
84.5
 20
62.23020957885965
 30
0.0
 11
84.5
 21
59.23020957885965
 31
0.0
  0
LINE
  5
18E
330
1F
100
AcDbEntity
  8
NoLayerName_001
  6
Continuous
 62
     4
370
    50
100
AcDbLine
 10
85.5
 20
62.23020957885965
 30
0.0
 11
85.5
 21
60.23020957885965
 31
0.0
  0
LINE
  5
18F
330
1F
100
AcDbEntity
  8
NoLayerName_001
  6
Continuous
 62
     4
370
    50
100
AcDbLine
 10
84.5
 20
62.23020957885965
 30
0.0
 11
85.5
 21
62.23020957885965
 31
0.0
  0
LINE
  5
190
330
1F
100
AcDbEntity
  8
NoLayerName_001
  6
Continuous
 62
     4
370
    50
100
AcDbLine
 10
85.5
 20
60.23020957885965
 30
0.0
 11
87.5
 21
60.23020957885965
 31
0.0
  0
LINE
  5
191
330
1F
100
AcDbEntity
  8
NoLayerName_001
  6
Continuous
 62
     4
370
    50
100
AcDbLine
 10
90.5
 20
62.23020957885965
 30
0.0
 11
90.5
 21
59.23020957885965
 31
0.0
  0
LINE
  5
192
330
1F
100
AcDbEntity
  8
NoLayerName_001
  6
Continuous
 62
     4
370
    50
100
AcDbLine
 10
89.5
 20
62.23020957885965
 30
0.0
 11
89.5
 21
60.23020957885965
 31
0.0
  0
LINE
  5
193
330
1F
100
AcDbEntity
  8
NoLayerName_001
  6
Continuous
 62
     4
370
    50
100
AcDbLine
 10
90.5
 20
62.23020957885965
 30
0.0
 11
89.5
 21
62.23020957885965
 31
0.0
  0
LINE
  5
194
330
1F
100
AcDbEntity
  8
NoLayerName_001
  6
Continuous
 62
     4
370
    50
100
AcDbLine
 10
89.5
 20
60.23020957885965
 30
0.0
 11
87.5
 21
60.23020957885965
 31
0.0
  0
LINE
  5
195
330
1F
100
AcDbEntity
  8
NoLayerName_001
  6
Continuous
 62
     4
370
    50
100
AcDbLine
 10
71.5
 20
62.23020957885965
 30
0.0
 11
71.5
 21
59.23020957885965
 31
0.0
  0
LINE
  5
196
330
1F
100
AcDbEntity
  8
NoLayerName_001
  6
Continuous
 62
     4
370
    50
100
AcDbLine
 10
72.5
 20
62.23020957885965
 30
0.0
 11
72.5
 21
60.23020957885965
 31
0.0
  0
LINE
  5
197
330
1F
100
AcDbEntity
  8
NoLayerName_001
  6
Continuous
 62
     4
370
    50
100
AcDbLine
 10
71.5
 20
62.23020957885965
 30
0.0
 11
72.5
 21
62.23020957885965
 31
0.0
  0
LINE
  5
198
330
1F
100
AcDbEntity
  8
NoLayerName_001
  6
Continuous
 62
     4
370
    50
100
AcDbLine
 10
72.5
 20
60.23020957885965
 30
0.0
 11
74.5
 21
60.23020957885965
 31
0.0
  0
LINE
  5
199
330
1F
100
AcDbEntity
  8
NoLayerName_001
  6
Continuous
 62
     4
370
    50
100
AcDbLine
 10
77.5
 20
62.23020957885965
 30
0.0
 11
77.5
 21
59.23020957885965
 31
0.0
  0
LINE
  5
19A
330
1F
100
AcDbEntity
  8
NoLayerName_001
  6
Continuous
 62
     4
370
    50
100
AcDbLine
 10
76.5
 20
62.23020957885965
 30
0.0
 11
76.5
 21
60.23020957885965
 31
0.0
  0
LINE
  5
19B
330
1F
100
AcDbEntity
  8
NoLayerName_001
  6
Continuous
 62
     4
370
    50
100
AcDbLine
 10
77.5
 20
62.23020957885965
 30
0.0
 11
76.5
 21
62.23020957885965
 31
0.0
  0
LINE
  5
19C
330
1F
100
AcDbEntity
  8
NoLayerName_001
  6
Continuous
 62
     4
370
    50
100
AcDbLine
 10
76.5
 20
60.23020957885965
 30
0.0
 11
74.5
 21
60.23020957885965
 31
0.0
  0
LINE
  5
19D
330
1F
100
AcDbEntity
  8
NoLayerName_001
  6
Continuous
 62
     4
370
    50
100
AcDbLine
 10
162.5
 20
59.23020957885965
 30
0.0
 11
50.5
 21
59.23020957885965
 31
0.0
  0
LINE
  5
19E
330
1F
100
AcDbEntity
  8
NoLayerName_001
  6
Continuous
 62
     4
370
    50
100
AcDbLine
 10
47.0
 20
103.2302095788596
 30
0.0
 11
166.0
 21
103.2302095788596
 31
0.0
  0
LINE
  5
19F
330
1F
100
AcDbEntity
  8
NoLayerName_001
  6
Continuous
 62
     4
370
    50
100
AcDbLine
 10
166.0
 20
103.2302095788596
 30
0.0
 11
166.0
 21
62.73020957885964
 31
0.0
  0
LINE
  5
1A0
330
1F
100
AcDbEntity
  8
NoLayerName_001
  6
Continuous
 62
     4
370
    50
100
AcDbLine
 10
162.5
 20
103.2302095788596
 30
0.0
 11
162.5
 21
62.73020957885964
 31
0.0
  0
LINE
  5
1A1
330
1F
100
AcDbEntity
  8
NoLayerName_001
  6
Continuous
 62
     4
370
    50
100
AcDbLine
 10
146.5
 20
100.2302095788596
 30
0.0
 11
146.5
 21
92.23020957885964
 31
0.0
  0
LINE
  5
1A2
330
1F
100
AcDbEntity
  8
NoLayerName_001
  6
Continuous
 62
     4
370
    50
100
AcDbLine
 10
146.5
 20
100.2302095788596
 30
0.0
 11
141.5
 21
100.2302095788596
 31
0.0
  0
LINE
  5
1A3
330
1F
100
AcDbEntity
  8
NoLayerName_001
  6
Continuous
 62
     4
370
    50
100
AcDbLine
 10
146.5
 20
92.23020957885964
 30
0.0
 11
141.5
 21
92.23020957885964
 31
0.0
  0
LINE
  5
1A4
330
1F
100
AcDbEntity
  8
NoLayerName_001
  6
Continuous
 62
     4
370
    50
100
AcDbLine
 10
136.5
 20
100.2302095788596
 30
0.0
 11
136.5
 21
92.23020957885964
 31
0.0
  0
LINE
  5
1A5
330
1F
100
AcDbEntity
  8
NoLayerName_001
  6
Continuous
 62
     4
370
    50
100
AcDbLine
 10
136.5
 20
100.2302095788596
 30
0.0
 11
141.5
 21
100.2302095788596
 31
0.0
  0
LINE
  5
1A6
330
1F
100
AcDbEntity
  8
NoLayerName_001
  6
Continuous
 62
     4
370
    50
100
AcDbLine
 10
136.5
 20
92.23020957885964
 30
0.0
 11
141.5
 21
92.23020957885964
 31
0.0
  0
LINE
  5
1A7
330
1F
100
AcDbEntity
  8
NoLayerName_001
  6
Continuous
 62
     4
370
    50
100
AcDbLine
 10
162.5
 20
62.73020957885965
 30
0.0
 11
50.5
 21
62.73020957885965
 31
0.0
  0
LINE
  5
1A8
330
1F
100
AcDbEntity
  8
NoLayerName_001
  6
Continuous
 62
     4
370
    50
100
AcDbLine
 10
66.5
 20
100.2302095788596
 30
0.0
 11
66.5
 21
92.23020957885964
 31
0.0
  0
LINE
  5
1A9
330
1F
100
AcDbEntity
  8
NoLayerName_001
  6
Continuous
 62
     4
370
    50
100
AcDbLine
 10
66.5
 20
100.2302095788596
 30
0.0
 11
71.5
 21
100.2302095788596
 31
0.0
  0
LINE
  5
1AA
330
1F
100
AcDbEntity
  8
NoLayerName_001
  6
Continuous
 62
     4
370
    50
100
AcDbLine
 10
66.5
 20
92.23020957885964
 30
0.0
 11
71.5
 21
92.23020957885964
 31
0.0
  0
LINE
  5
1AB
330
1F
100
AcDbEntity
  8
NoLayerName_001
  6
Continuous
 62
     4
370
    50
100
AcDbLine
 10
76.5
 20
100.2302095788596
 30
0.0
 11
76.5
 21
92.23020957885964
 31
0.0
  0
LINE
  5
1AC
330
1F
100
AcDbEntity
  8
NoLayerName_001
  6
Continuous
 62
     4
370
    50
100
AcDbLine
 10
76.5
 20
100.2302095788596
 30
0.0
 11
71.5
 21
100.2302095788596
 31
0.0
  0
LINE
  5
1AD
330
1F
100
AcDbEntity
  8
NoLayerName_001
  6
Continuous
 62
     4
370
    50
100
AcDbLine
 10
76.5
 20
92.23020957885964
 30
0.0
 11
71.5
 21
92.23020957885964
 31
0.0
  0
ARC
  5
1AE
330
1F
100
AcDbEntity
  8
NoLayerName_001
  6
Continuous
 62
     4
370
    50
100
AcDbCircle
 10
162.5
 20
62.73020957885965
 30
0.0
 40
3.5
100
AcDbArc
 50
270.0
 51
0.0
  0
LINE
  5
1AF
330
1F
100
AcDbEntity
  8
NoLayerName_001
  6
Continuous
 62
     4
370
    50
100
AcDbLine
 10
47.0
 20
103.2302095788596
 30
0.0
 11
47.0
 21
62.73020957885964
 31
0.0
  0
ARC
  5
1B0
330
1F
100
AcDbEntity
  8
NoLayerName_001
  6
Continuous
 62
     4
370
    50
100
AcDbCircle
 10
50.5
 20
62.73020957885965
 30
0.0
 40
3.5
100
AcDbArc
 50
180.0
 51
270.0
  0
LINE
  5
1B1
330
1F
100
AcDbEntity
  8
NoLayerName_001
  6
Continuous
 62
     4
370
    50
100
AcDbLine
 10
111.5
 20
62.23020957885965
 30
0.0
 11
111.5
 21
59.23020957885965
 31
0.0
  0
LINE
  5
1B2
330
1F
100
AcDbEntity
  8
NoLayerName_001
  6
Continuous
 62
     4
370
    50
100
AcDbLine
 10
110.5
 20
59.23020957885965
 30
0.0
 11
110.5
 21
62.23020957885965
 31
0.0
  0
LINE
  5
1B3
330
1F
100
AcDbEntity
  8
NoLayerName_001
  6
Continuous
 62
     4
370
    50
100
AcDbLine
 10
111.5
 20
62.23020957885965
 30
0.0
 11
110.5
 21
62.23020957885965
 31
0.0
  0
LINE
  5
1B4
330
1F
100
AcDbEntity
  8
NoLayerName_001
  6
Continuous
 62
     4
370
    50
100
AcDbLine
 10
102.5
 20
59.23020957885965
 30
0.0
 11
102.5
 21
62.23020957885965
 31
0.0
  0
LINE
  5
1B5
330
1F
100
AcDbEntity
  8
NoLayerName_001
  6
Continuous
 62
     4
370
    50
100
AcDbLine
 10
47.0
 20
69.73020957885964
 30
0.0
 11
50.5
 21
69.73020957885964
 31
0.0
  0
LINE
  5
1B6
330
1F
100
AcDbEntity
  8
NoLayerName_001
  6
Continuous
 62
     4
370
    50
100
AcDbLine
 10
49.0
 20
80.73020957885964
 30
0.0
 11
49.0
 21
72.73020957885964
 31
0.0
  0
LINE
  5
1B7
330
1F
100
AcDbEntity
  8
NoLayerName_001
  6
Continuous
 62
     4
370
    50
100
AcDbLine
 10
49.0
 20
72.73020957885964
 30
0.0
 11
50.5
 21
69.73020957885964
 31
0.0
  0
LINE
  5
1B8
330
1F
100
AcDbEntity
  8
NoLayerName_001
  6
Continuous
 62
     4
370
    50
100
AcDbLine
 10
47.0
 20
91.73020957885964
 30
0.0
 11
48.7
 21
91.73020957885964
 31
0.0
  0
LINE
  5
1B9
330
1F
100
AcDbEntity
  8
NoLayerName_001
  6
Continuous
 62
     4
370
    50
100
AcDbLine
 10
49.0
 20
80.73020957885964
 30
0.0
 11
49.0
 21
85.53020957885964
 31
0.0
  0
ARC
  5
1BA
330
1F
100
AcDbEntity
  8
NoLayerName_001
  6
Continuous
 62
     4
370
    50
100
AcDbCircle
 10
62.50000000000006
 20
89.23020957885964
 30
0.0
 40
13.0
100
AcDbArc
 50
157.4
 51
202.6
  0
ARC
  5
1BB
330
1F
100
AcDbEntity
  8
NoLayerName_001
  6
Continuous
 62
     4
370
    50
100
AcDbCircle
 10
62.50000000000006
 20
89.33020957885964
 30
0.0
 40
14.0
100
AcDbArc
 50
170.1
 51
195.6999999999999
  0
LINE
  5
1BC
330
1F
100
AcDbEntity
  8
NoLayerName_001
  6
Continuous
 62
     4
370
    50
100
AcDbLine
 10
166.0
 20
69.73020957885964
 30
0.0
 11
162.5
 21
69.73020957885964
 31
0.0
  0
LINE
  5
1BD
330
1F
100
AcDbEntity
  8
NoLayerName_001
  6
Continuous
 62
     4
370
    50
100
AcDbLine
 10
164.0
 20
80.73020957885964
 30
0.0
 11
164.0
 21
72.73020957885964
 31
0.0
  0
LINE
  5
1BE
330
1F
100
AcDbEntity
  8
NoLayerName_001
  6
Continuous
 62
     4
370
    50
100
AcDbLine
 10
164.0
 20
72.73020957885964
 30
0.0
 11
162.5
 21
69.73020957885964
 31
0.0
  0
LINE
  5
1BF
330
1F
100
AcDbEntity
  8
NoLayerName_001
  6
Continuous
 62
     4
370
    50
100
AcDbLine
 10
166.0
 20
91.73020957885964
 30
0.0
 11
164.3
 21
91.73020957885964
 31
0.0
  0
LINE
  5
1C0
330
1F
100
AcDbEntity
  8
NoLayerName_001
  6
Continuous
 62
     4
370
    50
100
AcDbLine
 10
164.0
 20
80.73020957885964
 30
0.0
 11
164.0
 21
85.53020957885964
 31
0.0
  0
ARC
  5
1C1
330
1F
100
AcDbEntity
  8
NoLayerName_001
  6
Continuous
 62
     4
370
    50
100
AcDbCircle
 10
150.5
 20
89.23020957885964
 30
0.0
 40
12.99999999999999
100
AcDbArc
 50
337.3999999999999
 51
22.60000000000007
  0
ARC
  5
1C2
330
1F
100
AcDbEntity
  8
NoLayerName_001
  6
Continuous
 62
     4
370
    50
100
AcDbCircle
 10
150.5
 20
89.33020957885964
 30
0.0
 40
14.00000000000001
100
AcDbArc
 50
344.2999999999999
 51
9.899999999999995
  0
LINE
  5
1C3
330
1F
100
AcDbEntity
  8
NoLayerName_001
  6
Continuous
 62
     4
370
    50
100
AcDbLine
 10
101.5
 20
62.23020957885965
 30
0.0
 11
101.5
 21
59.23020957885965
 31
0.0
  0
LINE
  5
1C4
330
1F
100
AcDbEntity
  8
NoLayerName_001
  6
Continuous
 62
     4
370
    50
100
AcDbLine
 10
102.5
 20
62.23020957885965
 30
0.0
 11
101.5
 21
62.23020957885965
 31
0.0
  0
LINE
  5
1C5
330
1F
100
AcDbEntity
  8
NoLayerName_001
  6
Continuous
 62
     4
370
    50
100
AcDbLine
 10
50.5
 20
62.73020957885965
 30
0.0
 11
50.5
 21
103.2302095788596
 31
0.0
  0
LINE
  5
1C6
330
1F
100
AcDbEntity
  8
NoLayerName_001
  6
Continuous
 62
     4
370
    50
100
AcDbLine
 10
141.5
 20
102.8302095788596
 30
0.0
 11
140.3
 21
102.8302095788596
 31
0.0
  0
ARC
  5
1C7
330
1F
100
AcDbEntity
  8
NoLayerName_001
  6
Continuous
 62
     4
370
    50
100
AcDbCircle
 10
140.3000000000001
 20
100.5302095788597
 30
0.0
 40
2.300000000000011
100
AcDbArc
 50
90.0
 51
180.0
  0
LINE
  5
1C8
330
1F
100
AcDbEntity
  8
NoLayerName_001
  6
Continuous
 62
     4
370
    50
100
AcDbLine
 10
140.8000000000001
 20
102.8302095788596
 30
0.0
 11
140.8000000000001
 21
101.8302095788596
 31
0.0
  0
LINE
  5
1C9
330
1F
100
AcDbEntity
  8
NoLayerName_001
  6
Continuous
 62
     4
370
    50
100
AcDbLine
 10
140.8000000000001
 20
101.8302095788596
 30
0.0
 11
141.5000000000001
 21
101.8302095788596
 31
0.0
  0
LINE
  5
1CA
330
1F
100
AcDbEntity
  8
NoLayerName_001
  6
Continuous
 62
     4
370
    50
100
AcDbLine
 10
141.5
 20
102.8302095788596
 30
0.0
 11
142.7
 21
102.8302095788596
 31
0.0
  0
LINE
  5
1CB
330
1F
100
AcDbEntity
  8
NoLayerName_001
  6
Continuous
 62
     4
370
    50
100
AcDbLine
 10
145.0
 20
100.5302095788597
 30
0.0
 11
145.0
 21
100.2302095788597
 31
0.0
  0
ARC
  5
1CC
330
1F
100
AcDbEntity
  8
NoLayerName_001
  6
Continuous
 62
     4
370
    50
100
AcDbCircle
 10
142.7
 20
100.5302095788597
 30
0.0
 40
2.299999999999997
100
AcDbArc
 50
0.0
 51
90.0
  0
LINE
  5
1CD
330
1F
100
AcDbEntity
  8
NoLayerName_001
  6
Continuous
 62
     4
370
    50
100
AcDbLine
 10
142.2
 20
102.8302095788596
 30
0.0
 11
142.2
 21
101.8302095788596
 31
0.0
  0
LINE
  5
1CE
330
1F
100
AcDbEntity
  8
NoLayerName_001
  6
Continuous
 62
     4
370
    50
100
AcDbLine
 10
142.2
 20
101.8302095788596
 30
0.0
 11
141.5
 21
101.8302095788596
 31
0.0
  0
LINE
  5
1CF
330
1F
100
AcDbEntity
  8
NoLayerName_001
  6
Continuous
 62
     4
370
    50
100
AcDbLine
 10
63.0
 20
251.2208223555231
 30
0.0
 11
70.0
 21
251.2208223555231
 31
0.0
  0
LINE
  5
1D0
330
1F
100
AcDbEntity
  8
NoLayerName_001
  6
Continuous
 62
     4
370
    50
100
AcDbLine
 10
63.0
 20
251.2208223555231
 30
0.0
 11
63.0
 21
249.2208223555231
 31
0.0
  0
LINE
  5
1D1
330
1F
100
AcDbEntity
  8
NoLayerName_001
  6
Continuous
 62
     4
370
    50
100
AcDbLine
 10
70.0
 20
251.2208223555231
 30
0.0
 11
70.0
 21
249.2208223555231
 31
0.0
  0
LINE
  5
1D2
330
1F
100
AcDbEntity
  8
NoLayerName_001
  6
Continuous
 62
     4
370
    50
100
AcDbLine
 10
150.0
 20
251.2208223555231
 30
0.0
 11
150.0
 21
249.2208223555231
 31
0.0
  0
LINE
  5
1D3
330
1F
100
AcDbEntity
  8
NoLayerName_001
  6
Continuous
 62
     4
370
    50
100
AcDbLine
 10
150.0
 20
251.2208223555231
 30
0.0
 11
143.0
 21
251.2208223555231
 31
0.0
  0
LINE
  5
1D4
330
1F
100
AcDbEntity
  8
NoLayerName_001
  6
Continuous
 62
     4
370
    50
100
AcDbLine
 10
143.0
 20
251.2208223555231
 30
0.0
 11
143.0
 21
249.2208223555231
 31
0.0
  0
LINE
  5
1D5
330
1F
100
AcDbEntity
  8
NoLayerName_001
  6
Continuous
 62
     4
370
    50
100
AcDbLine
 10
143.0
 20
128.2208223555231
 30
0.0
 11
143.0
 21
130.2208223555231
 31
0.0
  0
LINE
  5
1D6
330
1F
100
AcDbEntity
  8
NoLayerName_001
  6
Continuous
 62
     4
370
    50
100
AcDbLine
 10
150.0
 20
128.2208223555231
 30
0.0
 11
150.0
 21
130.2208223555231
 31
0.0
  0
LINE
  5
1D7
330
1F
100
AcDbEntity
  8
NoLayerName_001
  6
Continuous
 62
     4
370
    50
100
AcDbLine
 10
150.0
 20
128.2208223555231
 30
0.0
 11
143.0
 21
128.2208223555231
 31
0.0
  0
LINE
  5
1D8
330
1F
100
AcDbEntity
  8
NoLayerName_001
  6
Continuous
 62
     4
370
    50
100
AcDbLine
 10
63.0
 20
128.2208223555231
 30
0.0
 11
70.0
 21
128.2208223555231
 31
0.0
  0
LINE
  5
1D9
330
1F
100
AcDbEntity
  8
NoLayerName_001
  6
Continuous
 62
     4
370
    50
100
AcDbLine
 10
63.0
 20
128.2208223555231
 30
0.0
 11
63.0
 21
130.2208223555231
 31
0.0
  0
LINE
  5
1DA
330
1F
100
AcDbEntity
  8
NoLayerName_001
  6
Continuous
 62
     4
370
    50
100
AcDbLine
 10
70.0
 20
128.2208223555231
 30
0.0
 11
70.0
 21
130.2208223555231
 31
0.0
  0
LINE
  5
1DB
330
1F
100
AcDbEntity
  8
NoLayerName_001
  6
Continuous
 62
     4
370
    50
100
AcDbLine
 10
45.0
 20
146.2208223555231
 30
0.0
 11
47.0
 21
146.2208223555231
 31
0.0
  0
LINE
  5
1DC
330
1F
100
AcDbEntity
  8
NoLayerName_001
  6
Continuous
 62
     4
370
    50
100
AcDbLine
 10
45.0
 20
153.2208223555231
 30
0.0
 11
47.0
 21
153.2208223555231
 31
0.0
  0
LINE
  5
1DD
330
1F
100
AcDbEntity
  8
NoLayerName_001
  6
Continuous
 62
     4
370
    50
100
AcDbLine
 10
45.0
 20
153.2208223555231
 30
0.0
 11
45.0
 21
146.2208223555231
 31
0.0
  0
LINE
  5
1DE
330
1F
100
AcDbEntity
  8
NoLayerName_001
  6
Continuous
 62
     4
370
    50
100
AcDbLine
 10
45.0
 20
233.2208223555231
 30
0.0
 11
47.0
 21
233.2208223555231
 31
0.0
  0
LINE
  5
1DF
330
1F
100
AcDbEntity
  8
NoLayerName_001
  6
Continuous
 62
     4
370
    50
100
AcDbLine
 10
45.0
 20
226.2208223555231
 30
0.0
 11
47.0
 21
226.2208223555231
 31
0.0
  0
LINE
  5
1E0
330
1F
100
AcDbEntity
  8
NoLayerName_001
  6
Continuous
 62
     4
370
    50
100
AcDbLine
 10
45.0
 20
226.2208223555231
 30
0.0
 11
45.0
 21
233.2208223555231
 31
0.0
  0
LINE
  5
1E1
330
1F
100
AcDbEntity
  8
NoLayerName_001
  6
Continuous
 62
     4
370
    50
100
AcDbLine
 10
168.0
 20
233.2208223555231
 30
0.0
 11
166.0
 21
233.2208223555231
 31
0.0
  0
LINE
  5
1E2
330
1F
100
AcDbEntity
  8
NoLayerName_001
  6
Continuous
 62
     4
370
    50
100
AcDbLine
 10
168.0
 20
226.2208223555231
 30
0.0
 11
166.0
 21
226.2208223555231
 31
0.0
  0
LINE
  5
1E3
330
1F
100
AcDbEntity
  8
NoLayerName_001
  6
Continuous
 62
     4
370
    50
100
AcDbLine
 10
168.0
 20
226.2208223555231
 30
0.0
 11
168.0
 21
233.2208223555231
 31
0.0
  0
LINE
  5
1E4
330
1F
100
AcDbEntity
  8
NoLayerName_001
  6
Continuous
 62
     4
370
    50
100
AcDbLine
 10
168.0
 20
153.2208223555231
 30
0.0
 11
166.0
 21
153.2208223555231
 31
0.0
  0
LINE
  5
1E5
330
1F
100
AcDbEntity
  8
NoLayerName_001
  6
Continuous
 62
     4
370
    50
100
AcDbLine
 10
168.0
 20
146.2208223555231
 30
0.0
 11
166.0
 21
146.2208223555231
 31
0.0
  0
LINE
  5
1E6
330
1F
100
AcDbEntity
  8
NoLayerName_001
  6
Continuous
 62
     4
370
    50
100
AcDbLine
 10
168.0
 20
153.2208223555231
 30
0.0
 11
168.0
 21
146.2208223555231
 31
0.0
  0
LINE
  5
1E7
330
1F
100
AcDbEntity
  8
NoLayerName_001
  6
Continuous
 62
     4
370
    50
100
AcDbLine
 10
68.0
 20
100.3302095788596
 30
0.0
 11
68.0
 21
100.2302095788596
 31
0.0
  0
LINE
  5
1E8
330
1F
100
AcDbEntity
  8
NoLayerName_001
  6
Continuous
 62
     4
370
    50
100
AcDbLine
 10
138.0
 20
100.5302095788597
 30
0.0
 11
138.0
 21
100.2302095788597
 31
0.0
  0
LINE
  5
1E9
330
1F
100
AcDbEntity
  8
NoLayerName_001
  6
Continuous
 62
     4
370
    50
100
AcDbLine
 10
146.5
 20
245.7208223555231
 30
0.0
 11
146.5
 21
242.2208223555231
 31
0.0
  0
LINE
  5
1EA
330
1F
100
AcDbEntity
  8
NoLayerName_001
  6
Continuous
 62
     4
370
    50
100
AcDbLine
 10
136.5
 20
245.7208223555231
 30
0.0
 11
136.5
 21
242.2208223555231
 31
0.0
  0
LINE
  5
1EB
330
1F
100
AcDbEntity
  8
NoLayerName_001
  6
Continuous
 62
     4
370
    50
100
AcDbLine
 10
76.5
 20
245.7208223555231
 30
0.0
 11
76.5
 21
242.2208223555231
 31
0.0
  0
LINE
  5
1EC
330
1F
100
AcDbEntity
  8
NoLayerName_001
  6
Continuous
 62
     4
370
    50
100
AcDbLine
 10
66.5
 20
245.7208223555231
 30
0.0
 11
66.5
 21
242.2208223555231
 31
0.0
  0
LINE
  5
1ED
330
1F
100
AcDbEntity
  8
NoLayerName_001
  6
Continuous
 62
     4
370
    50
100
AcDbLine
 10
66.5
 20
133.7208223555231
 30
0.0
 11
66.5
 21
137.2208223555231
 31
0.0
  0
LINE
  5
1EE
330
1F
100
AcDbEntity
  8
NoLayerName_001
  6
Continuous
 62
     4
370
    50
100
AcDbLine
 10
76.5
 20
133.7208223555231
 30
0.0
 11
76.5
 21
137.2208223555231
 31
0.0
  0
LINE
  5
1EF
330
1F
100
AcDbEntity
  8
NoLayerName_001
  6
Continuous
 62
     4
370
    50
100
AcDbLine
 10
136.5
 20
133.7208223555231
 30
0.0
 11
136.5
 21
137.2208223555231
 31
0.0
  0
LINE
  5
1F0
330
1F
100
AcDbEntity
  8
NoLayerName_001
  6
Continuous
 62
     4
370
    50
100
AcDbLine
 10
146.5
 20
133.7208223555231
 30
0.0
 11
146.5
 21
137.2208223555231
 31
0.0
  0
ARC
  5
1F1
330
1F
100
AcDbEntity
  8
NoLayerName_001
  6
Continuous
 62
     4
370
    50
100
AcDbCircle
 10
54.5
 20
137.7208223555231
 30
0.0
 40
4.0
100
AcDbArc
 50
180.0
 51
270.0
  0
ARC
  5
1F2
330
1F
100
AcDbEntity
  8
NoLayerName_001
  6
Continuous
 62
     4
370
    50
100
AcDbCircle
 10
158.5
 20
137.7208223555231
 30
0.0
 40
4.0
100
AcDbArc
 50
270.0
 51
0.0
  0
ARC
  5
1F3
330
1F
100
AcDbEntity
  8
NoLayerName_001
  6
Continuous
 62
     4
370
    50
100
AcDbCircle
 10
158.5
 20
241.7208223555231
 30
0.0
 40
4.0
100
AcDbArc
 50
0.0
 51
90.0
  0
ARC
  5
1F4
330
1F
100
AcDbEntity
  8
NoLayerName_001
  6
Continuous
 62
     4
370
    50
100
AcDbCircle
 10
54.5
 20
241.7208223555231
 30
0.0
 40
4.0
100
AcDbArc
 50
90.0
 51
180.0
  0
CIRCLE
  5
1F5
330
1F
100
AcDbEntity
  8
NoLayerName_002
  6
DOTSX
 62
    21
370
    25
100
AcDbCircle
 10
79.0
 20
217.2208223555231
 30
0.0
 40
13.5
  0
CIRCLE
  5
1F6
330
1F
100
AcDbEntity
  8
NoLayerName_002
  6
DOTSX
 62
    21
370
    25
100
AcDbCircle
 10
125.5
 20
189.7208223555231
 30
0.0
 40
3.0
  0
CIRCLE
  5
1F7
330
1F
100
AcDbEntity
  8
NoLayerName_002
  6
DOTSX
 62
    21
370
    25
100
AcDbCircle
 10
125.5
 20
189.7208223555231
 30
0.0
 40
2.0
  0
CIRCLE
  5
1F8
330
1F
100
AcDbEntity
  8
NoLayerName_002
  6
DOTSX
 62
    21
370
    25
100
AcDbCircle
 10
138.5
 20
189.7208223555231
 30
0.0
 40
3.0
  0
CIRCLE
  5
1F9
330
1F
100
AcDbEntity
  8
NoLayerName_002
  6
DOTSX
 62
    21
370
    25
100
AcDbCircle
 10
138.5
 20
189.7208223555231
 30
0.0
 40
2.0
  0
CIRCLE
  5
1FA
330
1F
100
AcDbEntity
  8
NoLayerName_002
  6
DOTSX
 62
    21
370
    25
100
AcDbCircle
 10
87.5
 20
189.7208223555231
 30
0.0
 40
3.0
  0
CIRCLE
  5
1FB
330
1F
100
AcDbEntity
  8
NoLayerName_002
  6
DOTSX
 62
    21
370
    25
100
AcDbCircle
 10
87.5
 20
189.7208223555231
 30
0.0
 40
2.0
  0
CIRCLE
  5
1FC
330
1F
100
AcDbEntity
  8
NoLayerName_002
  6
DOTSX
 62
    21
370
    25
100
AcDbCircle
 10
74.5
 20
189.7208223555231
 30
0.0
 40
3.0
  0
CIRCLE
  5
1FD
330
1F
100
AcDbEntity
  8
NoLayerName_002
  6
DOTSX
 62
    21
370
    25
100
AcDbCircle
 10
74.5
 20
189.7208223555231
 30
0.0
 40
2.0
  0
CIRCLE
  5
1FE
330
1F
100
AcDbEntity
  8
NoLayerName_002
  6
DOTSX
 62
    21
370
    25
100
AcDbCircle
 10
106.5
 20
208.7208223555231
 30
0.0
 40
3.0
  0
CIRCLE
  5
1FF
330
1F
100
AcDbEntity
  8
NoLayerName_002
  6
DOTSX
 62
    21
370
    25
100
AcDbCircle
 10
106.5
 20
208.7208223555231
 30
0.0
 40
2.0
  0
CIRCLE
  5
200
330
1F
100
AcDbEntity
  8
NoLayerName_002
  6
DOTSX
 62
    21
370
    25
100
AcDbCircle
 10
106.5
 20
170.7208223555231
 30
0.0
 40
3.0
  0
CIRCLE
  5
201
330
1F
100
AcDbEntity
  8
NoLayerName_002
  6
DOTSX
 62
    21
370
    25
100
AcDbCircle
 10
106.5
 20
170.7208223555231
 30
0.0
 40
2.0
  0
CIRCLE
  5
202
330
1F
100
AcDbEntity
  8
NoLayerName_002
  6
DOTSX
 62
    21
370
    25
100
AcDbCircle
 10
79.0
 20
162.2208223555231
 30
0.0
 40
13.5
  0
CIRCLE
  5
203
330
1F
100
AcDbEntity
  8
NoLayerName_002
  6
DOTSX
 62
    21
370
    25
100
AcDbCircle
 10
134.0
 20
162.2208223555231
 30
0.0
 40
13.5
  0
CIRCLE
  5
204
330
1F
100
AcDbEntity
  8
NoLayerName_002
  6
DOTSX
 62
    21
370
    25
100
AcDbCircle
 10
134.0
 20
217.2208223555231
 30
0.0
 40
13.5
  0
CIRCLE
  5
205
330
1F
100
AcDbEntity
  8
NoLayerName_002
  6
DOTSX
 62
    21
370
    25
100
AcDbCircle
 10
106.5
 20
189.7208223555231
 30
0.0
 40
4.0
  0
CIRCLE
  5
206
330
1F
100
AcDbEntity
  8
NoLayerName_002
  6
DOTSX
 62
    21
370
    25
100
AcDbCircle
 10
106.5
 20
189.7208223555231
 30
0.0
 40
5.0
  0
LINE
  5
207
330
1F
100
AcDbEntity
  8
NoLayerName_002
  6
CENTER
 62
    21
370
    25
100
AcDbLine
 10
106.5
 20
106.1302095788596
 30
0.0
 11
106.5
 21
57.63020957885964
 31
0.0
  0
CIRCLE
  5
208
330
1F
100
AcDbEntity
  8
NoLayerName_002
  6
DOTSX
 62
    21
370
    25
100
AcDbCircle
 10
131.5
 20
78.23020957885964
 30
0.0
 40
11.0
  0
CIRCLE
  5
209
330
1F
100
AcDbEntity
  8
NoLayerName_002
  6
DOTSX
 62
    21
370
    25
100
AcDbCircle
 10
90.0
 20
80.73020957885964
 30
0.0
 40
13.5
  0
LINE
  5
20A
330
1F
100
AcDbEntity
  8
NoLayerName_002
  6
DOTSX
 62
    21
370
    25
100
AcDbLine
 10
166.0
 20
137.7208223555231
 30
0.0
 11
162.5
 21
137.7208223555231
 31
0.0
  0
LINE
  5
20B
330
1F
100
AcDbEntity
  8
NoLayerName_002
  6
DOTSX
 62
    21
370
    25
100
AcDbLine
 10
164.0
 20
151.2208223555231
 30
0.0
 11
164.0
 21
140.7208223555231
 31
0.0
  0
LINE
  5
20C
330
1F
100
AcDbEntity
  8
NoLayerName_002
  6
DOTSX
 62
    21
370
    25
100
AcDbLine
 10
162.5
 20
137.7208223555231
 30
0.0
 11
164.0
 21
140.7208223555231
 31
0.0
  0
LINE
  5
20D
330
1F
100
AcDbEntity
  8
NoLayerName_002
  6
DOTSX
 62
    21
370
    25
100
AcDbLine
 10
166.0
 20
164.7208223555231
 30
0.0
 11
162.5
 21
164.7208223555231
 31
0.0
  0
LINE
  5
20E
330
1F
100
AcDbEntity
  8
NoLayerName_002
  6
DOTSX
 62
    21
370
    25
100
AcDbLine
 10
164.0
 20
151.2208223555231
 30
0.0
 11
164.0
 21
161.7208223555231
 31
0.0
  0
LINE
  5
20F
330
1F
100
AcDbEntity
  8
NoLayerName_002
  6
DOTSX
 62
    21
370
    25
100
AcDbLine
 10
162.5
 20
164.7208223555231
 30
0.0
 11
164.0
 21
161.7208223555231
 31
0.0
  0
LINE
  5
210
330
1F
100
AcDbEntity
  8
NoLayerName_002
  6
DOTSX
 62
    21
370
    25
100
AcDbLine
 10
166.0
 20
241.7208223555231
 30
0.0
 11
162.5
 21
241.7208223555231
 31
0.0
  0
LINE
  5
211
330
1F
100
AcDbEntity
  8
NoLayerName_002
  6
DOTSX
 62
    21
370
    25
100
AcDbLine
 10
164.0
 20
228.2208223555231
 30
0.0
 11
164.0
 21
238.7208223555231
 31
0.0
  0
LINE
  5
212
330
1F
100
AcDbEntity
  8
NoLayerName_002
  6
DOTSX
 62
    21
370
    25
100
AcDbLine
 10
162.5
 20
241.7208223555231
 30
0.0
 11
164.0
 21
238.7208223555231
 31
0.0
  0
LINE
  5
213
330
1F
100
AcDbEntity
  8
NoLayerName_002
  6
DOTSX
 62
    21
370
    25
100
AcDbLine
 10
166.0
 20
214.7208223555231
 30
0.0
 11
162.5
 21
214.7208223555231
 31
0.0
  0
LINE
  5
214
330
1F
100
AcDbEntity
  8
NoLayerName_002
  6
DOTSX
 62
    21
370
    25
100
AcDbLine
 10
164.0
 20
228.2208223555231
 30
0.0
 11
164.0
 21
217.7208223555231
 31
0.0
  0
LINE
  5
215
330
1F
100
AcDbEntity
  8
NoLayerName_002
  6
DOTSX
 62
    21
370
    25
100
AcDbLine
 10
162.5
 20
214.7208223555231
 30
0.0
 11
164.0
 21
217.7208223555231
 31
0.0
  0
LINE
  5
216
330
1F
100
AcDbEntity
  8
NoLayerName_002
  6
DOTSX
 62
    21
370
    25
100
AcDbLine
 10
166.0
 20
178.7208223555231
 30
0.0
 11
162.5
 21
178.7208223555231
 31
0.0
  0
LINE
  5
217
330
1F
100
AcDbEntity
  8
NoLayerName_002
  6
DOTSX
 62
    21
370
    25
100
AcDbLine
 10
164.0
 20
189.7208223555231
 30
0.0
 11
164.0
 21
181.7208223555231
 31
0.0
  0
LINE
  5
218
330
1F
100
AcDbEntity
  8
NoLayerName_002
  6
DOTSX
 62
    21
370
    25
100
AcDbLine
 10
164.0
 20
181.7208223555231
 30
0.0
 11
162.5
 21
178.7208223555231
 31
0.0
  0
LINE
  5
219
330
1F
100
AcDbEntity
  8
NoLayerName_002
  6
DOTSX
 62
    21
370
    25
100
AcDbLine
 10
166.0
 20
200.7208223555231
 30
0.0
 11
162.5
 21
200.7208223555231
 31
0.0
  0
LINE
  5
21A
330
1F
100
AcDbEntity
  8
NoLayerName_002
  6
DOTSX
 62
    21
370
    25
100
AcDbLine
 10
164.0
 20
189.7208223555231
 30
0.0
 11
164.0
 21
197.7208223555231
 31
0.0
  0
LINE
  5
21B
330
1F
100
AcDbEntity
  8
NoLayerName_002
  6
DOTSX
 62
    21
370
    25
100
AcDbLine
 10
164.0
 20
197.7208223555231
 30
0.0
 11
162.5
 21
200.7208223555231
 31
0.0
  0
LINE
  5
21C
330
1F
100
AcDbEntity
  8
NoLayerName_002
  6
DOTSX
 62
    21
370
    25
100
AcDbLine
 10
47.0
 20
137.7208223555231
 30
0.0
 11
50.5
 21
137.7208223555231
 31
0.0
  0
LINE
  5
21D
330
1F
100
AcDbEntity
  8
NoLayerName_002
  6
DOTSX
 62
    21
370
    25
100
AcDbLine
 10
49.00000000000003
 20
151.2208223555231
 30
0.0
 11
49.00000000000003
 21
140.7208223555231
 31
0.0
  0
LINE
  5
21E
330
1F
100
AcDbEntity
  8
NoLayerName_002
  6
DOTSX
 62
    21
370
    25
100
AcDbLine
 10
50.50000000000003
 20
137.7208223555231
 30
0.0
 11
49.00000000000003
 21
140.7208223555231
 31
0.0
  0
LINE
  5
21F
330
1F
100
AcDbEntity
  8
NoLayerName_002
  6
DOTSX
 62
    21
370
    25
100
AcDbLine
 10
47.0
 20
164.7208223555231
 30
0.0
 11
50.5
 21
164.7208223555231
 31
0.0
  0
LINE
  5
220
330
1F
100
AcDbEntity
  8
NoLayerName_002
  6
DOTSX
 62
    21
370
    25
100
AcDbLine
 10
49.00000000000003
 20
151.2208223555231
 30
0.0
 11
49.00000000000003
 21
161.7208223555231
 31
0.0
  0
LINE
  5
221
330
1F
100
AcDbEntity
  8
NoLayerName_002
  6
DOTSX
 62
    21
370
    25
100
AcDbLine
 10
50.50000000000003
 20
164.7208223555231
 30
0.0
 11
49.00000000000003
 21
161.7208223555231
 31
0.0
  0
LINE
  5
222
330
1F
100
AcDbEntity
  8
NoLayerName_002
  6
DOTSX
 62
    21
370
    25
100
AcDbLine
 10
47.0
 20
241.7208223555231
 30
0.0
 11
50.5
 21
241.7208223555231
 31
0.0
  0
LINE
  5
223
330
1F
100
AcDbEntity
  8
NoLayerName_002
  6
DOTSX
 62
    21
370
    25
100
AcDbLine
 10
49.00000000000003
 20
228.2208223555231
 30
0.0
 11
49.00000000000003
 21
238.7208223555231
 31
0.0
  0
LINE
  5
224
330
1F
100
AcDbEntity
  8
NoLayerName_002
  6
DOTSX
 62
    21
370
    25
100
AcDbLine
 10
50.50000000000003
 20
241.7208223555231
 30
0.0
 11
49.00000000000003
 21
238.7208223555231
 31
0.0
  0
LINE
  5
225
330
1F
100
AcDbEntity
  8
NoLayerName_002
  6
DOTSX
 62
    21
370
    25
100
AcDbLine
 10
47.0
 20
214.7208223555231
 30
0.0
 11
50.5
 21
214.7208223555231
 31
0.0
  0
LINE
  5
226
330
1F
100
AcDbEntity
  8
NoLayerName_002
  6
DOTSX
 62
    21
370
    25
100
AcDbLine
 10
49.00000000000003
 20
228.2208223555231
 30
0.0
 11
49.00000000000003
 21
217.7208223555231
 31
0.0
  0
LINE
  5
227
330
1F
100
AcDbEntity
  8
NoLayerName_002
  6
DOTSX
 62
    21
370
    25
100
AcDbLine
 10
50.50000000000003
 20
214.7208223555231
 30
0.0
 11
49.00000000000003
 21
217.7208223555231
 31
0.0
  0
LINE
  5
228
330
1F
100
AcDbEntity
  8
NoLayerName_002
  6
DOTSX
 62
    21
370
    25
100
AcDbLine
 10
47.0
 20
178.7208223555231
 30
0.0
 11
50.5
 21
178.7208223555231
 31
0.0
  0
LINE
  5
229
330
1F
100
AcDbEntity
  8
NoLayerName_002
  6
DOTSX
 62
    21
370
    25
100
AcDbLine
 10
49.00000000000003
 20
189.7208223555231
 30
0.0
 11
49.00000000000003
 21
181.7208223555231
 31
0.0
  0
LINE
  5
22A
330
1F
100
AcDbEntity
  8
NoLayerName_002
  6
DOTSX
 62
    21
370
    25
100
AcDbLine
 10
49.00000000000003
 20
181.7208223555231
 30
0.0
 11
50.50000000000003
 21
178.7208223555231
 31
0.0
  0
LINE
  5
22B
330
1F
100
AcDbEntity
  8
NoLayerName_002
  6
DOTSX
 62
    21
370
    25
100
AcDbLine
 10
47.0
 20
200.7208223555231
 30
0.0
 11
50.5
 21
200.7208223555231
 31
0.0
  0
LINE
  5
22C
330
1F
100
AcDbEntity
  8
NoLayerName_002
  6
DOTSX
 62
    21
370
    25
100
AcDbLine
 10
49.00000000000003
 20
189.7208223555231
 30
0.0
 11
49.00000000000003
 21
197.7208223555231
 31
0.0
  0
LINE
  5
22D
330
1F
100
AcDbEntity
  8
NoLayerName_002
  6
DOTSX
 62
    21
370
    25
100
AcDbLine
 10
49.00000000000003
 20
197.7208223555231
 30
0.0
 11
50.50000000000003
 21
200.7208223555231
 31
0.0
  0
LINE
  5
22E
330
1F
100
AcDbEntity
  8
NoLayerName_002
  6
DOTSX
 62
    21
370
    25
100
AcDbLine
 10
120.5
 20
245.7208223555231
 30
0.0
 11
120.5
 21
249.2208223555231
 31
0.0
  0
LINE
  5
22F
330
1F
100
AcDbEntity
  8
NoLayerName_002
  6
DOTSX
 62
    21
370
    25
100
AcDbLine
 10
131.5
 20
247.2208223555231
 30
0.0
 11
123.5
 21
247.2208223555231
 31
0.0
  0
LINE
  5
230
330
1F
100
AcDbEntity
  8
NoLayerName_002
  6
DOTSX
 62
    21
370
    25
100
AcDbLine
 10
120.5
 20
245.7208223555231
 30
0.0
 11
123.5
 21
247.2208223555231
 31
0.0
  0
LINE
  5
231
330
1F
100
AcDbEntity
  8
NoLayerName_002
  6
DOTSX
 62
    21
370
    25
100
AcDbLine
 10
142.5
 20
245.7208223555231
 30
0.0
 11
142.5
 21
249.2208223555231
 31
0.0
  0
LINE
  5
232
330
1F
100
AcDbEntity
  8
NoLayerName_002
  6
DOTSX
 62
    21
370
    25
100
AcDbLine
 10
131.5
 20
247.2208223555231
 30
0.0
 11
139.5
 21
247.2208223555231
 31
0.0
  0
LINE
  5
233
330
1F
100
AcDbEntity
  8
NoLayerName_002
  6
DOTSX
 62
    21
370
    25
100
AcDbLine
 10
142.5
 20
245.7208223555231
 30
0.0
 11
139.5
 21
247.2208223555231
 31
0.0
  0
LINE
  5
234
330
1F
100
AcDbEntity
  8
NoLayerName_002
  6
DOTSX
 62
    21
370
    25
100
AcDbLine
 10
103.5
 20
245.8208223555231
 30
0.0
 11
103.5
 21
249.2208223555231
 31
0.0
  0
LINE
  5
235
330
1F
100
AcDbEntity
  8
NoLayerName_002
  6
DOTSX
 62
    21
370
    25
100
AcDbLine
 10
100.5
 20
247.2208223555231
 30
0.0
 11
90.0
 21
247.2208223555231
 31
0.0
  0
LINE
  5
236
330
1F
100
AcDbEntity
  8
NoLayerName_002
  6
DOTSX
 62
    21
370
    25
100
AcDbLine
 10
103.5
 20
245.8208223555231
 30
0.0
 11
100.5
 21
247.2208223555231
 31
0.0
  0
LINE
  5
237
330
1F
100
AcDbEntity
  8
NoLayerName_002
  6
DOTSX
 62
    21
370
    25
100
AcDbLine
 10
76.5
 20
245.8208223555231
 30
0.0
 11
76.5
 21
249.2208223555231
 31
0.0
  0
LINE
  5
238
330
1F
100
AcDbEntity
  8
NoLayerName_002
  6
DOTSX
 62
    21
370
    25
100
AcDbLine
 10
79.5
 20
247.2208223555231
 30
0.0
 11
90.0
 21
247.2208223555231
 31
0.0
  0
LINE
  5
239
330
1F
100
AcDbEntity
  8
NoLayerName_002
  6
DOTSX
 62
    21
370
    25
100
AcDbLine
 10
76.5
 20
245.8208223555231
 30
0.0
 11
79.5
 21
247.2208223555231
 31
0.0
  0
LINE
  5
23A
330
1F
100
AcDbEntity
  8
NoLayerName_002
  6
DOTSX
 62
    21
370
    25
100
AcDbLine
 10
164.5
 20
189.7208223555231
 30
0.0
 11
164.5
 21
192.2208223555231
 31
0.0
  0
LINE
  5
23B
330
1F
100
AcDbEntity
  8
NoLayerName_002
  6
DOTSX
 62
    21
370
    25
100
AcDbLine
 10
164.0
 20
192.2208223555231
 30
0.0
 11
164.5
 21
192.2208223555231
 31
0.0
  0
LINE
  5
23C
330
1F
100
AcDbEntity
  8
NoLayerName_002
  6
DOTSX
 62
    21
370
    25
100
AcDbLine
 10
164.5
 20
189.7208223555231
 30
0.0
 11
164.5
 21
187.2208223555231
 31
0.0
  0
LINE
  5
23D
330
1F
100
AcDbEntity
  8
NoLayerName_002
  6
DOTSX
 62
    21
370
    25
100
AcDbLine
 10
164.0
 20
187.2208223555231
 30
0.0
 11
164.5
 21
187.2208223555231
 31
0.0
  0
LINE
  5
23E
330
1F
100
AcDbEntity
  8
NoLayerName_002
  6
DOTSX
 62
    21
370
    25
100
AcDbLine
 10
48.50000000000003
 20
189.7208223555231
 30
0.0
 11
48.50000000000003
 21
192.2208223555231
 31
0.0
  0
LINE
  5
23F
330
1F
100
AcDbEntity
  8
NoLayerName_002
  6
DOTSX
 62
    21
370
    25
100
AcDbLine
 10
49.00000000000003
 20
192.2208223555231
 30
0.0
 11
48.50000000000003
 21
192.2208223555231
 31
0.0
  0
LINE
  5
240
330
1F
100
AcDbEntity
  8
NoLayerName_002
  6
DOTSX
 62
    21
370
    25
100
AcDbLine
 10
48.50000000000003
 20
189.7208223555231
 30
0.0
 11
48.50000000000003
 21
187.2208223555231
 31
0.0
  0
LINE
  5
241
330
1F
100
AcDbEntity
  8
NoLayerName_002
  6
DOTSX
 62
    21
370
    25
100
AcDbLine
 10
49.00000000000003
 20
187.2208223555231
 30
0.0
 11
48.50000000000003
 21
187.2208223555231
 31
0.0
  0
LINE
  5
242
330
1F
100
AcDbEntity
  8
NoLayerName_002
  6
DOTSX
 62
    21
370
    25
100
AcDbLine
 10
120.5
 20
133.7208223555231
 30
0.0
 11
120.5
 21
130.2208223555231
 31
0.0
  0
LINE
  5
243
330
1F
100
AcDbEntity
  8
NoLayerName_002
  6
DOTSX
 62
    21
370
    25
100
AcDbLine
 10
131.5
 20
132.2208223555231
 30
0.0
 11
123.5
 21
132.2208223555231
 31
0.0
  0
LINE
  5
244
330
1F
100
AcDbEntity
  8
NoLayerName_002
  6
DOTSX
 62
    21
370
    25
100
AcDbLine
 10
120.5
 20
133.7208223555231
 30
0.0
 11
123.5
 21
132.2208223555231
 31
0.0
  0
LINE
  5
245
330
1F
100
AcDbEntity
  8
NoLayerName_002
  6
DOTSX
 62
    21
370
    25
100
AcDbLine
 10
142.5
 20
133.7208223555231
 30
0.0
 11
142.5
 21
130.2208223555231
 31
0.0
  0
LINE
  5
246
330
1F
100
AcDbEntity
  8
NoLayerName_002
  6
DOTSX
 62
    21
370
    25
100
AcDbLine
 10
131.5
 20
132.2208223555231
 30
0.0
 11
139.5
 21
132.2208223555231
 31
0.0
  0
LINE
  5
247
330
1F
100
AcDbEntity
  8
NoLayerName_002
  6
DOTSX
 62
    21
370
    25
100
AcDbLine
 10
142.5
 20
133.7208223555231
 30
0.0
 11
139.5
 21
132.2208223555231
 31
0.0
  0
LINE
  5
248
330
1F
100
AcDbEntity
  8
NoLayerName_002
  6
DOTSX
 62
    21
370
    25
100
AcDbLine
 10
103.5
 20
133.6208223555232
 30
0.0
 11
103.5
 21
130.2208223555232
 31
0.0
  0
LINE
  5
249
330
1F
100
AcDbEntity
  8
NoLayerName_002
  6
DOTSX
 62
    21
370
    25
100
AcDbLine
 10
100.5
 20
132.2208223555231
 30
0.0
 11
90.0
 21
132.2208223555231
 31
0.0
  0
LINE
  5
24A
330
1F
100
AcDbEntity
  8
NoLayerName_002
  6
DOTSX
 62
    21
370
    25
100
AcDbLine
 10
103.5
 20
133.6208223555232
 30
0.0
 11
100.5
 21
132.2208223555232
 31
0.0
  0
LINE
  5
24B
330
1F
100
AcDbEntity
  8
NoLayerName_002
  6
DOTSX
 62
    21
370
    25
100
AcDbLine
 10
76.5
 20
133.6208223555232
 30
0.0
 11
76.5
 21
130.2208223555232
 31
0.0
  0
LINE
  5
24C
330
1F
100
AcDbEntity
  8
NoLayerName_002
  6
DOTSX
 62
    21
370
    25
100
AcDbLine
 10
79.5
 20
132.2208223555231
 30
0.0
 11
90.0
 21
132.2208223555231
 31
0.0
  0
LINE
  5
24D
330
1F
100
AcDbEntity
  8
NoLayerName_002
  6
DOTSX
 62
    21
370
    25
100
AcDbLine
 10
76.5
 20
133.6208223555232
 30
0.0
 11
79.5
 21
132.2208223555232
 31
0.0
  0
LINE
  5
24E
330
1F
100
AcDbEntity
  8
NoLayerName_003
  6
Continuous
 62
    60
370
    50
100
AcDbLine
 10
104.5
 20
99.23020957885964
 30
0.0
 11
104.5
 21
101.2302095788596
 31
0.0
  0
LINE
  5
24F
330
1F
100
AcDbEntity
  8
NoLayerName_003
  6
Continuous
 62
    60
370
    50
100
AcDbLine
 10
100.5
 20
101.2302095788596
 30
0.0
 11
100.5
 21
99.23020957885964
 31
0.0
  0
LINE
  5
250
330
1F
100
AcDbEntity
  8
NoLayerName_003
  6
Continuous
 62
    60
370
    50
100
AcDbLine
 10
104.5
 20
99.23020957885964
 30
0.0
 11
100.5
 21
99.23020957885964
 31
0.0
  0
LINE
  5
251
330
1F
100
AcDbEntity
  8
NoLayerName_003
  6
Continuous
 62
    60
370
    50
100
AcDbLine
 10
104.5
 20
101.2302095788596
 30
0.0
 11
100.5
 21
101.2302095788596
 31
0.0
  0
LINE
  5
252
330
1F
100
AcDbEntity
  8
NoLayerName_003
  6
Continuous
 62
    60
370
    50
100
AcDbLine
 10
108.5
 20
99.23020957885964
 30
0.0
 11
108.5
 21
101.2302095788596
 31
0.0
  0
LINE
  5
253
330
1F
100
AcDbEntity
  8
NoLayerName_003
  6
Continuous
 62
    60
370
    50
100
AcDbLine
 10
112.5
 20
101.2302095788596
 30
0.0
 11
112.5
 21
99.23020957885964
 31
0.0
  0
LINE
  5
254
330
1F
100
AcDbEntity
  8
NoLayerName_003
  6
Continuous
 62
    60
370
    50
100
AcDbLine
 10
112.5
 20
99.23020957885964
 30
0.0
 11
108.5
 21
99.23020957885964
 31
0.0
  0
LINE
  5
255
330
1F
100
AcDbEntity
  8
NoLayerName_003
  6
Continuous
 62
    60
370
    50
100
AcDbLine
 10
112.5
 20
101.2302095788596
 30
0.0
 11
108.5
 21
101.2302095788596
 31
0.0
  0
ARC
  5
256
330
1F
100
AcDbEntity
  8
NoLayerName_003
  6
Continuous
 62
    60
370
    50
100
AcDbCircle
 10
166.0
 20
100.9302095788597
 30
0.0
 40
2.0
100
AcDbArc
 50
0.0000000000000127
 51
90.00000000000001
  0
LINE
  5
257
330
1F
100
AcDbEntity
  8
NoLayerName_003
  6
Continuous
 62
    60
370
    50
100
AcDbLine
 10
168.0
 20
100.9302095788597
 30
0.0
 11
166.0
 21
100.9302095788597
 31
0.0
  0
ARC
  5
258
330
1F
100
AcDbEntity
  8
NoLayerName_003
  6
Continuous
 62
    60
370
    50
100
AcDbCircle
 10
47.0
 20
100.9302095788597
 30
0.0
 40
2.0
100
AcDbArc
 50
90.0
 51
180.0
  0
LINE
  5
259
330
1F
100
AcDbEntity
  8
NoLayerName_003
  6
Continuous
 62
    60
370
    50
100
AcDbLine
 10
45.0
 20
100.9302095788597
 30
0.0
 11
47.0
 21
100.9302095788597
 31
0.0
  0
MTEXT
  5
25A
330
1F
100
AcDbEntity
  8
NoLayerName_001
 62
     3
370
    25
100
AcDbMText
 10
54.77199995517731
 20
220.2208222799898
 30
0.0
 40
3.456000089645386
 41
0.0
 71
     4
 72
     5
  1
\A1;\W0.7716;\T0.8000;φ２７ノック
 11
-4.371139000186242E-8
 21
0.9999999999999991
 31
0.0
 73
     1
 44
1.0
1001
ACAD
1000
ACAD_MTEXT_DEFINED_HEIGHT_BEGIN
1070
    46
1040
3.456000089645386
1000
ACAD_MTEXT_DEFINED_HEIGHT_END
  0
MTEXT
  5
25B
330
1F
100
AcDbEntity
  8
NoLayerName_001
 62
     3
370
    25
100
AcDbMText
 10
126.0
 20
210.4928223107004
 30
0.0
 40
3.456000089645386
 41
0.0
 71
     4
 72
     5
  1
\A1;\W0.7716;\T0.8000;φ２７ノック
 73
     1
 44
1.0
1001
ACAD
1000
ACAD_MTEXT_DEFINED_HEIGHT_BEGIN
1070
    46
1040
3.456000089645386
1000
ACAD_MTEXT_DEFINED_HEIGHT_END
  0
MTEXT
  5
25C
330
1F
100
AcDbEntity
  8
NoLayerName_001
 62
     3
370
    25
100
AcDbMText
 10
71.00000000000003
 20
210.4928223107005
 30
0.0
 40
3.456000089645386
 41
0.0
 71
     4
 72
     5
  1
\A1;\W0.7716;\T0.8000;φ２７ノック
 73
     1
 44
1.0
1001
ACAD
1000
ACAD_MTEXT_DEFINED_HEIGHT_BEGIN
1070
    46
1040
3.456000089645386
1000
ACAD_MTEXT_DEFINED_HEIGHT_END
  0
MTEXT
  5
25D
330
1F
100
AcDbEntity
  8
NoLayerName_001
 62
     3
370
    25
100
AcDbMText
 10
71.00000000000003
 20
155.4928223107004
 30
0.0
 40
3.456000089645386
 41
0.0
 71
     4
 72
     5
  1
\A1;\W0.7716;\T0.8000;φ２７ノック
 73
     1
 44
1.0
1001
ACAD
1000
ACAD_MTEXT_DEFINED_HEIGHT_BEGIN
1070
    46
1040
3.456000089645386
1000
ACAD_MTEXT_DEFINED_HEIGHT_END
  0
MTEXT
  5
25E
330
1F
100
AcDbEntity
  8
NoLayerName_001
 62
     3
370
    25
100
AcDbMText
 10
126.0
 20
155.4928223107004
 30
0.0
 40
3.456000089645386
 41
0.0
 71
     4
 72
     5
  1
\A1;\W0.7716;\T0.8000;φ２７ノック
 73
     1
 44
1.0
1001
ACAD
1000
ACAD_MTEXT_DEFINED_HEIGHT_BEGIN
1070
    46
1040
3.456000089645386
1000
ACAD_MTEXT_DEFINED_HEIGHT_END
  0
MTEXT
  5
25F
330
1F
100
AcDbEntity
  8
NoLayerName_001
 62
     3
370
    25
100
AcDbMText
 10
54.77199995517731
 20
143.2208222799898
 30
0.0
 40
3.456000089645386
 41
0.0
 71
     4
 72
     5
  1
\A1;\W0.7716;\T0.8000;φ２７ノック
 11
-4.371139000186242E-8
 21
0.9999999999999991
 31
0.0
 73
     1
 44
1.0
1001
ACAD
1000
ACAD_MTEXT_DEFINED_HEIGHT_BEGIN
1070
    46
1040
3.456000089645386
1000
ACAD_MTEXT_DEFINED_HEIGHT_END
  0
MTEXT
  5
260
330
1F
100
AcDbEntity
  8
NoLayerName_001
 62
     3
370
    25
100
AcDbMText
 10
54.77199995517732
 20
181.8208222799898
 30
0.0
 40
3.456000089645386
 41
0.0
 71
     4
 72
     5
  1
\A1;\W0.7716;\T0.8000;φ２２ノック
 11
-4.371139000186242E-8
 21
0.9999999999999991
 31
0.0
 73
     1
 44
1.0
1001
ACAD
1000
ACAD_MTEXT_DEFINED_HEIGHT_BEGIN
1070
    46
1040
3.456000089645386
1000
ACAD_MTEXT_DEFINED_HEIGHT_END
  0
MTEXT
  5
261
330
1F
100
AcDbEntity
  8
NoLayerName_001
 62
     3
370
    25
100
AcDbMText
 10
158.7719999551773
 20
143.2208222799898
 30
0.0
 40
3.456000089645386
 41
0.0
 71
     4
 72
     5
  1
\A1;\W0.7716;\T0.8000;φ２７ノック
 11
-4.371139000186242E-8
 21
0.9999999999999991
 31
0.0
 73
     1
 44
1.0
1001
ACAD
1000
ACAD_MTEXT_DEFINED_HEIGHT_BEGIN
1070
    46
1040
3.456000089645386
1000
ACAD_MTEXT_DEFINED_HEIGHT_END
  0
MTEXT
  5
262
330
1F
100
AcDbEntity
  8
NoLayerName_001
 62
     3
370
    25
100
AcDbMText
 10
158.7719999551773
 20
181.8208222799898
 30
0.0
 40
3.456000089645386
 41
0.0
 71
     4
 72
     5
  1
\A1;\W0.7716;\T0.8000;φ２２ノック
 11
-4.371139000186242E-8
 21
0.9999999999999991
 31
0.0
 73
     1
 44
1.0
1001
ACAD
1000
ACAD_MTEXT_DEFINED_HEIGHT_BEGIN
1070
    46
1040
3.456000089645386
1000
ACAD_MTEXT_DEFINED_HEIGHT_END
  0
MTEXT
  5
263
330
1F
100
AcDbEntity
  8
NoLayerName_001
 62
     3
370
    25
100
AcDbMText
 10
158.7719999551773
 20
220.2208222799898
 30
0.0
 40
3.456000089645386
 41
0.0
 71
     4
 72
     5
  1
\A1;\W0.7716;\T0.8000;φ２７ノック
 11
-4.371139000186242E-8
 21
0.9999999999999991
 31
0.0
 73
     1
 44
1.0
1001
ACAD
1000
ACAD_MTEXT_DEFINED_HEIGHT_BEGIN
1070
    46
1040
3.456000089645386
1000
ACAD_MTEXT_DEFINED_HEIGHT_END
  0
MTEXT
  5
264
330
1F
100
AcDbEntity
  8
NoLayerName_001
 62
     3
370
    25
100
AcDbMText
 10
82.0
 20
136.9488224003458
 30
0.0
 40
3.456000089645386
 41
0.0
 71
     4
 72
     5
  1
\A1;\W0.7716;\T0.8000;φ２７ノック
 73
     1
 44
1.0
1001
ACAD
1000
ACAD_MTEXT_DEFINED_HEIGHT_BEGIN
1070
    46
1040
3.456000089645386
1000
ACAD_MTEXT_DEFINED_HEIGHT_END
  0
MTEXT
  5
265
330
1F
100
AcDbEntity
  8
NoLayerName_001
 62
     3
370
    25
100
AcDbMText
 10
119.4999999999999
 20
136.9488224003458
 30
0.0
 40
3.456000089645386
 41
0.0
 71
     4
 72
     5
  1
\A1;\W0.7716;\T0.8000;φ２２ノック
 73
     1
 44
1.0
1001
ACAD
1000
ACAD_MTEXT_DEFINED_HEIGHT_BEGIN
1070
    46
1040
3.456000089645386
1000
ACAD_MTEXT_DEFINED_HEIGHT_END
  0
MTEXT
  5
266
330
1F
100
AcDbEntity
  8
NoLayerName_001
 62
     3
370
    25
100
AcDbMText
 10
123.5
 20
251.9488224003458
 30
0.0
 40
3.456000089645386
 41
0.0
 71
     4
 72
     5
  1
\A1;\W0.7716;\T0.8000;φ２２ノック
 73
     1
 44
1.0
1001
ACAD
1000
ACAD_MTEXT_DEFINED_HEIGHT_BEGIN
1070
    46
1040
3.456000089645386
1000
ACAD_MTEXT_DEFINED_HEIGHT_END
  0
MTEXT
  5
267
330
1F
100
AcDbEntity
  8
NoLayerName_001
 62
     3
370
    25
100
AcDbMText
 10
81.00000000000003
 20
251.9488224003458
 30
0.0
 40
3.456000089645386
 41
0.0
 71
     4
 72
     5
  1
\A1;\W0.7716;\T0.8000;φ２７ノック
 73
     1
 44
1.0
1001
ACAD
1000
ACAD_MTEXT_DEFINED_HEIGHT_BEGIN
1070
    46
1040
3.456000089645386
1000
ACAD_MTEXT_DEFINED_HEIGHT_END
  0
MTEXT
  5
268
330
1F
100
AcDbEntity
  8
NoLayerName_001
 62
     7
370
    50
100
AcDbMText
 10
105.7987289428711
 20
52.34196348835646
 30
0.0
 40
3.448275862068966
 41
0.0
 71
     5
 72
     5
  1
\fＭＳ Ｐゴシック|b0|c128|p50;\A1;\L断面図\l
 73
     1
 44
1.299389002163688
1001
ACAD
1000
ACAD_MTEXT_DEFINED_HEIGHT_BEGIN
1070
    46
1040
5.0
1000
ACAD_MTEXT_DEFINED_HEIGHT_END
  0
LINE
  5
269
330
1F
100
AcDbEntity
  8
NoLayerName_006
  6
Continuous
 62
     7
370
   100
100
AcDbLine
 10
126.5
 20
27.0
 30
0.0
 11
186.0
 21
27.0
 31
0.0
  0
LINE
  5
26A
330
1F
100
AcDbEntity
  8
NoLayerName_001
  6
Continuous
 62
     7
370
    50
100
AcDbLine
 10
155.2881553255348
 20
33.31806436686099
 30
0.0
 11
156.2768562960218
 21
33.31806436686099
 31
0.0
  0
LINE
  5
26B
330
1F
100
AcDbEntity
  8
NoLayerName_006
  6
Continuous
 62
     7
370
    25
100
AcDbLine
 10
137.5
 20
40.0
 30
0.0
 11
137.5
 21
27.0
 31
0.0
  0
LINE
  5
26C
330
1F
100
AcDbEntity
  8
NoLayerName_006
  6
Continuous
 62
     7
370
   100
100
AcDbLine
 10
186.0
 20
40.0
 30
0.0
 11
126.5
 21
40.0
 31
0.0
  0
LINE
  5
26D
330
1F
100
AcDbEntity
  8
NoLayerName_006
  6
Continuous
 62
     7
370
   100
100
AcDbLine
 10
186.0
 20
40.0
 30
0.0
 11
186.0
 21
27.0
 31
0.0
  0
LINE
  5
26E
330
1F
100
AcDbEntity
  8
NoLayerName_004
  6
Continuous
 62
     7
370
    25
100
AcDbLine
 10
126.5
 20
22.30000000000001
 30
0.0
 11
175.5
 21
22.30000000000001
 31
0.0
  0
LINE
  5
26F
330
1F
100
AcDbEntity
  8
NoLayerName_004
  6
Continuous
 62
     7
370
    25
100
AcDbLine
 10
126.5
 20
22.05000000000001
 30
0.0
 11
175.5
 21
22.05000000000001
 31
0.0
  0
LINE
  5
270
330
1F
100
AcDbEntity
  8
NoLayerName_004
  6
Continuous
 62
     7
370
    25
100
AcDbLine
 10
126.5
 20
17.35000000000002
 30
0.0
 11
175.5
 21
17.35000000000002
 31
0.0
  0
LINE
  5
271
330
1F
100
AcDbEntity
  8
NoLayerName_004
  6
Continuous
 62
     7
370
    25
100
AcDbLine
 10
126.5
 20
12.65000000000003
 30
0.0
 11
175.5
 21
12.65000000000003
 31
0.0
  0
LINE
  5
272
330
1F
100
AcDbEntity
  8
NoLayerName_004
  6
Continuous
 62
     7
370
   100
100
AcDbLine
 10
126.5
 20
7.950000000000045
 30
0.0
 11
175.5
 21
7.950000000000045
 31
0.0
  0
LINE
  5
273
330
1F
100
AcDbEntity
  8
NoLayerName_004
  6
Continuous
 62
     7
370
    25
100
AcDbLine
 10
150.5
 20
7.950000000000045
 30
0.0
 11
150.5
 21
27.0
 31
0.0
  0
LINE
  5
274
330
1F
100
AcDbEntity
  8
NoLayerName_004
  6
Continuous
 62
     7
370
   100
100
AcDbLine
 10
175.5
 20
7.950000000000045
 30
0.0
 11
175.5
 21
27.0
 31
0.0
  0
LINE
  5
275
330
1F
100
AcDbEntity
  8
NoLayerName_001
  6
Continuous
 62
     7
370
    50
100
AcDbLine
 10
155.1005956904088
 20
21.24116883306296
 30
0.0
 11
156.1582757983716
 21
21.24116883306296
 31
0.0
  0
LINE
  5
276
330
1F
100
AcDbEntity
  8
NoLayerName_001
  6
Continuous
 62
     7
370
    50
100
AcDbLine
 10
155.2816529341543
 20
16.38036818245748
 30
0.0
 11
156.3393330421171
 21
16.38036818245748
 31
0.0
  0
LINE
  5
277
330
1F
100
AcDbEntity
  8
NoLayerName_001
  6
Continuous
 62
     7
370
    50
100
AcDbLine
 10
154.6913072085338
 20
11.68036818245749
 30
0.0
 11
155.7489873164967
 21
11.68036818245749
 31
0.0
  0
MTEXT
  5
278
330
1F
100
AcDbEntity
  8
NoLayerName_001
 62
     7
370
    50
100
AcDbMText
 10
162.9999923706055
 20
24.65000000000001
 30
0.0
 40
2.206896584609459
 41
0.0
 71
     5
 72
     5
  1
\fＭＳ Ｐゴシック|b0|c128|p50;\A1;品　　番
 73
     1
 44
1.299389002163688
1001
ACAD
1000
ACAD_MTEXT_DEFINED_HEIGHT_BEGIN
1070
    46
1040
3.200000047683716
1000
ACAD_MTEXT_DEFINED_HEIGHT_END
  0
MTEXT
  5
279
330
1F
100
AcDbEntity
  8
NoLayerName_005
 62
     7
370
    50
100
AcDbMText
 10
132.3418121337891
 20
26.17923408208435
 30
0.0
 40
2.206896584609459
 41
0.0
 71
     1
 72
     5
  1
\fＭＳ Ｐゴシック|b0|c128|p50;\A1;　　色　　　　\Pグレー　　　　\Pアイボリー\Pホワイト
 73
     1
 44
1.145086483006418
1001
ACAD
1000
ACAD_MTEXT_DEFINED_HEIGHT_BEGIN
1070
    46
1040
12.80000019073486
1000
ACAD_MTEXT_DEFINED_HEIGHT_END
  0
LINE
  5
27A
330
1F
100
AcDbEntity
  8
NoLayerName_007
  6
Continuous
 62
     7
370
   100
100
AcDbLine
 10
126.5
 20
7.950000000000045
 30
0.0
 11
126.5
 21
40.0
 31
0.0
  0
MTEXT
  5
27B
330
1F
100
AcDbEntity
  8
NoLayerName_001
 62
     7
370
    50
100
AcDbMText
 10
163.0303649902344
 20
19.70000000000002
 30
0.0
 40
2.206896584609459
 41
0.0
 71
     5
 72
     5
  1
\fＭＳ Ｐゴシック|b0|c128|p50;\A1;４ＯＢＬ４ＡＧＨＷ
 73
     1
 44
1.299389002163688
1001
ACAD
1000
ACAD_MTEXT_DEFINED_HEIGHT_BEGIN
1070
    46
1040
3.200000047683716
1000
ACAD_MTEXT_DEFINED_HEIGHT_END
  0
MTEXT
  5
27C
330
1F
100
AcDbEntity
  8
NoLayerName_001
 62
     7
370
    50
100
AcDbMText
 10
163.0539855957031
 20
15.00000000000003
 30
0.0
 40
2.206896584609459
 41
0.0
 71
     5
 72
     5
  1
\fＭＳ Ｐゴシック|b0|c128|p50;\A1;４ＯＢＬ４ＡＪＨＷ
 73
     1
 44
1.299389002163688
1001
ACAD
1000
ACAD_MTEXT_DEFINED_HEIGHT_BEGIN
1070
    46
1040
3.200000047683716
1000
ACAD_MTEXT_DEFINED_HEIGHT_END
  0
MTEXT
  5
27D
330
1F
100
AcDbEntity
  8
NoLayerName_001
 62
     7
370
    50
100
AcDbMText
 10
163.0393600463867
 20
10.30000000000004
 30
0.0
 40
2.206896584609459
 41
0.0
 71
     5
 72
     5
  1
\fＭＳ Ｐゴシック|b0|c128|p50;\A1;４ＯＢＬ４ＡＷＨＷ
 73
     1
 44
1.299389002163688
1001
ACAD
1000
ACAD_MTEXT_DEFINED_HEIGHT_BEGIN
1070
    46
1040
3.200000047683716
1000
ACAD_MTEXT_DEFINED_HEIGHT_END
  0
MTEXT
  5
27E
330
1F
100
AcDbEntity
  8
NoLayerName_006
 62
     7
370
    50
100
AcDbMText
 10
127.6480002403259
 20
31.89999997615814
 30
0.0
 40
2.206896584609459
 41
0.0
 71
     7
 72
     5
  1
\fＭＳ Ｐゴシック|b0|c128|p50;\A1;品　名
 73
     1
 44
1.299389002163688
1001
ACAD
1000
ACAD_MTEXT_DEFINED_HEIGHT_BEGIN
1070
    46
1040
3.200000047683716
1000
ACAD_MTEXT_DEFINED_HEIGHT_END
  0
MTEXT
  5
27F
330
1F
100
AcDbEntity
  8
NoLayerName_002
 62
     3
370
    50
100
AcDbMText
 10
161.7499923706055
 20
33.5
 30
0.0
 40
2.206896584609459
 41
0.0
 71
     5
 72
     5
  1
\fＭＳ Ｐゴシック|b0|c128|p50;\A1;アウトレットボックスＡタイプ\P４ＯＢ　大浅形
 73
     1
 44
0.9745417487184044
1001
ACAD
1000
ACAD_MTEXT_DEFINED_HEIGHT_BEGIN
1070
    46
1040
6.400000095367432
1000
ACAD_MTEXT_DEFINED_HEIGHT_END
  0
ENDSEC
  0
SECTION
  2
OBJECTS
  0
DICTIONARY
  5
C
330
0
100
AcDbDictionary
281
     1
  3
ACAD_GROUP
350
D
  3
ACAD_LAYOUT
350
1A
  3
ACAD_MATERIAL
350
43
  3
ACAD_MLEADERSTYLE
350
282
  3
ACAD_MLINESTYLE
350
17
  3
ACAD_PLOTSETTINGS
350
19
  3
ACAD_PLOTSTYLENAME
350
E
  3
ACAD_SCALELIST
350
47
  3
ACAD_VISUALSTYLE
350
2A
  3
AcDbVariableDictionary
350
280
  3
DWGPROPS
350
289
  0
DICTIONARY
  5
D
102
{ACAD_REACTORS
330
C
102
}
330
C
100
AcDbDictionary
281
     1
  0
DICTIONARY
  5
1A
102
{ACAD_REACTORS
330
C
102
}
330
C
100
AcDbDictionary
281
     1
  3
Layout1
350
1E
  3
Model
350
22
  0
DICTIONARY
  5
43
102
{ACAD_REACTORS
330
C
102
}
330
C
100
AcDbDictionary
281
     1
  3
ByBlock
350
45
  3
ByLayer
350
44
  3
Global
350
46
  0
DICTIONARY
  5
282
102
{ACAD_REACTORS
330
C
102
}
330
C
100
AcDbDictionary
281
     1
  0
DICTIONARY
  5
17
102
{ACAD_REACTORS
330
C
102
}
330
C
100
AcDbDictionary
281
     1
  3
Standard
350
18
  0
DICTIONARY
  5
19
102
{ACAD_REACTORS
330
C
102
}
330
C
100
AcDbDictionary
281
     1
  0
ACDBDICTIONARYWDFLT
  5
E
102
{ACAD_REACTORS
330
C
102
}
330
C
100
AcDbDictionary
281
     1
  3
Normal
350
F
100
AcDbDictionaryWithDefault
340
F
  0
DICTIONARY
  5
47
102
{ACAD_REACTORS
330
C
102
}
330
C
100
AcDbDictionary
281
     1
  3
A0
350
48
  3
A1
350
49
  3
A2
350
4A
  3
A3
350
4B
  3
A4
350
4C
  3
A5
350
4D
  3
A6
350
4E
  3
A7
350
4F
  3
A8
350
50
  3
A9
350
51
  3
B0
350
52
  3
B1
350
53
  3
B2
350
54
  3
B3
350
55
  3
B4
350
56
  3
B5
350
57
  3
B6
350
58
  3
B7
350
59
  3
B8
350
5A
  3
B9
350
5B
  3
C0
350
5C
  3
C1
350
5D
  3
C2
350
5E
  3
C3
350
5F
  3
C4
350
60
  3
C5
350
61
  3
C6
350
62
  3
C7
350
63
  3
C8
350
64
  3
C9
350
65
  3
D0
350
66
  3
D1
350
67
  3
D2
350
68
  0
DICTIONARY
  5
2A
102
{ACAD_REACTORS
330
C
102
}
330
C
100
AcDbDictionary
281
     1
  3
2dWireframe
350
2F
  3
Basic
350
32
  3
Brighten
350
36
  3
ColorChange
350
3A
  3
Conceptual
350
34
  3
Dim
350
35
  3
EdgeColorOff
350
3D
  3
Facepattern
350
39
  3
Flat
350
2B
  3
FlatWithEdges
350
2C
  3
Gouraud
350
2D
  3
GouraudWithEdges
350
2E
  3
Hidden
350
31
  3
JitterOff
350
3B
  3
Linepattern
350
38
  3
OverhangOff
350
3C
  3
Realistic
350
33
  3
Shaded
350
42
  3
Shaded with edges
350
41
  3
Shades of Gray
350
3E
  3
Sketchy
350
3F
  3
Thicken
350
37
  3
Wireframe
350
30
  3
X-Ray
350
40
  0
DICTIONARY
  5
280
102
{ACAD_REACTORS
330
C
102
}
330
C
100
AcDbDictionary
281
     1
  3
CANNOSCALE
350
28A
  3
DIMASSOC
350
287
  3
HIDETEXT
350
288
  3
MSLTSCALE
350
28B
  3
PSOLHEIGHT
350
284
  3
PSOLWIDTH
350
283
  0
XRECORD
  5
289
102
{ACAD_REACTORS
330
C
102
}
330
C
100
AcDbXrecord
280
     1
  1
DWGPROPS COOKIE
  2

  3

  4

  6
File was created by TR2_DExp
  7

  8

  9

300
=
301
=
302
=
303
=
304
=
305
=
306
=
307
=
308
=
309
=
 40
0.0
 41
2455188.375
 42
2455188.375
  1

 90
        0
  0
LAYOUT
  5
1E
102
{ACAD_REACTORS
330
1A
102
}
330
1A
100
AcDbPlotSettings
  1

  2
none_device
  4

  6

 40
0.0
 41
0.0
 42
0.0
 43
0.0
 44
0.0
 45
0.0
 46
0.0
 47
0.0
 48
0.0
 49
0.0
140
0.0
141
0.0
142
1.0
143
1.0
 70
   688
 72
     1
 73
     0
 74
     5
  7

 75
    16
147
1.0
148
0.0
149
0.0
100
AcDbLayout
  1
Layout1
 70
     0
 71
     1
 10
0.0
 20
0.0
 11
420.0
 21
297.0
 12
0.0
 22
0.0
 32
0.0
 14
1.000000000000000E+20
 24
1.000000000000000E+20
 34
1.000000000000000E+20
 15
-1.000000000000000E+20
 25
-1.000000000000000E+20
 35
-1.000000000000000E+20
146
0.0
 13
0.0
 23
0.0
 33
0.0
 16
1.0
 26
0.0
 36
0.0
 17
0.0
 27
1.0
 37
0.0
 76
     0
330
1B
  0
LAYOUT
  5
22
102
{ACAD_REACTORS
330
1A
102
}
330
1A
100
AcDbPlotSettings
  1

  2
none_device
  4
Letter_(8.50_x_11.00_Inches)
  6

 40
6.35
 41
6.35
 42
6.35000508
 43
6.35000508
 44
215.9
 45
279.4
 46
0.0
 47
0.0
 48
0.0
 49
0.0
140
0.0
141
0.0
142
1.0
143
1.0
 70
  1712
 72
     1
 73
     0
 74
     0
  7

 75
     0
147
1.0
148
0.0
149
0.0
100
AcDbLayout
  1
Model
 70
     1
 71
     0
 10
44.27847791972908
 20
7.950000000000045
 11
186.0
 21
257.2208223555231
 12
0.0
 22
0.0
 32
0.0
 14
44.27847791972908
 24
7.950000000000045
 34
0.0
 15
186.0
 25
257.2208223555231
 35
0.0
146
0.0
 13
0.0
 23
0.0
 33
0.0
 16
1.0
 26
0.0
 36
0.0
 17
0.0
 27
1.0
 37
0.0
 76
     0
330
1F
331
29
  0
MATERIAL
  5
45
102
{ACAD_REACTORS
330
43
102
}
102
{ACAD_XDICTIONARY
360
2BE
102
}
330
43
100
AcDbMaterial
  1
ByBlock
  0
MATERIAL
  5
44
102
{ACAD_REACTORS
330
43
102
}
102
{ACAD_XDICTIONARY
360
2BC
102
}
330
43
100
AcDbMaterial
  1
ByLayer
  0
MATERIAL
  5
46
102
{ACAD_REACTORS
330
43
102
}
102
{ACAD_XDICTIONARY
360
2C0
102
}
330
43
100
AcDbMaterial
  1
Global
  0
MLINESTYLE
  5
18
102
{ACAD_REACTORS
330
17
102
}
330
17
100
AcDbMlineStyle
  2
Standard
 70
     0
  3

 62
   256
 51
90.0
 52
90.0
 71
     2
 49
0.5
 62
   256
  6
BYLAYER
 49
-0.5
 62
   256
  6
BYLAYER
  0
ACDBPLACEHOLDER
  5
F
102
{ACAD_REACTORS
330
E
102
}
330
E
  0
SCALE
  5
48
102
{ACAD_REACTORS
330
47
102
}
330
47
100
AcDbScale
 70
     0
300
1:1
140
1.0
141
1.0
290
     1
  0
SCALE
  5
49
102
{ACAD_REACTORS
330
47
102
}
330
47
100
AcDbScale
 70
     0
300
1:2
140
1.0
141
2.0
290
     0
  0
SCALE
  5
4A
102
{ACAD_REACTORS
330
47
102
}
330
47
100
AcDbScale
 70
     0
300
1:4
140
1.0
141
4.0
290
     0
  0
SCALE
  5
4B
102
{ACAD_REACTORS
330
47
102
}
330
47
100
AcDbScale
 70
     0
300
1:5
140
1.0
141
5.0
290
     0
  0
SCALE
  5
4C
102
{ACAD_REACTORS
330
47
102
}
330
47
100
AcDbScale
 70
     0
300
1:8
140
1.0
141
8.0
290
     0
  0
SCALE
  5
4D
102
{ACAD_REACTORS
330
47
102
}
330
47
100
AcDbScale
 70
     0
300
1:10
140
1.0
141
10.0
290
     0
  0
SCALE
  5
4E
102
{ACAD_REACTORS
330
47
102
}
330
47
100
AcDbScale
 70
     0
300
1:16
140
1.0
141
16.0
290
     0
  0
SCALE
  5
4F
102
{ACAD_REACTORS
330
47
102
}
330
47
100
AcDbScale
 70
     0
300
1:20
140
1.0
141
20.0
290
     0
  0
SCALE
  5
50
102
{ACAD_REACTORS
330
47
102
}
330
47
100
AcDbScale
 70
     0
300
1:30
140
1.0
141
30.0
290
     0
  0
SCALE
  5
51
102
{ACAD_REACTORS
330
47
102
}
330
47
100
AcDbScale
 70
     0
300
1:40
140
1.0
141
40.0
290
     0
  0
SCALE
  5
52
102
{ACAD_REACTORS
330
47
102
}
330
47
100
AcDbScale
 70
     0
300
1:50
140
1.0
141
50.0
290
     0
  0
SCALE
  5
53
102
{ACAD_REACTORS
330
47
102
}
330
47
100
AcDbScale
 70
     0
300
1:100
140
1.0
141
100.0
290
     0
  0
SCALE
  5
54
102
{ACAD_REACTORS
330
47
102
}
330
47
100
AcDbScale
 70
     0
300
2:1
140
2.0
141
1.0
290
     0
  0
SCALE
  5
55
102
{ACAD_REACTORS
330
47
102
}
330
47
100
AcDbScale
 70
     0
300
4:1
140
4.0
141
1.0
290
     0
  0
SCALE
  5
56
102
{ACAD_REACTORS
330
47
102
}
330
47
100
AcDbScale
 70
     0
300
8:1
140
8.0
141
1.0
290
     0
  0
SCALE
  5
57
102
{ACAD_REACTORS
330
47
102
}
330
47
100
AcDbScale
 70
     0
300
10:1
140
10.0
141
1.0
290
     0
  0
SCALE
  5
58
102
{ACAD_REACTORS
330
47
102
}
330
47
100
AcDbScale
 70
     0
300
100:1
140
100.0
141
1.0
290
     0
  0
SCALE
  5
59
102
{ACAD_REACTORS
330
47
102
}
330
47
100
AcDbScale
 70
     0
300
1/128" = 1'-0"
140
0.0078125
141
12.0
290
     0
  0
SCALE
  5
5A
102
{ACAD_REACTORS
330
47
102
}
330
47
100
AcDbScale
 70
     0
300
1/64" = 1'-0"
140
0.015625
141
12.0
290
     0
  0
SCALE
  5
5B
102
{ACAD_REACTORS
330
47
102
}
330
47
100
AcDbScale
 70
     0
300
1/32" = 1'-0"
140
0.03125
141
12.0
290
     0
  0
SCALE
  5
5C
102
{ACAD_REACTORS
330
47
102
}
330
47
100
AcDbScale
 70
     0
300
1/16" = 1'-0"
140
0.0625
141
12.0
290
     0
  0
SCALE
  5
5D
102
{ACAD_REACTORS
330
47
102
}
330
47
100
AcDbScale
 70
     0
300
3/32" = 1'-0"
140
0.09375
141
12.0
290
     0
  0
SCALE
  5
5E
102
{ACAD_REACTORS
330
47
102
}
330
47
100
AcDbScale
 70
     0
300
1/8" = 1'-0"
140
0.125
141
12.0
290
     0
  0
SCALE
  5
5F
102
{ACAD_REACTORS
330
47
102
}
330
47
100
AcDbScale
 70
     0
300
3/16" = 1'-0"
140
0.1875
141
12.0
290
     0
  0
SCALE
  5
60
102
{ACAD_REACTORS
330
47
102
}
330
47
100
AcDbScale
 70
     0
300
1/4" = 1'-0"
140
0.25
141
12.0
290
     0
  0
SCALE
  5
61
102
{ACAD_REACTORS
330
47
102
}
330
47
100
AcDbScale
 70
     0
300
3/8" = 1'-0"
140
0.375
141
12.0
290
     0
  0
SCALE
  5
62
102
{ACAD_REACTORS
330
47
102
}
330
47
100
AcDbScale
 70
     0
300
1/2" = 1'-0"
140
0.5
141
12.0
290
     0
  0
SCALE
  5
63
102
{ACAD_REACTORS
330
47
102
}
330
47
100
AcDbScale
 70
     0
300
3/4" = 1'-0"
140
0.75
141
12.0
290
     0
  0
SCALE
  5
64
102
{ACAD_REACTORS
330
47
102
}
330
47
100
AcDbScale
 70
     0
300
1" = 1'-0"
140
1.0
141
12.0
290
     0
  0
SCALE
  5
65
102
{ACAD_REACTORS
330
47
102
}
330
47
100
AcDbScale
 70
     0
300
1-1/2" = 1'-0"
140
1.5
141
12.0
290
     0
  0
SCALE
  5
66
102
{ACAD_REACTORS
330
47
102
}
330
47
100
AcDbScale
 70
     0
300
3" = 1'-0"
140
3.0
141
12.0
290
     0
  0
SCALE
  5
67
102
{ACAD_REACTORS
330
47
102
}
330
47
100
AcDbScale
 70
     0
300
6" = 1'-0"
140
6.0
141
12.0
290
     0
  0
SCALE
  5
68
102
{ACAD_REACTORS
330
47
102
}
330
47
100
AcDbScale
 70
     0
300
1'-0" = 1'-0"
140
12.0
141
12.0
290
     0
  0
VISUALSTYLE
  5
2F
102
{ACAD_REACTORS
330
2A
102
}
102
{ACAD_XDICTIONARY
360
294
102
}
330
2A
100
AcDbVisualStyle
  2
2dWireframe
 70
     4
 71
     0
 72
     2
 73
     0
 90
        0
 40
0.6
 41
30.0
 62
     5
 63
     7
 74
     1
 91
        4
 64
     7
 65
   257
 75
     1
175
     1
 42
1.0
 92
        0
 66
   257
 43
1.0
 76
     1
 77
     6
 78
     2
 67
     7
 79
     5
170
     0
171
     0
290
     0
174
     0
 93
        1
 44
0.0
173
     0
291
     0
 45
0.0
1001
ACAD
1000
AcDbSavedByObjectVersion
1070
     0
  0
VISUALSTYLE
  5
32
102
{ACAD_REACTORS
330
2A
102
}
102
{ACAD_XDICTIONARY
360
29A
102
}
330
2A
100
AcDbVisualStyle
  2
Basic
 70
     7
 71
     1
 72
     0
 73
     1
 90
        0
 40
0.6
 41
30.0
 62
     5
 63
     7
 74
     0
 91
        4
 64
     7
 65
   257
 75
     1
175
     1
 42
1.0
 92
        8
 66
     7
 43
1.0
 76
     1
 77
     6
 78
     2
 67
     7
 79
     5
170
     0
171
     0
290
     0
174
     0
 93
        1
 44
0.0
173
     0
291
     1
 45
0.0
1001
ACAD
1000
AcDbSavedByObjectVersion
1070
     0
  0
VISUALSTYLE
  5
36
102
{ACAD_REACTORS
330
2A
102
}
102
{ACAD_XDICTIONARY
360
2A2
102
}
330
2A
100
AcDbVisualStyle
  2
Brighten
 70
    12
 71
     2
 72
     2
 73
     0
 90
        0
 40
0.6
 41
30.0
 62
     5
 63
     7
 74
     1
 91
        4
 64
     7
 65
   257
 75
     1
175
     1
 42
1.0
 92
        8
 66
     7
 43
1.0
 76
     1
 77
     6
 78
     2
 67
     7
 79
     5
170
     0
171
     0
290
     0
174
     0
 93
        1
 44
50.0
173
     0
291
     1
 45
0.0
1001
ACAD
1000
AcDbSavedByObjectVersion
1070
     0
  0
VISUALSTYLE
  5
3A
102
{ACAD_REACTORS
330
2A
102
}
102
{ACAD_XDICTIONARY
360
2AA
102
}
330
2A
100
AcDbVisualStyle
  2
ColorChange
 70
    16
 71
     2
 72
     2
 73
     3
 90
        0
 40
0.6
 41
30.0
 62
     5
 63
     8
 74
     1
 91
        4
 64
     7
 65
   257
 75
     1
175
     1
 42
1.0
 92
        8
 66
     8
 43
1.0
 76
     1
 77
     6
 78
     2
 67
     7
 79
     5
170
     0
171
     0
290
     0
174
     0
 93
        1
 44
0.0
173
     0
291
     1
 45
0.0
1001
ACAD
1000
AcDbSavedByObjectVersion
1070
     0
  0
VISUALSTYLE
  5
34
102
{ACAD_REACTORS
330
2A
102
}
102
{ACAD_XDICTIONARY
360
29E
102
}
330
2A
100
AcDbVisualStyle
  2
Conceptual
 70
     9
 71
     3
 72
     2
 73
     0
 90
        0
 40
0.6
 41
30.0
 62
     5
 63
     7
 74
     2
 91
        2
 64
     7
 65
   257
 75
     1
175
     1
 42
179.0
 92
        8
 66
     7
 43
1.0
 76
     1
 77
     6
 78
     2
 67
     7
 79
     3
170
     0
171
     0
290
     0
174
     0
 93
        1
 44
0.0
173
     0
291
     0
 45
0.0
1001
ACAD
1000
AcDbSavedByObjectVersion
1070
     0
  0
VISUALSTYLE
  5
35
102
{ACAD_REACTORS
330
2A
102
}
102
{ACAD_XDICTIONARY
360
2A0
102
}
330
2A
100
AcDbVisualStyle
  2
Dim
 70
    11
 71
     2
 72
     2
 73
     0
 90
        0
 40
0.6
 41
30.0
 62
     5
 63
     7
 74
     1
 91
        4
 64
     7
 65
   257
 75
     1
175
     1
 42
1.0
 92
        8
 66
     7
 43
1.0
 76
     1
 77
     6
 78
     2
 67
     7
 79
     5
170
     0
171
     0
290
     0
174
     0
 93
        1
 44
-50.0
173
     0
291
     1
 45
0.0
1001
ACAD
1000
AcDbSavedByObjectVersion
1070
     0
  0
VISUALSTYLE
  5
3D
102
{ACAD_REACTORS
330
2A
102
}
102
{ACAD_XDICTIONARY
360
2B0
102
}
330
2A
100
AcDbVisualStyle
  2
EdgeColorOff
 70
    22
 71
     2
 72
     2
 73
     0
 90
        0
 40
0.6
 41
30.0
 62
     5
 63
     7
 74
     1
 91
        4
 64
     7
 65
   257
 75
     1
175
     1
 42
1.0
 92
        8
 66
     7
 43
1.0
 76
     1
 77
     6
 78
     2
 67
     7
 79
     5
170
     0
171
     0
290
     0
174
     0
 93
        1
 44
0.0
173
     0
291
     1
 45
0.0
1001
ACAD
1000
AcDbSavedByObjectVersion
1070
     0
  0
VISUALSTYLE
  5
39
102
{ACAD_REACTORS
330
2A
102
}
102
{ACAD_XDICTIONARY
360
2A8
102
}
330
2A
100
AcDbVisualStyle
  2
Facepattern
 70
    15
 71
     2
 72
     2
 73
     0
 90
        0
 40
0.6
 41
30.0
 62
     5
 63
     7
 74
     1
 91
        4
 64
     7
 65
   257
 75
     1
175
     1
 42
1.0
 92
        8
 66
     7
 43
1.0
 76
     1
 77
     6
 78
     2
 67
     7
 79
     5
170
     0
171
     0
290
     0
174
     0
 93
        1
 44
0.0
173
     0
291
     1
 45
0.0
1001
ACAD
1000
AcDbSavedByObjectVersion
1070
     0
  0
VISUALSTYLE
  5
2B
102
{ACAD_REACTORS
330
2A
102
}
102
{ACAD_XDICTIONARY
360
28C
102
}
330
2A
100
AcDbVisualStyle
  2
Flat
 70
     0
 71
     2
 72
     1
 73
     1
 90
        2
 40
0.6
 41
30.0
 62
     5
 63
     7
 74
     0
 91
        0
 64
     7
 65
   257
 75
     1
175
     1
 42
1.0
 92
        8
 66
     7
 43
1.0
 76
     1
 77
     6
 78
     2
 67
     7
 79
     5
170
     0
171
     0
290
     0
174
     0
 93
       13
 44
0.0
173
     0
291
     1
 45
0.0
1001
ACAD
1000
AcDbSavedByObjectVersion
1070
     0
  0
VISUALSTYLE
  5
2C
102
{ACAD_REACTORS
330
2A
102
}
102
{ACAD_XDICTIONARY
360
28E
102
}
330
2A
100
AcDbVisualStyle
  2
FlatWithEdges
 70
     1
 71
     2
 72
     1
 73
     1
 90
        2
 40
0.6
 41
30.0
 62
     5
 63
     7
 74
     1
 91
        0
 64
     7
 65
   257
 75
     1
175
     1
 42
1.0
 92
        0
 66
   257
 43
1.0
 76
     1
 77
     6
 78
     2
 67
     7
 79
     5
170
     0
171
     0
290
     0
174
     0
 93
       13
 44
0.0
173
     0
291
     1
 45
0.0
1001
ACAD
1000
AcDbSavedByObjectVersion
1070
     0
  0
VISUALSTYLE
  5
2D
102
{ACAD_REACTORS
330
2A
102
}
102
{ACAD_XDICTIONARY
360
290
102
}
330
2A
100
AcDbVisualStyle
  2
Gouraud
 70
     2
 71
     2
 72
     2
 73
     1
 90
        2
 40
0.6
 41
30.0
 62
     5
 63
     7
 74
     0
 91
        0
 64
     7
 65
   257
 75
     1
175
     1
 42
1.0
 92
        0
 66
     7
 43
1.0
 76
     1
 77
     6
 78
     2
 67
     7
 79
     5
170
     0
171
     0
290
     0
174
     0
 93
       13
 44
0.0
173
     0
291
     1
 45
0.0
1001
ACAD
1000
AcDbSavedByObjectVersion
1070
     0
  0
VISUALSTYLE
  5
2E
102
{ACAD_REACTORS
330
2A
102
}
102
{ACAD_XDICTIONARY
360
292
102
}
330
2A
100
AcDbVisualStyle
  2
GouraudWithEdges
 70
     3
 71
     2
 72
     2
 73
     1
 90
        2
 40
0.6
 41
30.0
 62
     5
 63
     7
 74
     1
 91
        0
 64
     7
 65
   257
 75
     1
175
     1
 42
1.0
 92
        0
 66
   257
 43
1.0
 76
     1
 77
     6
 78
     2
 67
     7
 79
     5
170
     0
171
     0
290
     0
174
     0
 93
       13
 44
0.0
173
     0
291
     1
 45
0.0
1001
ACAD
1000
AcDbSavedByObjectVersion
1070
     0
  0
VISUALSTYLE
  5
31
102
{ACAD_REACTORS
330
2A
102
}
102
{ACAD_XDICTIONARY
360
298
102
}
330
2A
100
AcDbVisualStyle
  2
Hidden
 70
     6
 71
     1
 72
     2
 73
     2
 90
        0
 40
0.6
 41
30.0
 62
     5
 63
     7
 74
     2
 91
        2
 64
     7
 65
   257
 75
     2
175
     1
 42
40.0
 92
        0
 66
   257
 43
1.0
 76
     1
 77
     6
 78
     2
 67
     7
 79
     3
170
     0
171
     0
290
     0
174
     0
 93
        1
 44
0.0
173
     0
291
     0
 45
0.0
1001
ACAD
1000
AcDbSavedByObjectVersion
1070
     0
  0
VISUALSTYLE
  5
3B
102
{ACAD_REACTORS
330
2A
102
}
102
{ACAD_XDICTIONARY
360
2AC
102
}
330
2A
100
AcDbVisualStyle
  2
JitterOff
 70
    20
 71
     2
 72
     2
 73
     0
 90
        0
 40
0.6
 41
30.0
 62
     5
 63
     7
 74
     1
 91
        4
 64
     7
 65
   257
 75
     1
175
     1
 42
1.0
 92
       10
 66
     7
 43
1.0
 76
     1
 77
     6
 78
     2
 67
     7
 79
     5
170
     0
171
     0
290
     0
174
     0
 93
        1
 44
0.0
173
     0
291
     1
 45
0.0
1001
ACAD
1000
AcDbSavedByObjectVersion
1070
     0
  0
VISUALSTYLE
  5
38
102
{ACAD_REACTORS
330
2A
102
}
102
{ACAD_XDICTIONARY
360
2A6
102
}
330
2A
100
AcDbVisualStyle
  2
Linepattern
 70
    14
 71
     2
 72
     2
 73
     0
 90
        0
 40
0.6
 41
30.0
 62
     5
 63
     7
 74
     1
 91
        4
 64
     7
 65
   257
 75
     7
175
     7
 42
1.0
 92
        8
 66
     7
 43
1.0
 76
     1
 77
     6
 78
     2
 67
     7
 79
     5
170
     0
171
     0
290
     0
174
     0
 93
        1
 44
0.0
173
     0
291
     1
 45
0.0
1001
ACAD
1000
AcDbSavedByObjectVersion
1070
     0
  0
VISUALSTYLE
  5
3C
102
{ACAD_REACTORS
330
2A
102
}
102
{ACAD_XDICTIONARY
360
2AE
102
}
330
2A
100
AcDbVisualStyle
  2
OverhangOff
 70
    21
 71
     2
 72
     2
 73
     0
 90
        0
 40
0.6
 41
30.0
 62
     5
 63
     7
 74
     1
 91
        4
 64
     7
 65
   257
 75
     1
175
     1
 42
1.0
 92
        9
 66
     7
 43
1.0
 76
     1
 77
     6
 78
     2
 67
     7
 79
     5
170
     0
171
     0
290
     0
174
     0
 93
        1
 44
0.0
173
     0
291
     1
 45
0.0
1001
ACAD
1000
AcDbSavedByObjectVersion
1070
     0
  0
VISUALSTYLE
  5
33
102
{ACAD_REACTORS
330
2A
102
}
102
{ACAD_XDICTIONARY
360
29C
102
}
330
2A
100
AcDbVisualStyle
  2
Realistic
 70
     8
 71
     2
 72
     3
 73
     0
 90
        2
 40
0.6
 41
30.0
 62
     5
 63
     7
 74
     0
 91
        0
 64
     7
 65
   257
 75
     1
175
     1
 42
1.0
 92
        8
 66
   257
 43
1.0
 76
     1
 77
     6
 78
     2
 67
     7
 79
     3
170
     0
171
     0
290
     0
174
     0
 93
       13
 44
0.0
173
     0
291
     0
 45
0.0
1001
ACAD
1000
AcDbSavedByObjectVersion
1070
     0
  0
VISUALSTYLE
  5
42
102
{ACAD_REACTORS
330
2A
102
}
102
{ACAD_XDICTIONARY
360
2BA
102
}
330
2A
100
AcDbVisualStyle
  2
Shaded
 70
    27
 71
     2
 72
     2
 73
     1
 90
        2
 40
0.6
 41
30.0
 62
     5
 63
     7
 74
     0
 91
        4
 64
     7
 65
   257
 75
     1
175
     1
 42
1.0
 92
        8
 66
   257
 43
1.0
 76
     1
 77
     6
 78
     2
 67
     8
 79
     3
170
     0
171
     0
290
     0
174
     0
 93
        5
 44
0.0
173
     0
291
     0
 45
0.0
1001
ACAD
1000
AcDbSavedByObjectVersion
1070
     0
  0
VISUALSTYLE
  5
41
102
{ACAD_REACTORS
330
2A
102
}
102
{ACAD_XDICTIONARY
360
2B8
102
}
330
2A
100
AcDbVisualStyle
  2
Shaded with edges
 70
    26
 71
     2
 72
     2
 73
     1
 90
        2
 40
0.6
 41
30.0
 62
     5
 63
     7
 74
     1
 91
       10
 64
     7
 65
   257
 75
     2
175
     1
 42
1.0
 92
        8
 66
   257
 43
1.0
 76
     1
 77
     6
 78
     2
 67
     7
 79
     3
170
     0
171
     0
290
     0
174
     0
 93
        5
 44
0.0
173
     0
291
     0
 45
0.0
1001
ACAD
1000
AcDbSavedByObjectVersion
1070
     0
  0
VISUALSTYLE
  5
3E
102
{ACAD_REACTORS
330
2A
102
}
102
{ACAD_XDICTIONARY
360
2B2
102
}
330
2A
100
AcDbVisualStyle
  2
Shades of Gray
 70
    23
 71
     2
 72
     2
 73
     3
 90
        0
 40
0.6
 41
30.0
 62
     5
 63
     7
 74
     2
 91
        2
 64
     7
 65
     7
 75
     1
175
     1
 42
40.0
 92
        8
 66
     7
 43
1.0
 76
     1
 77
     6
 78
     2
 67
     7
 79
     3
170
     0
171
     0
290
     0
174
     0
 93
        1
 44
0.0
173
     0
291
     0
 45
0.0
1001
ACAD
1000
AcDbSavedByObjectVersion
1070
     0
  0
VISUALSTYLE
  5
3F
102
{ACAD_REACTORS
330
2A
102
}
102
{ACAD_XDICTIONARY
360
2B4
102
}
330
2A
100
AcDbVisualStyle
  2
Sketchy
 70
    24
 71
     1
 72
     2
 73
     2
 90
        0
 40
0.6
 41
30.0
 62
     5
 63
     7
 74
     2
 91
        2
 64
     7
 65
     7
 75
     1
175
     1
 42
40.0
 92
       11
 66
     7
 43
1.0
 76
     1
 77
     6
 78
     2
 67
     7
 79
     6
170
     0
171
     0
290
     0
174
     0
 93
        1
 44
0.0
173
     0
291
     0
 45
0.0
1001
ACAD
1000
AcDbSavedByObjectVersion
1070
     0
  0
VISUALSTYLE
  5
37
102
{ACAD_REACTORS
330
2A
102
}
102
{ACAD_XDICTIONARY
360
2A4
102
}
330
2A
100
AcDbVisualStyle
  2
Thicken
 70
    13
 71
     2
 72
     2
 73
     0
 90
        0
 40
0.6
 41
30.0
 62
     5
 63
     7
 74
     1
 91
        4
 64
     7
 65
   257
 75
     1
175
     1
 42
1.0
 92
       12
 66
     7
 43
1.0
 76
     1
 77
     6
 78
     2
 67
     7
 79
     5
170
     0
171
     0
290
     0
174
     0
 93
        1
 44
0.0
173
     0
291
     1
 45
0.0
1001
ACAD
1000
AcDbSavedByObjectVersion
1070
     0
  0
VISUALSTYLE
  5
30
102
{ACAD_REACTORS
330
2A
102
}
102
{ACAD_XDICTIONARY
360
296
102
}
330
2A
100
AcDbVisualStyle
  2
Wireframe
 70
     5
 71
     0
 72
     2
 73
     0
 90
        0
 40
0.6
 41
30.0
 62
     5
 63
     7
 74
     1
 91
        4
 64
     7
 65
   257
 75
     1
175
     1
 42
1.0
 92
        0
 66
   257
 43
1.0
 76
     1
 77
     6
 78
     2
 67
     7
 79
     3
170
     0
171
     0
290
     0
174
     0
 93
        1
 44
0.0
173
     0
291
     0
 45
0.0
1001
ACAD
1000
AcDbSavedByObjectVersion
1070
     0
  0
VISUALSTYLE
  5
40
102
{ACAD_REACTORS
330
2A
102
}
102
{ACAD_XDICTIONARY
360
2B6
102
}
330
2A
100
AcDbVisualStyle
  2
X-Ray
 70
    25
 71
     2
 72
     2
 73
     1
 90
        1
 40
0.5
 41
30.0
 62
     5
 63
     7
 74
     1
 91
        0
 64
     7
 65
   257
 75
     1
175
     1
 42
1.0
 92
        8
 66
     7
 43
1.0
 76
     1
 77
     6
 78
     2
 67
     7
 79
     3
170
     0
171
     0
290
     0
174
     0
 93
       13
 44
0.0
173
     0
291
     0
 45
0.0
1001
ACAD
1000
AcDbSavedByObjectVersion
1070
     0
  0
DICTIONARYVAR
  5
28A
102
{ACAD_REACTORS
330
280
102
}
330
280
100
DictionaryVariables
280
     0
  1
1:1
  0
DICTIONARYVAR
  5
287
102
{ACAD_REACTORS
330
280
102
}
330
280
100
DictionaryVariables
280
     0
  1
2
  0
DICTIONARYVAR
  5
288
102
{ACAD_REACTORS
330
280
102
}
330
280
100
DictionaryVariables
280
     0
  1
1
  0
DICTIONARYVAR
  5
28B
102
{ACAD_REACTORS
330
280
102
}
330
280
100
DictionaryVariables
280
     0
  1
1
  0
DICTIONARYVAR
  5
284
102
{ACAD_REACTORS
330
280
102
}
330
280
100
DictionaryVariables
280
     0
  1
80.000000
  0
DICTIONARYVAR
  5
283
102
{ACAD_REACTORS
330
280
102
}
330
280
100
DictionaryVariables
280
     0
  1
5.000000
  0
DICTIONARY
  5
2BE
330
45
100
AcDbDictionary
280
     1
281
     1
  3
ACAD_XREC_ROUNDTRIP
360
2BF
  0
DICTIONARY
  5
2BC
330
44
100
AcDbDictionary
280
     1
281
     1
  3
ACAD_XREC_ROUNDTRIP
360
2BD
  0
DICTIONARY
  5
2C0
330
46
100
AcDbDictionary
280
     1
281
     1
  3
ACAD_XREC_ROUNDTRIP
360
2C1
  0
DICTIONARY
  5
294
330
2F
100
AcDbDictionary
280
     1
281
     1
  3
ACAD_XREC_ROUNDTRIP
360
295
  0
DICTIONARY
  5
29A
330
32
100
AcDbDictionary
280
     1
281
     1
  3
ACAD_XREC_ROUNDTRIP
360
29B
  0
DICTIONARY
  5
2A2
330
36
100
AcDbDictionary
280
     1
281
     1
  3
ACAD_XREC_ROUNDTRIP
360
2A3
  0
DICTIONARY
  5
2AA
330
3A
100
AcDbDictionary
280
     1
281
     1
  3
ACAD_XREC_ROUNDTRIP
360
2AB
  0
DICTIONARY
  5
29E
330
34
100
AcDbDictionary
280
     1
281
     1
  3
ACAD_XREC_ROUNDTRIP
360
29F
  0
DICTIONARY
  5
2A0
330
35
100
AcDbDictionary
280
     1
281
     1
  3
ACAD_XREC_ROUNDTRIP
360
2A1
  0
DICTIONARY
  5
2B0
330
3D
100
AcDbDictionary
280
     1
281
     1
  3
ACAD_XREC_ROUNDTRIP
360
2B1
  0
DICTIONARY
  5
2A8
330
39
100
AcDbDictionary
280
     1
281
     1
  3
ACAD_XREC_ROUNDTRIP
360
2A9
  0
DICTIONARY
  5
28C
330
2B
100
AcDbDictionary
280
     1
281
     1
  3
ACAD_XREC_ROUNDTRIP
360
28D
  0
DICTIONARY
  5
28E
330
2C
100
AcDbDictionary
280
     1
281
     1
  3
ACAD_XREC_ROUNDTRIP
360
28F
  0
DICTIONARY
  5
290
330
2D
100
AcDbDictionary
280
     1
281
     1
  3
ACAD_XREC_ROUNDTRIP
360
291
  0
DICTIONARY
  5
292
330
2E
100
AcDbDictionary
280
     1
281
     1
  3
ACAD_XREC_ROUNDTRIP
360
293
  0
DICTIONARY
  5
298
330
31
100
AcDbDictionary
280
     1
281
     1
  3
ACAD_XREC_ROUNDTRIP
360
299
  0
DICTIONARY
  5
2AC
330
3B
100
AcDbDictionary
280
     1
281
     1
  3
ACAD_XREC_ROUNDTRIP
360
2AD
  0
DICTIONARY
  5
2A6
330
38
100
AcDbDictionary
280
     1
281
     1
  3
ACAD_XREC_ROUNDTRIP
360
2A7
  0
DICTIONARY
  5
2AE
330
3C
100
AcDbDictionary
280
     1
281
     1
  3
ACAD_XREC_ROUNDTRIP
360
2AF
  0
DICTIONARY
  5
29C
330
33
100
AcDbDictionary
280
     1
281
     1
  3
ACAD_XREC_ROUNDTRIP
360
29D
  0
DICTIONARY
  5
2BA
330
42
100
AcDbDictionary
280
     1
281
     1
  3
ACAD_XREC_ROUNDTRIP
360
2BB
  0
DICTIONARY
  5
2B8
330
41
100
AcDbDictionary
280
     1
281
     1
  3
ACAD_XREC_ROUNDTRIP
360
2B9
  0
DICTIONARY
  5
2B2
330
3E
100
AcDbDictionary
280
     1
281
     1
  3
ACAD_XREC_ROUNDTRIP
360
2B3
  0
DICTIONARY
  5
2B4
330
3F
100
AcDbDictionary
280
     1
281
     1
  3
ACAD_XREC_ROUNDTRIP
360
2B5
  0
DICTIONARY
  5
2A4
330
37
100
AcDbDictionary
280
     1
281
     1
  3
ACAD_XREC_ROUNDTRIP
360
2A5
  0
DICTIONARY
  5
296
330
30
100
AcDbDictionary
280
     1
281
     1
  3
ACAD_XREC_ROUNDTRIP
360
297
  0
DICTIONARY
  5
2B6
330
40
100
AcDbDictionary
280
     1
281
     1
  3
ACAD_XREC_ROUNDTRIP
360
2B7
  0
XRECORD
  5
2BF
102
{ACAD_REACTORS
330
2BE
102
}
330
2BE
100
AcDbXrecord
280
     1
102
MATERIAL
148
0.0
149
0.0
149
0.0
 93
        0
 94
      127
282
     0
 72
     1
 77
     1
171
     1
175
     1
179
     1
273
     0
  0
XRECORD
  5
2BD
102
{ACAD_REACTORS
330
2BC
102
}
330
2BC
100
AcDbXrecord
280
     1
102
MATERIAL
148
0.0
149
0.0
149
0.0
 93
        0
 94
      127
282
     0
 72
     1
 77
     1
171
     1
175
     1
179
     1
273
     0
  0
XRECORD
  5
2C1
102
{ACAD_REACTORS
330
2C0
102
}
330
2C0
100
AcDbXrecord
280
     1
102
MATERIAL
148
0.0
149
0.0
149
0.0
 93
        0
 94
      127
282
     0
 72
     1
 77
     1
171
     1
175
     1
179
     1
273
     0
  0
XRECORD
  5
295
102
{ACAD_REACTORS
330
294
102
}
330
294
100
AcDbXrecord
280
     1
102
RTVSPropertyOp0
 70
     1
102
RTVSPropertyOp1
 70
     1
102
RTVSPropertyOp2
 70
     1
102
RTVSPropertyOp3
 70
     1
102
RTVSPropertyOp4
 70
     1
102
RTVSPropertyOp5
 70
     1
102
RTVSPropertyOp6
 70
     1
102
RTVSPropertyOp7
 70
     1
102
RTVSPropertyOp8
 70
     1
102
RTVSPropertyOp9
 70
     1
102
RTVSPropertyOp10
 70
     1
102
RTVSPropertyOp11
 70
     1
102
RTVSPropertyOp12
 70
     1
102
RTVSPropertyOp13
 70
     1
102
RTVSPropertyOp14
 70
     1
102
RTVSPropertyOp15
 70
     1
102
RTVSPropertyOp16
 70
     1
102
RTVSPropertyOp17
 70
     1
102
RTVSPropertyOp18
 70
     1
102
RTVSPropertyOp19
 70
     1
102
RTVSPropertyOp20
 70
     1
102
RTVSPropertyOp21
 70
     1
102
RTVSPropertyOp22
 70
     1
102
RTVSPropertyOp23
 70
     1
102
RTVSPropertyOp24
 70
     1
102
RTVSPropertyOp25
 70
     1
102
RTVSPropertyOp26
 70
     1
102
RTVSPropertyOp27
 70
     1
102
RTVSPropertyOp28
 70
     1
102
RTVSPropertyOp29
 70
     1
102
RTVSPropertyOp30
 70
     1
102
RTVSPropertyOp31
 70
     1
102
RTVSPropertyOp32
 70
     1
102
RTVSPropertyOp33
 70
     1
102
RTVSPropertyOp34
 70
     1
102
RTVSPropertyOp35
 70
     1
102
RTVSPropertyOp36
 70
     1
102
RTVSPropertyOp37
 70
     1
102
RTVSPropertyOp38
 70
     1
102
RTVSPropertyOp39
 70
     1
102
RTVSPropertyOp40
 70
     1
102
RTVSPropertyOp41
 70
     1
102
RTVSPropertyOp42
 70
     1
102
RTVSPropertyOp43
 70
     1
102
RTVSPropertyOp44
 70
     1
102
RTVSPropertyOp45
 70
     1
102
RTVSPropertyOp46
 70
     1
102
RTVSPropertyOp47
 70
     1
102
RTVSPropertyOp48
 70
     1
102
RTVSPropertyOp49
 70
     1
102
RTVSPropertyOp50
 70
     1
102
RTVSPropertyOp51
 70
     0
102
RTVSPropertyOp52
 70
     0
102
RTVSPropertyOp53
 70
     1
102
RTVSPropertyOp54
 70
     1
102
RTVSPropertyOp55
 70
     1
102
RTVSPropertyOp56
 70
     1
102
RTVSPropertyOp57
 70
     1
102
RTVSPost2010Prop28
280
     1
102
RTVSPost2010PropOp28
 70
     1
102
RTVSPost2010Prop29
280
     1
102
RTVSPost2010PropOp29
 70
     1
102
RTVSPost2010Prop30
280
     0
102
RTVSPost2010PropOp30
 70
     1
102
RTVSPost2010Prop31
280
     0
102
RTVSPost2010PropOp31
 70
     1
102
RTVSPost2010Prop32
280
     0
102
RTVSPost2010PropOp32
 70
     1
102
RTVSPost2010Prop33
280
     0
102
RTVSPost2010PropOp33
 70
     1
102
RTVSPost2010Prop34
280
     0
102
RTVSPost2010PropOp34
 70
     1
102
RTVSPost2010Prop35
280
     0
102
RTVSPost2010PropOp35
 70
     1
102
RTVSPost2010Prop36
280
     0
102
RTVSPost2010PropOp36
 70
     1
102
RTVSPost2010Prop37
 90
       50
102
RTVSPost2010PropOp37
 70
     1
102
RTVSPost2010Prop38
140
0.0
102
RTVSPost2010PropOp38
 70
     1
102
RTVSPost2010Prop39
140
1.0
102
RTVSPost2010PropOp39
 70
     1
102
RTVSPost2010Prop40
 90
        0
102
RTVSPost2010PropOp40
 70
     1
102
RTVSPost2010Prop41ColorIndex
 90
       18
102
RTVSPost2010Prop41ColorRGB
 90
        0
102
RTVSPost2010PropOp41
 70
     1
102
RTVSPost2010Prop42
 90
       50
102
RTVSPost2010PropOp42
 70
     1
102
RTVSPost2010Prop43
 90
        3
102
RTVSPost2010PropOp43
 70
     1
102
RTVSPost2010Prop44ColorIndex
 90
        5
102
RTVSPost2010Prop44ColorRGB
 90
      255
102
RTVSPost2010PropOp44
 70
     1
102
RTVSPost2010Prop45
280
     0
102
RTVSPost2010PropOp45
 70
     1
102
RTVSPost2010Prop46
 90
       50
102
RTVSPost2010PropOp46
 70
     1
102
RTVSPost2010Prop47
 90
       50
102
RTVSPost2010PropOp47
 70
     1
102
RTVSPost2010Prop48
 90
       50
102
RTVSPost2010PropOp48
 70
     1
102
RTVSPost2010Prop49
280
     0
102
RTVSPost2010PropOp49
 70
     1
102
RTVSPost2010Prop50
 90
       50
102
RTVSPost2010PropOp50
 70
     1
102
RTVSPost2010Prop51ColorIndex
 90
      256
102
RTVSPost2010Prop51ColorRGB
 90
-16777216
102
RTVSPost2010PropOp51
 70
     0
102
RTVSPost2010Prop52
140
1.0
102
RTVSPost2010PropOp52
 70
     0
102
RTVSPost2010Prop53
 90
        2
102
RTVSPost2010PropOp53
 70
     1
102
RTVSPost2010Prop54
  1
strokes_ogs.tif
102
RTVSPost2010PropOp54
 70
     1
102
RTVSPost2010Prop55
280
     0
102
RTVSPost2010PropOp55
 70
     1
102
RTVSPost2010Prop56
140
1.0
102
RTVSPost2010PropOp56
 70
     1
102
RTVSPost2010Prop57
140
1.0
102
RTVSPost2010PropOp57
 70
     1
  0
XRECORD
  5
29B
102
{ACAD_REACTORS
330
29A
102
}
330
29A
100
AcDbXrecord
280
     1
102
RTVSPropertyOp0
 70
     1
102
RTVSPropertyOp1
 70
     1
102
RTVSPropertyOp2
 70
     1
102
RTVSPropertyOp3
 70
     1
102
RTVSPropertyOp4
 70
     1
102
RTVSPropertyOp5
 70
     1
102
RTVSPropertyOp6
 70
     1
102
RTVSPropertyOp7
 70
     1
102
RTVSPropertyOp8
 70
     1
102
RTVSPropertyOp9
 70
     1
102
RTVSPropertyOp10
 70
     1
102
RTVSPropertyOp11
 70
     1
102
RTVSPropertyOp12
 70
     1
102
RTVSPropertyOp13
 70
     1
102
RTVSPropertyOp14
 70
     1
102
RTVSPropertyOp15
 70
     1
102
RTVSPropertyOp16
 70
     1
102
RTVSPropertyOp17
 70
     1
102
RTVSPropertyOp18
 70
     1
102
RTVSPropertyOp19
 70
     1
102
RTVSPropertyOp20
 70
     1
102
RTVSPropertyOp21
 70
     1
102
RTVSPropertyOp22
 70
     1
102
RTVSPropertyOp23
 70
     1
102
RTVSPropertyOp24
 70
     1
102
RTVSPropertyOp25
 70
     1
102
RTVSPropertyOp26
 70
     1
102
RTVSPropertyOp27
 70
     1
102
RTVSPropertyOp28
 70
     1
102
RTVSPropertyOp29
 70
     1
102
RTVSPropertyOp30
 70
     1
102
RTVSPropertyOp31
 70
     1
102
RTVSPropertyOp32
 70
     1
102
RTVSPropertyOp33
 70
     1
102
RTVSPropertyOp34
 70
     1
102
RTVSPropertyOp35
 70
     1
102
RTVSPropertyOp36
 70
     1
102
RTVSPropertyOp37
 70
     1
102
RTVSPropertyOp38
 70
     1
102
RTVSPropertyOp39
 70
     1
102
RTVSPropertyOp40
 70
     1
102
RTVSPropertyOp41
 70
     1
102
RTVSPropertyOp42
 70
     1
102
RTVSPropertyOp43
 70
     1
102
RTVSPropertyOp44
 70
     1
102
RTVSPropertyOp45
 70
     1
102
RTVSPropertyOp46
 70
     1
102
RTVSPropertyOp47
 70
     1
102
RTVSPropertyOp48
 70
     1
102
RTVSPropertyOp49
 70
     1
102
RTVSPropertyOp50
 70
     1
102
RTVSPropertyOp51
 70
     0
102
RTVSPropertyOp52
 70
     0
102
RTVSPropertyOp53
 70
     1
102
RTVSPropertyOp54
 70
     1
102
RTVSPropertyOp55
 70
     1
102
RTVSPropertyOp56
 70
     1
102
RTVSPropertyOp57
 70
     1
102
RTVSPost2010Prop28
280
     0
102
RTVSPost2010PropOp28
 70
     1
102
RTVSPost2010Prop29
280
     1
102
RTVSPost2010PropOp29
 70
     1
102
RTVSPost2010Prop30
280
     1
102
RTVSPost2010PropOp30
 70
     1
102
RTVSPost2010Prop31
280
     0
102
RTVSPost2010PropOp31
 70
     1
102
RTVSPost2010Prop32
280
     0
102
RTVSPost2010PropOp32
 70
     1
102
RTVSPost2010Prop33
280
     0
102
RTVSPost2010PropOp33
 70
     1
102
RTVSPost2010Prop34
280
     0
102
RTVSPost2010PropOp34
 70
     1
102
RTVSPost2010Prop35
280
     0
102
RTVSPost2010PropOp35
 70
     1
102
RTVSPost2010Prop36
280
     0
102
RTVSPost2010PropOp36
 70
     1
102
RTVSPost2010Prop37
 90
       50
102
RTVSPost2010PropOp37
 70
     1
102
RTVSPost2010Prop38
140
0.0
102
RTVSPost2010PropOp38
 70
     1
102
RTVSPost2010Prop39
140
1.0
102
RTVSPost2010PropOp39
 70
     1
102
RTVSPost2010Prop40
 90
        0
102
RTVSPost2010PropOp40
 70
     1
102
RTVSPost2010Prop41ColorIndex
 90
       18
102
RTVSPost2010Prop41ColorRGB
 90
        0
102
RTVSPost2010PropOp41
 70
     1
102
RTVSPost2010Prop42
 90
       50
102
RTVSPost2010PropOp42
 70
     1
102
RTVSPost2010Prop43
 90
        3
102
RTVSPost2010PropOp43
 70
     1
102
RTVSPost2010Prop44ColorIndex
 90
        5
102
RTVSPost2010Prop44ColorRGB
 90
      255
102
RTVSPost2010PropOp44
 70
     1
102
RTVSPost2010Prop45
280
     0
102
RTVSPost2010PropOp45
 70
     1
102
RTVSPost2010Prop46
 90
       50
102
RTVSPost2010PropOp46
 70
     1
102
RTVSPost2010Prop47
 90
       50
102
RTVSPost2010PropOp47
 70
     1
102
RTVSPost2010Prop48
 90
       50
102
RTVSPost2010PropOp48
 70
     1
102
RTVSPost2010Prop49
280
     0
102
RTVSPost2010PropOp49
 70
     1
102
RTVSPost2010Prop50
 90
       50
102
RTVSPost2010PropOp50
 70
     1
102
RTVSPost2010Prop51ColorIndex
 90
      256
102
RTVSPost2010Prop51ColorRGB
 90
-16777216
102
RTVSPost2010PropOp51
 70
     0
102
RTVSPost2010Prop52
140
1.0
102
RTVSPost2010PropOp52
 70
     0
102
RTVSPost2010Prop53
 90
        2
102
RTVSPost2010PropOp53
 70
     1
102
RTVSPost2010Prop54
  1
strokes_ogs.tif
102
RTVSPost2010PropOp54
 70
     1
102
RTVSPost2010Prop55
280
     0
102
RTVSPost2010PropOp55
 70
     1
102
RTVSPost2010Prop56
140
1.0
102
RTVSPost2010PropOp56
 70
     1
102
RTVSPost2010Prop57
140
1.0
102
RTVSPost2010PropOp57
 70
     1
  0
XRECORD
  5
2A3
102
{ACAD_REACTORS
330
2A2
102
}
330
2A2
100
AcDbXrecord
280
     1
102
RTVSPropertyOp0
 70
     1
102
RTVSPropertyOp1
 70
     1
102
RTVSPropertyOp2
 70
     1
102
RTVSPropertyOp3
 70
     1
102
RTVSPropertyOp4
 70
     1
102
RTVSPropertyOp5
 70
     1
102
RTVSPropertyOp6
 70
     1
102
RTVSPropertyOp7
 70
     1
102
RTVSPropertyOp8
 70
     1
102
RTVSPropertyOp9
 70
     1
102
RTVSPropertyOp10
 70
     1
102
RTVSPropertyOp11
 70
     1
102
RTVSPropertyOp12
 70
     1
102
RTVSPropertyOp13
 70
     1
102
RTVSPropertyOp14
 70
     1
102
RTVSPropertyOp15
 70
     1
102
RTVSPropertyOp16
 70
     1
102
RTVSPropertyOp17
 70
     1
102
RTVSPropertyOp18
 70
     1
102
RTVSPropertyOp19
 70
     1
102
RTVSPropertyOp20
 70
     1
102
RTVSPropertyOp21
 70
     1
102
RTVSPropertyOp22
 70
     1
102
RTVSPropertyOp23
 70
     1
102
RTVSPropertyOp24
 70
     1
102
RTVSPropertyOp25
 70
     1
102
RTVSPropertyOp26
 70
     1
102
RTVSPropertyOp27
 70
     1
102
RTVSPropertyOp28
 70
     1
102
RTVSPropertyOp29
 70
     1
102
RTVSPropertyOp30
 70
     1
102
RTVSPropertyOp31
 70
     1
102
RTVSPropertyOp32
 70
     1
102
RTVSPropertyOp33
 70
     1
102
RTVSPropertyOp34
 70
     1
102
RTVSPropertyOp35
 70
     1
102
RTVSPropertyOp36
 70
     1
102
RTVSPropertyOp37
 70
     1
102
RTVSPropertyOp38
 70
     1
102
RTVSPropertyOp39
 70
     1
102
RTVSPropertyOp40
 70
     1
102
RTVSPropertyOp41
 70
     1
102
RTVSPropertyOp42
 70
     1
102
RTVSPropertyOp43
 70
     1
102
RTVSPropertyOp44
 70
     1
102
RTVSPropertyOp45
 70
     1
102
RTVSPropertyOp46
 70
     1
102
RTVSPropertyOp47
 70
     1
102
RTVSPropertyOp48
 70
     1
102
RTVSPropertyOp49
 70
     1
102
RTVSPropertyOp50
 70
     1
102
RTVSPropertyOp51
 70
     0
102
RTVSPropertyOp52
 70
     0
102
RTVSPropertyOp53
 70
     1
102
RTVSPropertyOp54
 70
     1
102
RTVSPropertyOp55
 70
     1
102
RTVSPropertyOp56
 70
     1
102
RTVSPropertyOp57
 70
     1
102
RTVSPost2010Prop28
280
     0
102
RTVSPost2010PropOp28
 70
     1
102
RTVSPost2010Prop29
280
     1
102
RTVSPost2010PropOp29
 70
     1
102
RTVSPost2010Prop30
280
     1
102
RTVSPost2010PropOp30
 70
     1
102
RTVSPost2010Prop31
280
     0
102
RTVSPost2010PropOp31
 70
     1
102
RTVSPost2010Prop32
280
     0
102
RTVSPost2010PropOp32
 70
     1
102
RTVSPost2010Prop33
280
     0
102
RTVSPost2010PropOp33
 70
     1
102
RTVSPost2010Prop34
280
     0
102
RTVSPost2010PropOp34
 70
     1
102
RTVSPost2010Prop35
280
     0
102
RTVSPost2010PropOp35
 70
     1
102
RTVSPost2010Prop36
280
     0
102
RTVSPost2010PropOp36
 70
     1
102
RTVSPost2010Prop37
 90
       50
102
RTVSPost2010PropOp37
 70
     1
102
RTVSPost2010Prop38
140
0.0
102
RTVSPost2010PropOp38
 70
     1
102
RTVSPost2010Prop39
140
1.0
102
RTVSPost2010PropOp39
 70
     1
102
RTVSPost2010Prop40
 90
        0
102
RTVSPost2010PropOp40
 70
     1
102
RTVSPost2010Prop41ColorIndex
 90
       18
102
RTVSPost2010Prop41ColorRGB
 90
        0
102
RTVSPost2010PropOp41
 70
     1
102
RTVSPost2010Prop42
 90
       50
102
RTVSPost2010PropOp42
 70
     1
102
RTVSPost2010Prop43
 90
        3
102
RTVSPost2010PropOp43
 70
     1
102
RTVSPost2010Prop44ColorIndex
 90
        5
102
RTVSPost2010Prop44ColorRGB
 90
      255
102
RTVSPost2010PropOp44
 70
     1
102
RTVSPost2010Prop45
280
     0
102
RTVSPost2010PropOp45
 70
     1
102
RTVSPost2010Prop46
 90
       50
102
RTVSPost2010PropOp46
 70
     1
102
RTVSPost2010Prop47
 90
       50
102
RTVSPost2010PropOp47
 70
     1
102
RTVSPost2010Prop48
 90
       50
102
RTVSPost2010PropOp48
 70
     1
102
RTVSPost2010Prop49
280
     0
102
RTVSPost2010PropOp49
 70
     1
102
RTVSPost2010Prop50
 90
       50
102
RTVSPost2010PropOp50
 70
     1
102
RTVSPost2010Prop51ColorIndex
 90
      256
102
RTVSPost2010Prop51ColorRGB
 90
-16777216
102
RTVSPost2010PropOp51
 70
     0
102
RTVSPost2010Prop52
140
1.0
102
RTVSPost2010PropOp52
 70
     0
102
RTVSPost2010Prop53
 90
        2
102
RTVSPost2010PropOp53
 70
     1
102
RTVSPost2010Prop54
  1
strokes_ogs.tif
102
RTVSPost2010PropOp54
 70
     1
102
RTVSPost2010Prop55
280
     0
102
RTVSPost2010PropOp55
 70
     1
102
RTVSPost2010Prop56
140
1.0
102
RTVSPost2010PropOp56
 70
     1
102
RTVSPost2010Prop57
140
1.0
102
RTVSPost2010PropOp57
 70
     1
  0
XRECORD
  5
2AB
102
{ACAD_REACTORS
330
2AA
102
}
330
2AA
100
AcDbXrecord
280
     1
102
RTVSPropertyOp0
 70
     1
102
RTVSPropertyOp1
 70
     1
102
RTVSPropertyOp2
 70
     1
102
RTVSPropertyOp3
 70
     1
102
RTVSPropertyOp4
 70
     1
102
RTVSPropertyOp5
 70
     1
102
RTVSPropertyOp6
 70
     1
102
RTVSPropertyOp7
 70
     1
102
RTVSPropertyOp8
 70
     1
102
RTVSPropertyOp9
 70
     1
102
RTVSPropertyOp10
 70
     1
102
RTVSPropertyOp11
 70
     1
102
RTVSPropertyOp12
 70
     1
102
RTVSPropertyOp13
 70
     1
102
RTVSPropertyOp14
 70
     1
102
RTVSPropertyOp15
 70
     1
102
RTVSPropertyOp16
 70
     1
102
RTVSPropertyOp17
 70
     1
102
RTVSPropertyOp18
 70
     1
102
RTVSPropertyOp19
 70
     1
102
RTVSPropertyOp20
 70
     1
102
RTVSPropertyOp21
 70
     1
102
RTVSPropertyOp22
 70
     1
102
RTVSPropertyOp23
 70
     1
102
RTVSPropertyOp24
 70
     1
102
RTVSPropertyOp25
 70
     1
102
RTVSPropertyOp26
 70
     1
102
RTVSPropertyOp27
 70
     1
102
RTVSPropertyOp28
 70
     1
102
RTVSPropertyOp29
 70
     1
102
RTVSPropertyOp30
 70
     1
102
RTVSPropertyOp31
 70
     1
102
RTVSPropertyOp32
 70
     1
102
RTVSPropertyOp33
 70
     1
102
RTVSPropertyOp34
 70
     1
102
RTVSPropertyOp35
 70
     1
102
RTVSPropertyOp36
 70
     1
102
RTVSPropertyOp37
 70
     1
102
RTVSPropertyOp38
 70
     1
102
RTVSPropertyOp39
 70
     1
102
RTVSPropertyOp40
 70
     1
102
RTVSPropertyOp41
 70
     1
102
RTVSPropertyOp42
 70
     1
102
RTVSPropertyOp43
 70
     1
102
RTVSPropertyOp44
 70
     1
102
RTVSPropertyOp45
 70
     1
102
RTVSPropertyOp46
 70
     1
102
RTVSPropertyOp47
 70
     1
102
RTVSPropertyOp48
 70
     1
102
RTVSPropertyOp49
 70
     1
102
RTVSPropertyOp50
 70
     1
102
RTVSPropertyOp51
 70
     0
102
RTVSPropertyOp52
 70
     0
102
RTVSPropertyOp53
 70
     1
102
RTVSPropertyOp54
 70
     1
102
RTVSPropertyOp55
 70
     1
102
RTVSPropertyOp56
 70
     1
102
RTVSPropertyOp57
 70
     1
102
RTVSPost2010Prop28
280
     0
102
RTVSPost2010PropOp28
 70
     1
102
RTVSPost2010Prop29
280
     1
102
RTVSPost2010PropOp29
 70
     1
102
RTVSPost2010Prop30
280
     1
102
RTVSPost2010PropOp30
 70
     1
102
RTVSPost2010Prop31
280
     0
102
RTVSPost2010PropOp31
 70
     1
102
RTVSPost2010Prop32
280
     0
102
RTVSPost2010PropOp32
 70
     1
102
RTVSPost2010Prop33
280
     0
102
RTVSPost2010PropOp33
 70
     1
102
RTVSPost2010Prop34
280
     0
102
RTVSPost2010PropOp34
 70
     1
102
RTVSPost2010Prop35
280
     0
102
RTVSPost2010PropOp35
 70
     1
102
RTVSPost2010Prop36
280
     0
102
RTVSPost2010PropOp36
 70
     1
102
RTVSPost2010Prop37
 90
       50
102
RTVSPost2010PropOp37
 70
     1
102
RTVSPost2010Prop38
140
0.0
102
RTVSPost2010PropOp38
 70
     1
102
RTVSPost2010Prop39
140
1.0
102
RTVSPost2010PropOp39
 70
     1
102
RTVSPost2010Prop40
 90
        0
102
RTVSPost2010PropOp40
 70
     1
102
RTVSPost2010Prop41ColorIndex
 90
       18
102
RTVSPost2010Prop41ColorRGB
 90
        0
102
RTVSPost2010PropOp41
 70
     1
102
RTVSPost2010Prop42
 90
       50
102
RTVSPost2010PropOp42
 70
     1
102
RTVSPost2010Prop43
 90
        3
102
RTVSPost2010PropOp43
 70
     1
102
RTVSPost2010Prop44ColorIndex
 90
        5
102
RTVSPost2010Prop44ColorRGB
 90
      255
102
RTVSPost2010PropOp44
 70
     1
102
RTVSPost2010Prop45
280
     0
102
RTVSPost2010PropOp45
 70
     1
102
RTVSPost2010Prop46
 90
       50
102
RTVSPost2010PropOp46
 70
     1
102
RTVSPost2010Prop47
 90
       50
102
RTVSPost2010PropOp47
 70
     1
102
RTVSPost2010Prop48
 90
       50
102
RTVSPost2010PropOp48
 70
     1
102
RTVSPost2010Prop49
280
     0
102
RTVSPost2010PropOp49
 70
     1
102
RTVSPost2010Prop50
 90
       50
102
RTVSPost2010PropOp50
 70
     1
102
RTVSPost2010Prop51ColorIndex
 90
      256
102
RTVSPost2010Prop51ColorRGB
 90
-16777216
102
RTVSPost2010PropOp51
 70
     0
102
RTVSPost2010Prop52
140
1.0
102
RTVSPost2010PropOp52
 70
     0
102
RTVSPost2010Prop53
 90
        2
102
RTVSPost2010PropOp53
 70
     1
102
RTVSPost2010Prop54
  1
strokes_ogs.tif
102
RTVSPost2010PropOp54
 70
     1
102
RTVSPost2010Prop55
280
     0
102
RTVSPost2010PropOp55
 70
     1
102
RTVSPost2010Prop56
140
1.0
102
RTVSPost2010PropOp56
 70
     1
102
RTVSPost2010Prop57
140
1.0
102
RTVSPost2010PropOp57
 70
     1
  0
XRECORD
  5
29F
102
{ACAD_REACTORS
330
29E
102
}
330
29E
100
AcDbXrecord
280
     1
102
RTVSPropertyOp0
 70
     1
102
RTVSPropertyOp1
 70
     1
102
RTVSPropertyOp2
 70
     1
102
RTVSPropertyOp3
 70
     1
102
RTVSPropertyOp4
 70
     1
102
RTVSPropertyOp5
 70
     1
102
RTVSPropertyOp6
 70
     1
102
RTVSPropertyOp7
 70
     1
102
RTVSPropertyOp8
 70
     1
102
RTVSPropertyOp9
 70
     1
102
RTVSPropertyOp10
 70
     1
102
RTVSPropertyOp11
 70
     1
102
RTVSPropertyOp12
 70
     1
102
RTVSPropertyOp13
 70
     1
102
RTVSPropertyOp14
 70
     1
102
RTVSPropertyOp15
 70
     1
102
RTVSPropertyOp16
 70
     1
102
RTVSPropertyOp17
 70
     1
102
RTVSPropertyOp18
 70
     1
102
RTVSPropertyOp19
 70
     1
102
RTVSPropertyOp20
 70
     1
102
RTVSPropertyOp21
 70
     1
102
RTVSPropertyOp22
 70
     1
102
RTVSPropertyOp23
 70
     1
102
RTVSPropertyOp24
 70
     1
102
RTVSPropertyOp25
 70
     1
102
RTVSPropertyOp26
 70
     1
102
RTVSPropertyOp27
 70
     1
102
RTVSPropertyOp28
 70
     1
102
RTVSPropertyOp29
 70
     1
102
RTVSPropertyOp30
 70
     1
102
RTVSPropertyOp31
 70
     1
102
RTVSPropertyOp32
 70
     1
102
RTVSPropertyOp33
 70
     1
102
RTVSPropertyOp34
 70
     1
102
RTVSPropertyOp35
 70
     1
102
RTVSPropertyOp36
 70
     1
102
RTVSPropertyOp37
 70
     1
102
RTVSPropertyOp38
 70
     1
102
RTVSPropertyOp39
 70
     1
102
RTVSPropertyOp40
 70
     1
102
RTVSPropertyOp41
 70
     1
102
RTVSPropertyOp42
 70
     1
102
RTVSPropertyOp43
 70
     1
102
RTVSPropertyOp44
 70
     1
102
RTVSPropertyOp45
 70
     1
102
RTVSPropertyOp46
 70
     1
102
RTVSPropertyOp47
 70
     1
102
RTVSPropertyOp48
 70
     1
102
RTVSPropertyOp49
 70
     1
102
RTVSPropertyOp50
 70
     1
102
RTVSPropertyOp51
 70
     0
102
RTVSPropertyOp52
 70
     0
102
RTVSPropertyOp53
 70
     1
102
RTVSPropertyOp54
 70
     1
102
RTVSPropertyOp55
 70
     1
102
RTVSPropertyOp56
 70
     1
102
RTVSPropertyOp57
 70
     1
102
RTVSPost2010Prop28
280
     0
102
RTVSPost2010PropOp28
 70
     1
102
RTVSPost2010Prop29
280
     1
102
RTVSPost2010PropOp29
 70
     1
102
RTVSPost2010Prop30
280
     1
102
RTVSPost2010PropOp30
 70
     1
102
RTVSPost2010Prop31
280
     0
102
RTVSPost2010PropOp31
 70
     1
102
RTVSPost2010Prop32
280
     0
102
RTVSPost2010PropOp32
 70
     1
102
RTVSPost2010Prop33
280
     0
102
RTVSPost2010PropOp33
 70
     1
102
RTVSPost2010Prop34
280
     0
102
RTVSPost2010PropOp34
 70
     1
102
RTVSPost2010Prop35
280
     0
102
RTVSPost2010PropOp35
 70
     1
102
RTVSPost2010Prop36
280
     0
102
RTVSPost2010PropOp36
 70
     1
102
RTVSPost2010Prop37
 90
       50
102
RTVSPost2010PropOp37
 70
     1
102
RTVSPost2010Prop38
140
0.0
102
RTVSPost2010PropOp38
 70
     1
102
RTVSPost2010Prop39
140
1.0
102
RTVSPost2010PropOp39
 70
     1
102
RTVSPost2010Prop40
 90
        0
102
RTVSPost2010PropOp40
 70
     1
102
RTVSPost2010Prop41ColorIndex
 90
       18
102
RTVSPost2010Prop41ColorRGB
 90
        0
102
RTVSPost2010PropOp41
 70
     1
102
RTVSPost2010Prop42
 90
       50
102
RTVSPost2010PropOp42
 70
     1
102
RTVSPost2010Prop43
 90
        3
102
RTVSPost2010PropOp43
 70
     1
102
RTVSPost2010Prop44ColorIndex
 90
        5
102
RTVSPost2010Prop44ColorRGB
 90
      255
102
RTVSPost2010PropOp44
 70
     1
102
RTVSPost2010Prop45
280
     0
102
RTVSPost2010PropOp45
 70
     1
102
RTVSPost2010Prop46
 90
       50
102
RTVSPost2010PropOp46
 70
     1
102
RTVSPost2010Prop47
 90
       50
102
RTVSPost2010PropOp47
 70
     1
102
RTVSPost2010Prop48
 90
       50
102
RTVSPost2010PropOp48
 70
     1
102
RTVSPost2010Prop49
280
     0
102
RTVSPost2010PropOp49
 70
     1
102
RTVSPost2010Prop50
 90
       50
102
RTVSPost2010PropOp50
 70
     1
102
RTVSPost2010Prop51ColorIndex
 90
      256
102
RTVSPost2010Prop51ColorRGB
 90
-16777216
102
RTVSPost2010PropOp51
 70
     0
102
RTVSPost2010Prop52
140
1.0
102
RTVSPost2010PropOp52
 70
     0
102
RTVSPost2010Prop53
 90
        2
102
RTVSPost2010PropOp53
 70
     1
102
RTVSPost2010Prop54
  1
strokes_ogs.tif
102
RTVSPost2010PropOp54
 70
     1
102
RTVSPost2010Prop55
280
     0
102
RTVSPost2010PropOp55
 70
     1
102
RTVSPost2010Prop56
140
1.0
102
RTVSPost2010PropOp56
 70
     1
102
RTVSPost2010Prop57
140
1.0
102
RTVSPost2010PropOp57
 70
     1
  0
XRECORD
  5
2A1
102
{ACAD_REACTORS
330
2A0
102
}
330
2A0
100
AcDbXrecord
280
     1
102
RTVSPropertyOp0
 70
     1
102
RTVSPropertyOp1
 70
     1
102
RTVSPropertyOp2
 70
     1
102
RTVSPropertyOp3
 70
     1
102
RTVSPropertyOp4
 70
     1
102
RTVSPropertyOp5
 70
     1
102
RTVSPropertyOp6
 70
     1
102
RTVSPropertyOp7
 70
     1
102
RTVSPropertyOp8
 70
     1
102
RTVSPropertyOp9
 70
     1
102
RTVSPropertyOp10
 70
     1
102
RTVSPropertyOp11
 70
     1
102
RTVSPropertyOp12
 70
     1
102
RTVSPropertyOp13
 70
     1
102
RTVSPropertyOp14
 70
     1
102
RTVSPropertyOp15
 70
     1
102
RTVSPropertyOp16
 70
     1
102
RTVSPropertyOp17
 70
     1
102
RTVSPropertyOp18
 70
     1
102
RTVSPropertyOp19
 70
     1
102
RTVSPropertyOp20
 70
     1
102
RTVSPropertyOp21
 70
     1
102
RTVSPropertyOp22
 70
     1
102
RTVSPropertyOp23
 70
     1
102
RTVSPropertyOp24
 70
     1
102
RTVSPropertyOp25
 70
     1
102
RTVSPropertyOp26
 70
     1
102
RTVSPropertyOp27
 70
     1
102
RTVSPropertyOp28
 70
     1
102
RTVSPropertyOp29
 70
     1
102
RTVSPropertyOp30
 70
     1
102
RTVSPropertyOp31
 70
     1
102
RTVSPropertyOp32
 70
     1
102
RTVSPropertyOp33
 70
     1
102
RTVSPropertyOp34
 70
     1
102
RTVSPropertyOp35
 70
     1
102
RTVSPropertyOp36
 70
     1
102
RTVSPropertyOp37
 70
     1
102
RTVSPropertyOp38
 70
     1
102
RTVSPropertyOp39
 70
     1
102
RTVSPropertyOp40
 70
     1
102
RTVSPropertyOp41
 70
     1
102
RTVSPropertyOp42
 70
     1
102
RTVSPropertyOp43
 70
     1
102
RTVSPropertyOp44
 70
     1
102
RTVSPropertyOp45
 70
     1
102
RTVSPropertyOp46
 70
     1
102
RTVSPropertyOp47
 70
     1
102
RTVSPropertyOp48
 70
     1
102
RTVSPropertyOp49
 70
     1
102
RTVSPropertyOp50
 70
     1
102
RTVSPropertyOp51
 70
     0
102
RTVSPropertyOp52
 70
     0
102
RTVSPropertyOp53
 70
     1
102
RTVSPropertyOp54
 70
     1
102
RTVSPropertyOp55
 70
     1
102
RTVSPropertyOp56
 70
     1
102
RTVSPropertyOp57
 70
     1
102
RTVSPost2010Prop28
280
     0
102
RTVSPost2010PropOp28
 70
     1
102
RTVSPost2010Prop29
280
     1
102
RTVSPost2010PropOp29
 70
     1
102
RTVSPost2010Prop30
280
     1
102
RTVSPost2010PropOp30
 70
     1
102
RTVSPost2010Prop31
280
     0
102
RTVSPost2010PropOp31
 70
     1
102
RTVSPost2010Prop32
280
     0
102
RTVSPost2010PropOp32
 70
     1
102
RTVSPost2010Prop33
280
     0
102
RTVSPost2010PropOp33
 70
     1
102
RTVSPost2010Prop34
280
     0
102
RTVSPost2010PropOp34
 70
     1
102
RTVSPost2010Prop35
280
     0
102
RTVSPost2010PropOp35
 70
     1
102
RTVSPost2010Prop36
280
     0
102
RTVSPost2010PropOp36
 70
     1
102
RTVSPost2010Prop37
 90
       50
102
RTVSPost2010PropOp37
 70
     1
102
RTVSPost2010Prop38
140
0.0
102
RTVSPost2010PropOp38
 70
     1
102
RTVSPost2010Prop39
140
1.0
102
RTVSPost2010PropOp39
 70
     1
102
RTVSPost2010Prop40
 90
        0
102
RTVSPost2010PropOp40
 70
     1
102
RTVSPost2010Prop41ColorIndex
 90
       18
102
RTVSPost2010Prop41ColorRGB
 90
        0
102
RTVSPost2010PropOp41
 70
     1
102
RTVSPost2010Prop42
 90
       50
102
RTVSPost2010PropOp42
 70
     1
102
RTVSPost2010Prop43
 90
        3
102
RTVSPost2010PropOp43
 70
     1
102
RTVSPost2010Prop44ColorIndex
 90
        5
102
RTVSPost2010Prop44ColorRGB
 90
      255
102
RTVSPost2010PropOp44
 70
     1
102
RTVSPost2010Prop45
280
     0
102
RTVSPost2010PropOp45
 70
     1
102
RTVSPost2010Prop46
 90
       50
102
RTVSPost2010PropOp46
 70
     1
102
RTVSPost2010Prop47
 90
       50
102
RTVSPost2010PropOp47
 70
     1
102
RTVSPost2010Prop48
 90
       50
102
RTVSPost2010PropOp48
 70
     1
102
RTVSPost2010Prop49
280
     0
102
RTVSPost2010PropOp49
 70
     1
102
RTVSPost2010Prop50
 90
       50
102
RTVSPost2010PropOp50
 70
     1
102
RTVSPost2010Prop51ColorIndex
 90
      256
102
RTVSPost2010Prop51ColorRGB
 90
-16777216
102
RTVSPost2010PropOp51
 70
     0
102
RTVSPost2010Prop52
140
1.0
102
RTVSPost2010PropOp52
 70
     0
102
RTVSPost2010Prop53
 90
        2
102
RTVSPost2010PropOp53
 70
     1
102
RTVSPost2010Prop54
  1
strokes_ogs.tif
102
RTVSPost2010PropOp54
 70
     1
102
RTVSPost2010Prop55
280
     0
102
RTVSPost2010PropOp55
 70
     1
102
RTVSPost2010Prop56
140
1.0
102
RTVSPost2010PropOp56
 70
     1
102
RTVSPost2010Prop57
140
1.0
102
RTVSPost2010PropOp57
 70
     1
  0
XRECORD
  5
2B1
102
{ACAD_REACTORS
330
2B0
102
}
330
2B0
100
AcDbXrecord
280
     1
102
RTVSPropertyOp0
 70
     0
102
RTVSPropertyOp1
 70
     0
102
RTVSPropertyOp2
 70
     0
102
RTVSPropertyOp3
 70
     0
102
RTVSPropertyOp4
 70
     0
102
RTVSPropertyOp5
 70
     0
102
RTVSPropertyOp6
 70
     0
102
RTVSPropertyOp7
 70
     0
102
RTVSPropertyOp8
 70
     0
102
RTVSPropertyOp9
 70
     0
102
RTVSPropertyOp10
 70
     0
102
RTVSPropertyOp11
 70
     0
102
RTVSPropertyOp12
 70
     0
102
RTVSPropertyOp13
 70
     0
102
RTVSPropertyOp14
 70
     2
102
RTVSPropertyOp15
 70
     0
102
RTVSPropertyOp16
 70
     0
102
RTVSPropertyOp17
 70
     0
102
RTVSPropertyOp18
 70
     0
102
RTVSPropertyOp19
 70
     0
102
RTVSPropertyOp20
 70
     0
102
RTVSPropertyOp21
 70
     0
102
RTVSPropertyOp22
 70
     0
102
RTVSPropertyOp23
 70
     0
102
RTVSPropertyOp24
 70
     0
102
RTVSPropertyOp25
 70
     0
102
RTVSPropertyOp26
 70
     0
102
RTVSPropertyOp27
 70
     0
102
RTVSPropertyOp28
 70
     0
102
RTVSPropertyOp29
 70
     0
102
RTVSPropertyOp30
 70
     0
102
RTVSPropertyOp31
 70
     0
102
RTVSPropertyOp32
 70
     0
102
RTVSPropertyOp33
 70
     0
102
RTVSPropertyOp34
 70
     0
102
RTVSPropertyOp35
 70
     0
102
RTVSPropertyOp36
 70
     0
102
RTVSPropertyOp37
 70
     0
102
RTVSPropertyOp38
 70
     0
102
RTVSPropertyOp39
 70
     0
102
RTVSPropertyOp40
 70
     0
102
RTVSPropertyOp41
 70
     0
102
RTVSPropertyOp42
 70
     0
102
RTVSPropertyOp43
 70
     0
102
RTVSPropertyOp44
 70
     0
102
RTVSPropertyOp45
 70
     0
102
RTVSPropertyOp46
 70
     0
102
RTVSPropertyOp47
 70
     0
102
RTVSPropertyOp48
 70
     0
102
RTVSPropertyOp49
 70
     0
102
RTVSPropertyOp50
 70
     0
102
RTVSPropertyOp51
 70
     0
102
RTVSPropertyOp52
 70
     0
102
RTVSPropertyOp53
 70
     0
102
RTVSPropertyOp54
 70
     0
102
RTVSPropertyOp55
 70
     0
102
RTVSPropertyOp56
 70
     0
102
RTVSPropertyOp57
 70
     0
102
RTVSPost2010Prop28
280
     0
102
RTVSPost2010PropOp28
 70
     0
102
RTVSPost2010Prop29
280
     1
102
RTVSPost2010PropOp29
 70
     0
102
RTVSPost2010Prop30
280
     1
102
RTVSPost2010PropOp30
 70
     0
102
RTVSPost2010Prop31
280
     0
102
RTVSPost2010PropOp31
 70
     0
102
RTVSPost2010Prop32
280
     0
102
RTVSPost2010PropOp32
 70
     0
102
RTVSPost2010Prop33
280
     0
102
RTVSPost2010PropOp33
 70
     0
102
RTVSPost2010Prop34
280
     0
102
RTVSPost2010PropOp34
 70
     0
102
RTVSPost2010Prop35
280
     0
102
RTVSPost2010PropOp35
 70
     0
102
RTVSPost2010Prop36
280
     0
102
RTVSPost2010PropOp36
 70
     0
102
RTVSPost2010Prop37
 90
       50
102
RTVSPost2010PropOp37
 70
     0
102
RTVSPost2010Prop38
140
0.0
102
RTVSPost2010PropOp38
 70
     0
102
RTVSPost2010Prop39
140
1.0
102
RTVSPost2010PropOp39
 70
     0
102
RTVSPost2010Prop40
 90
        0
102
RTVSPost2010PropOp40
 70
     0
102
RTVSPost2010Prop41ColorIndex
 90
       18
102
RTVSPost2010Prop41ColorRGB
 90
        0
102
RTVSPost2010PropOp41
 70
     0
102
RTVSPost2010Prop42
 90
       50
102
RTVSPost2010PropOp42
 70
     0
102
RTVSPost2010Prop43
 90
        3
102
RTVSPost2010PropOp43
 70
     0
102
RTVSPost2010Prop44ColorIndex
 90
        5
102
RTVSPost2010Prop44ColorRGB
 90
      255
102
RTVSPost2010PropOp44
 70
     0
102
RTVSPost2010Prop45
280
     0
102
RTVSPost2010PropOp45
 70
     0
102
RTVSPost2010Prop46
 90
       50
102
RTVSPost2010PropOp46
 70
     0
102
RTVSPost2010Prop47
 90
       50
102
RTVSPost2010PropOp47
 70
     0
102
RTVSPost2010Prop48
 90
       50
102
RTVSPost2010PropOp48
 70
     0
102
RTVSPost2010Prop49
280
     0
102
RTVSPost2010PropOp49
 70
     0
102
RTVSPost2010Prop50
 90
       50
102
RTVSPost2010PropOp50
 70
     0
102
RTVSPost2010Prop51ColorIndex
 90
      256
102
RTVSPost2010Prop51ColorRGB
 90
-16777216
102
RTVSPost2010PropOp51
 70
     0
102
RTVSPost2010Prop52
140
1.0
102
RTVSPost2010PropOp52
 70
     0
102
RTVSPost2010Prop53
 90
        2
102
RTVSPost2010PropOp53
 70
     0
102
RTVSPost2010Prop54
  1
strokes_ogs.tif
102
RTVSPost2010PropOp54
 70
     0
102
RTVSPost2010Prop55
280
     0
102
RTVSPost2010PropOp55
 70
     0
102
RTVSPost2010Prop56
140
1.0
102
RTVSPost2010PropOp56
 70
     0
102
RTVSPost2010Prop57
140
1.0
102
RTVSPost2010PropOp57
 70
     0
  0
XRECORD
  5
2A9
102
{ACAD_REACTORS
330
2A8
102
}
330
2A8
100
AcDbXrecord
280
     1
102
RTVSPropertyOp0
 70
     1
102
RTVSPropertyOp1
 70
     1
102
RTVSPropertyOp2
 70
     1
102
RTVSPropertyOp3
 70
     1
102
RTVSPropertyOp4
 70
     1
102
RTVSPropertyOp5
 70
     1
102
RTVSPropertyOp6
 70
     1
102
RTVSPropertyOp7
 70
     1
102
RTVSPropertyOp8
 70
     1
102
RTVSPropertyOp9
 70
     1
102
RTVSPropertyOp10
 70
     1
102
RTVSPropertyOp11
 70
     1
102
RTVSPropertyOp12
 70
     1
102
RTVSPropertyOp13
 70
     1
102
RTVSPropertyOp14
 70
     1
102
RTVSPropertyOp15
 70
     1
102
RTVSPropertyOp16
 70
     1
102
RTVSPropertyOp17
 70
     1
102
RTVSPropertyOp18
 70
     1
102
RTVSPropertyOp19
 70
     1
102
RTVSPropertyOp20
 70
     1
102
RTVSPropertyOp21
 70
     1
102
RTVSPropertyOp22
 70
     1
102
RTVSPropertyOp23
 70
     1
102
RTVSPropertyOp24
 70
     1
102
RTVSPropertyOp25
 70
     1
102
RTVSPropertyOp26
 70
     1
102
RTVSPropertyOp27
 70
     1
102
RTVSPropertyOp28
 70
     1
102
RTVSPropertyOp29
 70
     1
102
RTVSPropertyOp30
 70
     1
102
RTVSPropertyOp31
 70
     1
102
RTVSPropertyOp32
 70
     1
102
RTVSPropertyOp33
 70
     1
102
RTVSPropertyOp34
 70
     1
102
RTVSPropertyOp35
 70
     1
102
RTVSPropertyOp36
 70
     1
102
RTVSPropertyOp37
 70
     1
102
RTVSPropertyOp38
 70
     1
102
RTVSPropertyOp39
 70
     1
102
RTVSPropertyOp40
 70
     1
102
RTVSPropertyOp41
 70
     1
102
RTVSPropertyOp42
 70
     1
102
RTVSPropertyOp43
 70
     1
102
RTVSPropertyOp44
 70
     1
102
RTVSPropertyOp45
 70
     1
102
RTVSPropertyOp46
 70
     1
102
RTVSPropertyOp47
 70
     1
102
RTVSPropertyOp48
 70
     1
102
RTVSPropertyOp49
 70
     1
102
RTVSPropertyOp50
 70
     1
102
RTVSPropertyOp51
 70
     0
102
RTVSPropertyOp52
 70
     0
102
RTVSPropertyOp53
 70
     1
102
RTVSPropertyOp54
 70
     1
102
RTVSPropertyOp55
 70
     1
102
RTVSPropertyOp56
 70
     1
102
RTVSPropertyOp57
 70
     1
102
RTVSPost2010Prop28
280
     0
102
RTVSPost2010PropOp28
 70
     1
102
RTVSPost2010Prop29
280
     1
102
RTVSPost2010PropOp29
 70
     1
102
RTVSPost2010Prop30
280
     1
102
RTVSPost2010PropOp30
 70
     1
102
RTVSPost2010Prop31
280
     0
102
RTVSPost2010PropOp31
 70
     1
102
RTVSPost2010Prop32
280
     0
102
RTVSPost2010PropOp32
 70
     1
102
RTVSPost2010Prop33
280
     0
102
RTVSPost2010PropOp33
 70
     1
102
RTVSPost2010Prop34
280
     0
102
RTVSPost2010PropOp34
 70
     1
102
RTVSPost2010Prop35
280
     0
102
RTVSPost2010PropOp35
 70
     1
102
RTVSPost2010Prop36
280
     0
102
RTVSPost2010PropOp36
 70
     1
102
RTVSPost2010Prop37
 90
       50
102
RTVSPost2010PropOp37
 70
     1
102
RTVSPost2010Prop38
140
0.0
102
RTVSPost2010PropOp38
 70
     1
102
RTVSPost2010Prop39
140
1.0
102
RTVSPost2010PropOp39
 70
     1
102
RTVSPost2010Prop40
 90
        0
102
RTVSPost2010PropOp40
 70
     1
102
RTVSPost2010Prop41ColorIndex
 90
       18
102
RTVSPost2010Prop41ColorRGB
 90
        0
102
RTVSPost2010PropOp41
 70
     1
102
RTVSPost2010Prop42
 90
       50
102
RTVSPost2010PropOp42
 70
     1
102
RTVSPost2010Prop43
 90
        3
102
RTVSPost2010PropOp43
 70
     1
102
RTVSPost2010Prop44ColorIndex
 90
        5
102
RTVSPost2010Prop44ColorRGB
 90
      255
102
RTVSPost2010PropOp44
 70
     1
102
RTVSPost2010Prop45
280
     0
102
RTVSPost2010PropOp45
 70
     1
102
RTVSPost2010Prop46
 90
       50
102
RTVSPost2010PropOp46
 70
     1
102
RTVSPost2010Prop47
 90
       50
102
RTVSPost2010PropOp47
 70
     1
102
RTVSPost2010Prop48
 90
       50
102
RTVSPost2010PropOp48
 70
     1
102
RTVSPost2010Prop49
280
     0
102
RTVSPost2010PropOp49
 70
     1
102
RTVSPost2010Prop50
 90
       50
102
RTVSPost2010PropOp50
 70
     1
102
RTVSPost2010Prop51ColorIndex
 90
      256
102
RTVSPost2010Prop51ColorRGB
 90
-16777216
102
RTVSPost2010PropOp51
 70
     0
102
RTVSPost2010Prop52
140
1.0
102
RTVSPost2010PropOp52
 70
     0
102
RTVSPost2010Prop53
 90
        2
102
RTVSPost2010PropOp53
 70
     1
102
RTVSPost2010Prop54
  1
strokes_ogs.tif
102
RTVSPost2010PropOp54
 70
     1
102
RTVSPost2010Prop55
280
     0
102
RTVSPost2010PropOp55
 70
     1
102
RTVSPost2010Prop56
140
1.0
102
RTVSPost2010PropOp56
 70
     1
102
RTVSPost2010Prop57
140
1.0
102
RTVSPost2010PropOp57
 70
     1
  0
XRECORD
  5
28D
102
{ACAD_REACTORS
330
28C
102
}
330
28C
100
AcDbXrecord
280
     1
102
RTVSPropertyOp0
 70
     1
102
RTVSPropertyOp1
 70
     1
102
RTVSPropertyOp2
 70
     1
102
RTVSPropertyOp3
 70
     1
102
RTVSPropertyOp4
 70
     1
102
RTVSPropertyOp5
 70
     1
102
RTVSPropertyOp6
 70
     1
102
RTVSPropertyOp7
 70
     1
102
RTVSPropertyOp8
 70
     1
102
RTVSPropertyOp9
 70
     1
102
RTVSPropertyOp10
 70
     1
102
RTVSPropertyOp11
 70
     1
102
RTVSPropertyOp12
 70
     1
102
RTVSPropertyOp13
 70
     1
102
RTVSPropertyOp14
 70
     1
102
RTVSPropertyOp15
 70
     1
102
RTVSPropertyOp16
 70
     1
102
RTVSPropertyOp17
 70
     1
102
RTVSPropertyOp18
 70
     1
102
RTVSPropertyOp19
 70
     1
102
RTVSPropertyOp20
 70
     1
102
RTVSPropertyOp21
 70
     1
102
RTVSPropertyOp22
 70
     1
102
RTVSPropertyOp23
 70
     1
102
RTVSPropertyOp24
 70
     1
102
RTVSPropertyOp25
 70
     1
102
RTVSPropertyOp26
 70
     1
102
RTVSPropertyOp27
 70
     1
102
RTVSPropertyOp28
 70
     1
102
RTVSPropertyOp29
 70
     1
102
RTVSPropertyOp30
 70
     1
102
RTVSPropertyOp31
 70
     1
102
RTVSPropertyOp32
 70
     1
102
RTVSPropertyOp33
 70
     1
102
RTVSPropertyOp34
 70
     1
102
RTVSPropertyOp35
 70
     1
102
RTVSPropertyOp36
 70
     1
102
RTVSPropertyOp37
 70
     1
102
RTVSPropertyOp38
 70
     1
102
RTVSPropertyOp39
 70
     1
102
RTVSPropertyOp40
 70
     1
102
RTVSPropertyOp41
 70
     1
102
RTVSPropertyOp42
 70
     1
102
RTVSPropertyOp43
 70
     1
102
RTVSPropertyOp44
 70
     1
102
RTVSPropertyOp45
 70
     1
102
RTVSPropertyOp46
 70
     1
102
RTVSPropertyOp47
 70
     1
102
RTVSPropertyOp48
 70
     1
102
RTVSPropertyOp49
 70
     1
102
RTVSPropertyOp50
 70
     1
102
RTVSPropertyOp51
 70
     0
102
RTVSPropertyOp52
 70
     0
102
RTVSPropertyOp53
 70
     1
102
RTVSPropertyOp54
 70
     1
102
RTVSPropertyOp55
 70
     1
102
RTVSPropertyOp56
 70
     1
102
RTVSPropertyOp57
 70
     1
102
RTVSPost2010Prop28
280
     0
102
RTVSPost2010PropOp28
 70
     1
102
RTVSPost2010Prop29
280
     1
102
RTVSPost2010PropOp29
 70
     1
102
RTVSPost2010Prop30
280
     1
102
RTVSPost2010PropOp30
 70
     1
102
RTVSPost2010Prop31
280
     0
102
RTVSPost2010PropOp31
 70
     1
102
RTVSPost2010Prop32
280
     0
102
RTVSPost2010PropOp32
 70
     1
102
RTVSPost2010Prop33
280
     0
102
RTVSPost2010PropOp33
 70
     1
102
RTVSPost2010Prop34
280
     0
102
RTVSPost2010PropOp34
 70
     1
102
RTVSPost2010Prop35
280
     0
102
RTVSPost2010PropOp35
 70
     1
102
RTVSPost2010Prop36
280
     0
102
RTVSPost2010PropOp36
 70
     1
102
RTVSPost2010Prop37
 90
       50
102
RTVSPost2010PropOp37
 70
     1
102
RTVSPost2010Prop38
140
0.0
102
RTVSPost2010PropOp38
 70
     1
102
RTVSPost2010Prop39
140
1.0
102
RTVSPost2010PropOp39
 70
     1
102
RTVSPost2010Prop40
 90
        0
102
RTVSPost2010PropOp40
 70
     1
102
RTVSPost2010Prop41ColorIndex
 90
       18
102
RTVSPost2010Prop41ColorRGB
 90
        0
102
RTVSPost2010PropOp41
 70
     1
102
RTVSPost2010Prop42
 90
       50
102
RTVSPost2010PropOp42
 70
     1
102
RTVSPost2010Prop43
 90
        3
102
RTVSPost2010PropOp43
 70
     1
102
RTVSPost2010Prop44ColorIndex
 90
        5
102
RTVSPost2010Prop44ColorRGB
 90
      255
102
RTVSPost2010PropOp44
 70
     1
102
RTVSPost2010Prop45
280
     0
102
RTVSPost2010PropOp45
 70
     1
102
RTVSPost2010Prop46
 90
       50
102
RTVSPost2010PropOp46
 70
     1
102
RTVSPost2010Prop47
 90
       50
102
RTVSPost2010PropOp47
 70
     1
102
RTVSPost2010Prop48
 90
       50
102
RTVSPost2010PropOp48
 70
     1
102
RTVSPost2010Prop49
280
     0
102
RTVSPost2010PropOp49
 70
     1
102
RTVSPost2010Prop50
 90
       50
102
RTVSPost2010PropOp50
 70
     1
102
RTVSPost2010Prop51ColorIndex
 90
      256
102
RTVSPost2010Prop51ColorRGB
 90
-16777216
102
RTVSPost2010PropOp51
 70
     0
102
RTVSPost2010Prop52
140
1.0
102
RTVSPost2010PropOp52
 70
     0
102
RTVSPost2010Prop53
 90
        2
102
RTVSPost2010PropOp53
 70
     1
102
RTVSPost2010Prop54
  1
strokes_ogs.tif
102
RTVSPost2010PropOp54
 70
     1
102
RTVSPost2010Prop55
280
     0
102
RTVSPost2010PropOp55
 70
     1
102
RTVSPost2010Prop56
140
1.0
102
RTVSPost2010PropOp56
 70
     1
102
RTVSPost2010Prop57
140
1.0
102
RTVSPost2010PropOp57
 70
     1
  0
XRECORD
  5
28F
102
{ACAD_REACTORS
330
28E
102
}
330
28E
100
AcDbXrecord
280
     1
102
RTVSPropertyOp0
 70
     1
102
RTVSPropertyOp1
 70
     1
102
RTVSPropertyOp2
 70
     1
102
RTVSPropertyOp3
 70
     1
102
RTVSPropertyOp4
 70
     1
102
RTVSPropertyOp5
 70
     1
102
RTVSPropertyOp6
 70
     1
102
RTVSPropertyOp7
 70
     1
102
RTVSPropertyOp8
 70
     1
102
RTVSPropertyOp9
 70
     1
102
RTVSPropertyOp10
 70
     1
102
RTVSPropertyOp11
 70
     1
102
RTVSPropertyOp12
 70
     1
102
RTVSPropertyOp13
 70
     1
102
RTVSPropertyOp14
 70
     1
102
RTVSPropertyOp15
 70
     1
102
RTVSPropertyOp16
 70
     1
102
RTVSPropertyOp17
 70
     1
102
RTVSPropertyOp18
 70
     1
102
RTVSPropertyOp19
 70
     1
102
RTVSPropertyOp20
 70
     1
102
RTVSPropertyOp21
 70
     1
102
RTVSPropertyOp22
 70
     1
102
RTVSPropertyOp23
 70
     1
102
RTVSPropertyOp24
 70
     1
102
RTVSPropertyOp25
 70
     1
102
RTVSPropertyOp26
 70
     1
102
RTVSPropertyOp27
 70
     1
102
RTVSPropertyOp28
 70
     1
102
RTVSPropertyOp29
 70
     1
102
RTVSPropertyOp30
 70
     1
102
RTVSPropertyOp31
 70
     1
102
RTVSPropertyOp32
 70
     1
102
RTVSPropertyOp33
 70
     1
102
RTVSPropertyOp34
 70
     1
102
RTVSPropertyOp35
 70
     1
102
RTVSPropertyOp36
 70
     1
102
RTVSPropertyOp37
 70
     1
102
RTVSPropertyOp38
 70
     1
102
RTVSPropertyOp39
 70
     1
102
RTVSPropertyOp40
 70
     1
102
RTVSPropertyOp41
 70
     1
102
RTVSPropertyOp42
 70
     1
102
RTVSPropertyOp43
 70
     1
102
RTVSPropertyOp44
 70
     1
102
RTVSPropertyOp45
 70
     1
102
RTVSPropertyOp46
 70
     1
102
RTVSPropertyOp47
 70
     1
102
RTVSPropertyOp48
 70
     1
102
RTVSPropertyOp49
 70
     1
102
RTVSPropertyOp50
 70
     1
102
RTVSPropertyOp51
 70
     0
102
RTVSPropertyOp52
 70
     0
102
RTVSPropertyOp53
 70
     1
102
RTVSPropertyOp54
 70
     1
102
RTVSPropertyOp55
 70
     1
102
RTVSPropertyOp56
 70
     1
102
RTVSPropertyOp57
 70
     1
102
RTVSPost2010Prop28
280
     0
102
RTVSPost2010PropOp28
 70
     1
102
RTVSPost2010Prop29
280
     1
102
RTVSPost2010PropOp29
 70
     1
102
RTVSPost2010Prop30
280
     1
102
RTVSPost2010PropOp30
 70
     1
102
RTVSPost2010Prop31
280
     0
102
RTVSPost2010PropOp31
 70
     1
102
RTVSPost2010Prop32
280
     0
102
RTVSPost2010PropOp32
 70
     1
102
RTVSPost2010Prop33
280
     0
102
RTVSPost2010PropOp33
 70
     1
102
RTVSPost2010Prop34
280
     0
102
RTVSPost2010PropOp34
 70
     1
102
RTVSPost2010Prop35
280
     0
102
RTVSPost2010PropOp35
 70
     1
102
RTVSPost2010Prop36
280
     0
102
RTVSPost2010PropOp36
 70
     1
102
RTVSPost2010Prop37
 90
       50
102
RTVSPost2010PropOp37
 70
     1
102
RTVSPost2010Prop38
140
0.0
102
RTVSPost2010PropOp38
 70
     1
102
RTVSPost2010Prop39
140
1.0
102
RTVSPost2010PropOp39
 70
     1
102
RTVSPost2010Prop40
 90
        0
102
RTVSPost2010PropOp40
 70
     1
102
RTVSPost2010Prop41ColorIndex
 90
       18
102
RTVSPost2010Prop41ColorRGB
 90
        0
102
RTVSPost2010PropOp41
 70
     1
102
RTVSPost2010Prop42
 90
       50
102
RTVSPost2010PropOp42
 70
     1
102
RTVSPost2010Prop43
 90
        3
102
RTVSPost2010PropOp43
 70
     1
102
RTVSPost2010Prop44ColorIndex
 90
        5
102
RTVSPost2010Prop44ColorRGB
 90
      255
102
RTVSPost2010PropOp44
 70
     1
102
RTVSPost2010Prop45
280
     0
102
RTVSPost2010PropOp45
 70
     1
102
RTVSPost2010Prop46
 90
       50
102
RTVSPost2010PropOp46
 70
     1
102
RTVSPost2010Prop47
 90
       50
102
RTVSPost2010PropOp47
 70
     1
102
RTVSPost2010Prop48
 90
       50
102
RTVSPost2010PropOp48
 70
     1
102
RTVSPost2010Prop49
280
     0
102
RTVSPost2010PropOp49
 70
     1
102
RTVSPost2010Prop50
 90
       50
102
RTVSPost2010PropOp50
 70
     1
102
RTVSPost2010Prop51ColorIndex
 90
      256
102
RTVSPost2010Prop51ColorRGB
 90
-16777216
102
RTVSPost2010PropOp51
 70
     0
102
RTVSPost2010Prop52
140
1.0
102
RTVSPost2010PropOp52
 70
     0
102
RTVSPost2010Prop53
 90
        2
102
RTVSPost2010PropOp53
 70
     1
102
RTVSPost2010Prop54
  1
strokes_ogs.tif
102
RTVSPost2010PropOp54
 70
     1
102
RTVSPost2010Prop55
280
     0
102
RTVSPost2010PropOp55
 70
     1
102
RTVSPost2010Prop56
140
1.0
102
RTVSPost2010PropOp56
 70
     1
102
RTVSPost2010Prop57
140
1.0
102
RTVSPost2010PropOp57
 70
     1
  0
XRECORD
  5
291
102
{ACAD_REACTORS
330
290
102
}
330
290
100
AcDbXrecord
280
     1
102
RTVSPropertyOp0
 70
     1
102
RTVSPropertyOp1
 70
     1
102
RTVSPropertyOp2
 70
     1
102
RTVSPropertyOp3
 70
     1
102
RTVSPropertyOp4
 70
     1
102
RTVSPropertyOp5
 70
     1
102
RTVSPropertyOp6
 70
     1
102
RTVSPropertyOp7
 70
     1
102
RTVSPropertyOp8
 70
     1
102
RTVSPropertyOp9
 70
     1
102
RTVSPropertyOp10
 70
     1
102
RTVSPropertyOp11
 70
     1
102
RTVSPropertyOp12
 70
     1
102
RTVSPropertyOp13
 70
     1
102
RTVSPropertyOp14
 70
     1
102
RTVSPropertyOp15
 70
     1
102
RTVSPropertyOp16
 70
     1
102
RTVSPropertyOp17
 70
     1
102
RTVSPropertyOp18
 70
     1
102
RTVSPropertyOp19
 70
     1
102
RTVSPropertyOp20
 70
     1
102
RTVSPropertyOp21
 70
     1
102
RTVSPropertyOp22
 70
     1
102
RTVSPropertyOp23
 70
     1
102
RTVSPropertyOp24
 70
     1
102
RTVSPropertyOp25
 70
     1
102
RTVSPropertyOp26
 70
     1
102
RTVSPropertyOp27
 70
     1
102
RTVSPropertyOp28
 70
     1
102
RTVSPropertyOp29
 70
     1
102
RTVSPropertyOp30
 70
     1
102
RTVSPropertyOp31
 70
     1
102
RTVSPropertyOp32
 70
     1
102
RTVSPropertyOp33
 70
     1
102
RTVSPropertyOp34
 70
     1
102
RTVSPropertyOp35
 70
     1
102
RTVSPropertyOp36
 70
     1
102
RTVSPropertyOp37
 70
     1
102
RTVSPropertyOp38
 70
     1
102
RTVSPropertyOp39
 70
     1
102
RTVSPropertyOp40
 70
     1
102
RTVSPropertyOp41
 70
     1
102
RTVSPropertyOp42
 70
     1
102
RTVSPropertyOp43
 70
     1
102
RTVSPropertyOp44
 70
     1
102
RTVSPropertyOp45
 70
     1
102
RTVSPropertyOp46
 70
     1
102
RTVSPropertyOp47
 70
     1
102
RTVSPropertyOp48
 70
     1
102
RTVSPropertyOp49
 70
     1
102
RTVSPropertyOp50
 70
     1
102
RTVSPropertyOp51
 70
     0
102
RTVSPropertyOp52
 70
     0
102
RTVSPropertyOp53
 70
     1
102
RTVSPropertyOp54
 70
     1
102
RTVSPropertyOp55
 70
     1
102
RTVSPropertyOp56
 70
     1
102
RTVSPropertyOp57
 70
     1
102
RTVSPost2010Prop28
280
     0
102
RTVSPost2010PropOp28
 70
     1
102
RTVSPost2010Prop29
280
     1
102
RTVSPost2010PropOp29
 70
     1
102
RTVSPost2010Prop30
280
     1
102
RTVSPost2010PropOp30
 70
     1
102
RTVSPost2010Prop31
280
     0
102
RTVSPost2010PropOp31
 70
     1
102
RTVSPost2010Prop32
280
     0
102
RTVSPost2010PropOp32
 70
     1
102
RTVSPost2010Prop33
280
     0
102
RTVSPost2010PropOp33
 70
     1
102
RTVSPost2010Prop34
280
     0
102
RTVSPost2010PropOp34
 70
     1
102
RTVSPost2010Prop35
280
     0
102
RTVSPost2010PropOp35
 70
     1
102
RTVSPost2010Prop36
280
     0
102
RTVSPost2010PropOp36
 70
     1
102
RTVSPost2010Prop37
 90
       50
102
RTVSPost2010PropOp37
 70
     1
102
RTVSPost2010Prop38
140
0.0
102
RTVSPost2010PropOp38
 70
     1
102
RTVSPost2010Prop39
140
1.0
102
RTVSPost2010PropOp39
 70
     1
102
RTVSPost2010Prop40
 90
        0
102
RTVSPost2010PropOp40
 70
     1
102
RTVSPost2010Prop41ColorIndex
 90
       18
102
RTVSPost2010Prop41ColorRGB
 90
        0
102
RTVSPost2010PropOp41
 70
     1
102
RTVSPost2010Prop42
 90
       50
102
RTVSPost2010PropOp42
 70
     1
102
RTVSPost2010Prop43
 90
        3
102
RTVSPost2010PropOp43
 70
     1
102
RTVSPost2010Prop44ColorIndex
 90
        5
102
RTVSPost2010Prop44ColorRGB
 90
      255
102
RTVSPost2010PropOp44
 70
     1
102
RTVSPost2010Prop45
280
     0
102
RTVSPost2010PropOp45
 70
     1
102
RTVSPost2010Prop46
 90
       50
102
RTVSPost2010PropOp46
 70
     1
102
RTVSPost2010Prop47
 90
       50
102
RTVSPost2010PropOp47
 70
     1
102
RTVSPost2010Prop48
 90
       50
102
RTVSPost2010PropOp48
 70
     1
102
RTVSPost2010Prop49
280
     0
102
RTVSPost2010PropOp49
 70
     1
102
RTVSPost2010Prop50
 90
       50
102
RTVSPost2010PropOp50
 70
     1
102
RTVSPost2010Prop51ColorIndex
 90
      256
102
RTVSPost2010Prop51ColorRGB
 90
-16777216
102
RTVSPost2010PropOp51
 70
     0
102
RTVSPost2010Prop52
140
1.0
102
RTVSPost2010PropOp52
 70
     0
102
RTVSPost2010Prop53
 90
        2
102
RTVSPost2010PropOp53
 70
     1
102
RTVSPost2010Prop54
  1
strokes_ogs.tif
102
RTVSPost2010PropOp54
 70
     1
102
RTVSPost2010Prop55
280
     0
102
RTVSPost2010PropOp55
 70
     1
102
RTVSPost2010Prop56
140
1.0
102
RTVSPost2010PropOp56
 70
     1
102
RTVSPost2010Prop57
140
1.0
102
RTVSPost2010PropOp57
 70
     1
  0
XRECORD
  5
293
102
{ACAD_REACTORS
330
292
102
}
330
292
100
AcDbXrecord
280
     1
102
RTVSPropertyOp0
 70
     1
102
RTVSPropertyOp1
 70
     1
102
RTVSPropertyOp2
 70
     1
102
RTVSPropertyOp3
 70
     1
102
RTVSPropertyOp4
 70
     1
102
RTVSPropertyOp5
 70
     1
102
RTVSPropertyOp6
 70
     1
102
RTVSPropertyOp7
 70
     1
102
RTVSPropertyOp8
 70
     1
102
RTVSPropertyOp9
 70
     1
102
RTVSPropertyOp10
 70
     1
102
RTVSPropertyOp11
 70
     1
102
RTVSPropertyOp12
 70
     1
102
RTVSPropertyOp13
 70
     1
102
RTVSPropertyOp14
 70
     1
102
RTVSPropertyOp15
 70
     1
102
RTVSPropertyOp16
 70
     1
102
RTVSPropertyOp17
 70
     1
102
RTVSPropertyOp18
 70
     1
102
RTVSPropertyOp19
 70
     1
102
RTVSPropertyOp20
 70
     1
102
RTVSPropertyOp21
 70
     1
102
RTVSPropertyOp22
 70
     1
102
RTVSPropertyOp23
 70
     1
102
RTVSPropertyOp24
 70
     1
102
RTVSPropertyOp25
 70
     1
102
RTVSPropertyOp26
 70
     1
102
RTVSPropertyOp27
 70
     1
102
RTVSPropertyOp28
 70
     1
102
RTVSPropertyOp29
 70
     1
102
RTVSPropertyOp30
 70
     1
102
RTVSPropertyOp31
 70
     1
102
RTVSPropertyOp32
 70
     1
102
RTVSPropertyOp33
 70
     1
102
RTVSPropertyOp34
 70
     1
102
RTVSPropertyOp35
 70
     1
102
RTVSPropertyOp36
 70
     1
102
RTVSPropertyOp37
 70
     1
102
RTVSPropertyOp38
 70
     1
102
RTVSPropertyOp39
 70
     1
102
RTVSPropertyOp40
 70
     1
102
RTVSPropertyOp41
 70
     1
102
RTVSPropertyOp42
 70
     1
102
RTVSPropertyOp43
 70
     1
102
RTVSPropertyOp44
 70
     1
102
RTVSPropertyOp45
 70
     1
102
RTVSPropertyOp46
 70
     1
102
RTVSPropertyOp47
 70
     1
102
RTVSPropertyOp48
 70
     1
102
RTVSPropertyOp49
 70
     1
102
RTVSPropertyOp50
 70
     1
102
RTVSPropertyOp51
 70
     0
102
RTVSPropertyOp52
 70
     0
102
RTVSPropertyOp53
 70
     1
102
RTVSPropertyOp54
 70
     1
102
RTVSPropertyOp55
 70
     1
102
RTVSPropertyOp56
 70
     1
102
RTVSPropertyOp57
 70
     1
102
RTVSPost2010Prop28
280
     0
102
RTVSPost2010PropOp28
 70
     1
102
RTVSPost2010Prop29
280
     1
102
RTVSPost2010PropOp29
 70
     1
102
RTVSPost2010Prop30
280
     1
102
RTVSPost2010PropOp30
 70
     1
102
RTVSPost2010Prop31
280
     0
102
RTVSPost2010PropOp31
 70
     1
102
RTVSPost2010Prop32
280
     0
102
RTVSPost2010PropOp32
 70
     1
102
RTVSPost2010Prop33
280
     0
102
RTVSPost2010PropOp33
 70
     1
102
RTVSPost2010Prop34
280
     0
102
RTVSPost2010PropOp34
 70
     1
102
RTVSPost2010Prop35
280
     0
102
RTVSPost2010PropOp35
 70
     1
102
RTVSPost2010Prop36
280
     0
102
RTVSPost2010PropOp36
 70
     1
102
RTVSPost2010Prop37
 90
       50
102
RTVSPost2010PropOp37
 70
     1
102
RTVSPost2010Prop38
140
0.0
102
RTVSPost2010PropOp38
 70
     1
102
RTVSPost2010Prop39
140
1.0
102
RTVSPost2010PropOp39
 70
     1
102
RTVSPost2010Prop40
 90
        0
102
RTVSPost2010PropOp40
 70
     1
102
RTVSPost2010Prop41ColorIndex
 90
       18
102
RTVSPost2010Prop41ColorRGB
 90
        0
102
RTVSPost2010PropOp41
 70
     1
102
RTVSPost2010Prop42
 90
       50
102
RTVSPost2010PropOp42
 70
     1
102
RTVSPost2010Prop43
 90
        3
102
RTVSPost2010PropOp43
 70
     1
102
RTVSPost2010Prop44ColorIndex
 90
        5
102
RTVSPost2010Prop44ColorRGB
 90
      255
102
RTVSPost2010PropOp44
 70
     1
102
RTVSPost2010Prop45
280
     0
102
RTVSPost2010PropOp45
 70
     1
102
RTVSPost2010Prop46
 90
       50
102
RTVSPost2010PropOp46
 70
     1
102
RTVSPost2010Prop47
 90
       50
102
RTVSPost2010PropOp47
 70
     1
102
RTVSPost2010Prop48
 90
       50
102
RTVSPost2010PropOp48
 70
     1
102
RTVSPost2010Prop49
280
     0
102
RTVSPost2010PropOp49
 70
     1
102
RTVSPost2010Prop50
 90
       50
102
RTVSPost2010PropOp50
 70
     1
102
RTVSPost2010Prop51ColorIndex
 90
      256
102
RTVSPost2010Prop51ColorRGB
 90
-16777216
102
RTVSPost2010PropOp51
 70
     0
102
RTVSPost2010Prop52
140
1.0
102
RTVSPost2010PropOp52
 70
     0
102
RTVSPost2010Prop53
 90
        2
102
RTVSPost2010PropOp53
 70
     1
102
RTVSPost2010Prop54
  1
strokes_ogs.tif
102
RTVSPost2010PropOp54
 70
     1
102
RTVSPost2010Prop55
280
     0
102
RTVSPost2010PropOp55
 70
     1
102
RTVSPost2010Prop56
140
1.0
102
RTVSPost2010PropOp56
 70
     1
102
RTVSPost2010Prop57
140
1.0
102
RTVSPost2010PropOp57
 70
     1
  0
XRECORD
  5
299
102
{ACAD_REACTORS
330
298
102
}
330
298
100
AcDbXrecord
280
     1
102
RTVSPropertyOp0
 70
     1
102
RTVSPropertyOp1
 70
     1
102
RTVSPropertyOp2
 70
     1
102
RTVSPropertyOp3
 70
     1
102
RTVSPropertyOp4
 70
     1
102
RTVSPropertyOp5
 70
     1
102
RTVSPropertyOp6
 70
     1
102
RTVSPropertyOp7
 70
     1
102
RTVSPropertyOp8
 70
     1
102
RTVSPropertyOp9
 70
     1
102
RTVSPropertyOp10
 70
     1
102
RTVSPropertyOp11
 70
     1
102
RTVSPropertyOp12
 70
     1
102
RTVSPropertyOp13
 70
     1
102
RTVSPropertyOp14
 70
     1
102
RTVSPropertyOp15
 70
     1
102
RTVSPropertyOp16
 70
     1
102
RTVSPropertyOp17
 70
     1
102
RTVSPropertyOp18
 70
     1
102
RTVSPropertyOp19
 70
     1
102
RTVSPropertyOp20
 70
     1
102
RTVSPropertyOp21
 70
     1
102
RTVSPropertyOp22
 70
     1
102
RTVSPropertyOp23
 70
     1
102
RTVSPropertyOp24
 70
     1
102
RTVSPropertyOp25
 70
     1
102
RTVSPropertyOp26
 70
     1
102
RTVSPropertyOp27
 70
     1
102
RTVSPropertyOp28
 70
     1
102
RTVSPropertyOp29
 70
     1
102
RTVSPropertyOp30
 70
     1
102
RTVSPropertyOp31
 70
     1
102
RTVSPropertyOp32
 70
     1
102
RTVSPropertyOp33
 70
     1
102
RTVSPropertyOp34
 70
     1
102
RTVSPropertyOp35
 70
     1
102
RTVSPropertyOp36
 70
     1
102
RTVSPropertyOp37
 70
     1
102
RTVSPropertyOp38
 70
     1
102
RTVSPropertyOp39
 70
     1
102
RTVSPropertyOp40
 70
     1
102
RTVSPropertyOp41
 70
     1
102
RTVSPropertyOp42
 70
     1
102
RTVSPropertyOp43
 70
     1
102
RTVSPropertyOp44
 70
     1
102
RTVSPropertyOp45
 70
     1
102
RTVSPropertyOp46
 70
     1
102
RTVSPropertyOp47
 70
     1
102
RTVSPropertyOp48
 70
     1
102
RTVSPropertyOp49
 70
     1
102
RTVSPropertyOp50
 70
     1
102
RTVSPropertyOp51
 70
     0
102
RTVSPropertyOp52
 70
     0
102
RTVSPropertyOp53
 70
     1
102
RTVSPropertyOp54
 70
     1
102
RTVSPropertyOp55
 70
     1
102
RTVSPropertyOp56
 70
     1
102
RTVSPropertyOp57
 70
     1
102
RTVSPost2010Prop28
280
     0
102
RTVSPost2010PropOp28
 70
     1
102
RTVSPost2010Prop29
280
     1
102
RTVSPost2010PropOp29
 70
     1
102
RTVSPost2010Prop30
280
     1
102
RTVSPost2010PropOp30
 70
     1
102
RTVSPost2010Prop31
280
     0
102
RTVSPost2010PropOp31
 70
     1
102
RTVSPost2010Prop32
280
     0
102
RTVSPost2010PropOp32
 70
     1
102
RTVSPost2010Prop33
280
     0
102
RTVSPost2010PropOp33
 70
     1
102
RTVSPost2010Prop34
280
     0
102
RTVSPost2010PropOp34
 70
     1
102
RTVSPost2010Prop35
280
     0
102
RTVSPost2010PropOp35
 70
     1
102
RTVSPost2010Prop36
280
     0
102
RTVSPost2010PropOp36
 70
     1
102
RTVSPost2010Prop37
 90
       50
102
RTVSPost2010PropOp37
 70
     1
102
RTVSPost2010Prop38
140
0.0
102
RTVSPost2010PropOp38
 70
     1
102
RTVSPost2010Prop39
140
1.0
102
RTVSPost2010PropOp39
 70
     1
102
RTVSPost2010Prop40
 90
        0
102
RTVSPost2010PropOp40
 70
     1
102
RTVSPost2010Prop41ColorIndex
 90
       18
102
RTVSPost2010Prop41ColorRGB
 90
        0
102
RTVSPost2010PropOp41
 70
     1
102
RTVSPost2010Prop42
 90
       50
102
RTVSPost2010PropOp42
 70
     1
102
RTVSPost2010Prop43
 90
        3
102
RTVSPost2010PropOp43
 70
     1
102
RTVSPost2010Prop44ColorIndex
 90
        5
102
RTVSPost2010Prop44ColorRGB
 90
      255
102
RTVSPost2010PropOp44
 70
     1
102
RTVSPost2010Prop45
280
     0
102
RTVSPost2010PropOp45
 70
     1
102
RTVSPost2010Prop46
 90
       50
102
RTVSPost2010PropOp46
 70
     1
102
RTVSPost2010Prop47
 90
       50
102
RTVSPost2010PropOp47
 70
     1
102
RTVSPost2010Prop48
 90
       50
102
RTVSPost2010PropOp48
 70
     1
102
RTVSPost2010Prop49
280
     0
102
RTVSPost2010PropOp49
 70
     1
102
RTVSPost2010Prop50
 90
       50
102
RTVSPost2010PropOp50
 70
     1
102
RTVSPost2010Prop51ColorIndex
 90
      256
102
RTVSPost2010Prop51ColorRGB
 90
-16777216
102
RTVSPost2010PropOp51
 70
     0
102
RTVSPost2010Prop52
140
1.0
102
RTVSPost2010PropOp52
 70
     0
102
RTVSPost2010Prop53
 90
        2
102
RTVSPost2010PropOp53
 70
     1
102
RTVSPost2010Prop54
  1
strokes_ogs.tif
102
RTVSPost2010PropOp54
 70
     1
102
RTVSPost2010Prop55
280
     0
102
RTVSPost2010PropOp55
 70
     1
102
RTVSPost2010Prop56
140
1.0
102
RTVSPost2010PropOp56
 70
     1
102
RTVSPost2010Prop57
140
1.0
102
RTVSPost2010PropOp57
 70
     1
  0
XRECORD
  5
2AD
102
{ACAD_REACTORS
330
2AC
102
}
330
2AC
100
AcDbXrecord
280
     1
102
RTVSPropertyOp0
 70
     0
102
RTVSPropertyOp1
 70
     0
102
RTVSPropertyOp2
 70
     0
102
RTVSPropertyOp3
 70
     0
102
RTVSPropertyOp4
 70
     0
102
RTVSPropertyOp5
 70
     0
102
RTVSPropertyOp6
 70
     0
102
RTVSPropertyOp7
 70
     0
102
RTVSPropertyOp8
 70
     0
102
RTVSPropertyOp9
 70
     0
102
RTVSPropertyOp10
 70
     0
102
RTVSPropertyOp11
 70
     0
102
RTVSPropertyOp12
 70
     0
102
RTVSPropertyOp13
 70
     0
102
RTVSPropertyOp14
 70
     2
102
RTVSPropertyOp15
 70
     0
102
RTVSPropertyOp16
 70
     0
102
RTVSPropertyOp17
 70
     0
102
RTVSPropertyOp18
 70
     0
102
RTVSPropertyOp19
 70
     0
102
RTVSPropertyOp20
 70
     0
102
RTVSPropertyOp21
 70
     0
102
RTVSPropertyOp22
 70
     0
102
RTVSPropertyOp23
 70
     0
102
RTVSPropertyOp24
 70
     0
102
RTVSPropertyOp25
 70
     0
102
RTVSPropertyOp26
 70
     0
102
RTVSPropertyOp27
 70
     0
102
RTVSPropertyOp28
 70
     0
102
RTVSPropertyOp29
 70
     0
102
RTVSPropertyOp30
 70
     0
102
RTVSPropertyOp31
 70
     0
102
RTVSPropertyOp32
 70
     0
102
RTVSPropertyOp33
 70
     0
102
RTVSPropertyOp34
 70
     0
102
RTVSPropertyOp35
 70
     0
102
RTVSPropertyOp36
 70
     0
102
RTVSPropertyOp37
 70
     0
102
RTVSPropertyOp38
 70
     0
102
RTVSPropertyOp39
 70
     0
102
RTVSPropertyOp40
 70
     0
102
RTVSPropertyOp41
 70
     0
102
RTVSPropertyOp42
 70
     0
102
RTVSPropertyOp43
 70
     0
102
RTVSPropertyOp44
 70
     0
102
RTVSPropertyOp45
 70
     0
102
RTVSPropertyOp46
 70
     0
102
RTVSPropertyOp47
 70
     0
102
RTVSPropertyOp48
 70
     0
102
RTVSPropertyOp49
 70
     0
102
RTVSPropertyOp50
 70
     0
102
RTVSPropertyOp51
 70
     0
102
RTVSPropertyOp52
 70
     0
102
RTVSPropertyOp53
 70
     0
102
RTVSPropertyOp54
 70
     0
102
RTVSPropertyOp55
 70
     0
102
RTVSPropertyOp56
 70
     0
102
RTVSPropertyOp57
 70
     0
102
RTVSPost2010Prop28
280
     0
102
RTVSPost2010PropOp28
 70
     0
102
RTVSPost2010Prop29
280
     1
102
RTVSPost2010PropOp29
 70
     0
102
RTVSPost2010Prop30
280
     1
102
RTVSPost2010PropOp30
 70
     0
102
RTVSPost2010Prop31
280
     0
102
RTVSPost2010PropOp31
 70
     0
102
RTVSPost2010Prop32
280
     0
102
RTVSPost2010PropOp32
 70
     0
102
RTVSPost2010Prop33
280
     0
102
RTVSPost2010PropOp33
 70
     0
102
RTVSPost2010Prop34
280
     0
102
RTVSPost2010PropOp34
 70
     0
102
RTVSPost2010Prop35
280
     0
102
RTVSPost2010PropOp35
 70
     0
102
RTVSPost2010Prop36
280
     0
102
RTVSPost2010PropOp36
 70
     0
102
RTVSPost2010Prop37
 90
       50
102
RTVSPost2010PropOp37
 70
     0
102
RTVSPost2010Prop38
140
0.0
102
RTVSPost2010PropOp38
 70
     0
102
RTVSPost2010Prop39
140
1.0
102
RTVSPost2010PropOp39
 70
     0
102
RTVSPost2010Prop40
 90
        0
102
RTVSPost2010PropOp40
 70
     0
102
RTVSPost2010Prop41ColorIndex
 90
       18
102
RTVSPost2010Prop41ColorRGB
 90
        0
102
RTVSPost2010PropOp41
 70
     0
102
RTVSPost2010Prop42
 90
       50
102
RTVSPost2010PropOp42
 70
     0
102
RTVSPost2010Prop43
 90
        3
102
RTVSPost2010PropOp43
 70
     0
102
RTVSPost2010Prop44ColorIndex
 90
        5
102
RTVSPost2010Prop44ColorRGB
 90
      255
102
RTVSPost2010PropOp44
 70
     0
102
RTVSPost2010Prop45
280
     0
102
RTVSPost2010PropOp45
 70
     0
102
RTVSPost2010Prop46
 90
       50
102
RTVSPost2010PropOp46
 70
     0
102
RTVSPost2010Prop47
 90
       50
102
RTVSPost2010PropOp47
 70
     0
102
RTVSPost2010Prop48
 90
       50
102
RTVSPost2010PropOp48
 70
     0
102
RTVSPost2010Prop49
280
     0
102
RTVSPost2010PropOp49
 70
     0
102
RTVSPost2010Prop50
 90
       50
102
RTVSPost2010PropOp50
 70
     0
102
RTVSPost2010Prop51ColorIndex
 90
      256
102
RTVSPost2010Prop51ColorRGB
 90
-16777216
102
RTVSPost2010PropOp51
 70
     0
102
RTVSPost2010Prop52
140
1.0
102
RTVSPost2010PropOp52
 70
     0
102
RTVSPost2010Prop53
 90
        2
102
RTVSPost2010PropOp53
 70
     0
102
RTVSPost2010Prop54
  1
strokes_ogs.tif
102
RTVSPost2010PropOp54
 70
     0
102
RTVSPost2010Prop55
280
     0
102
RTVSPost2010PropOp55
 70
     0
102
RTVSPost2010Prop56
140
1.0
102
RTVSPost2010PropOp56
 70
     0
102
RTVSPost2010Prop57
140
1.0
102
RTVSPost2010PropOp57
 70
     0
  0
XRECORD
  5
2A7
102
{ACAD_REACTORS
330
2A6
102
}
330
2A6
100
AcDbXrecord
280
     1
102
RTVSPropertyOp0
 70
     1
102
RTVSPropertyOp1
 70
     1
102
RTVSPropertyOp2
 70
     1
102
RTVSPropertyOp3
 70
     1
102
RTVSPropertyOp4
 70
     1
102
RTVSPropertyOp5
 70
     1
102
RTVSPropertyOp6
 70
     1
102
RTVSPropertyOp7
 70
     1
102
RTVSPropertyOp8
 70
     1
102
RTVSPropertyOp9
 70
     1
102
RTVSPropertyOp10
 70
     1
102
RTVSPropertyOp11
 70
     1
102
RTVSPropertyOp12
 70
     1
102
RTVSPropertyOp13
 70
     1
102
RTVSPropertyOp14
 70
     1
102
RTVSPropertyOp15
 70
     1
102
RTVSPropertyOp16
 70
     1
102
RTVSPropertyOp17
 70
     1
102
RTVSPropertyOp18
 70
     1
102
RTVSPropertyOp19
 70
     1
102
RTVSPropertyOp20
 70
     1
102
RTVSPropertyOp21
 70
     1
102
RTVSPropertyOp22
 70
     1
102
RTVSPropertyOp23
 70
     1
102
RTVSPropertyOp24
 70
     1
102
RTVSPropertyOp25
 70
     1
102
RTVSPropertyOp26
 70
     1
102
RTVSPropertyOp27
 70
     1
102
RTVSPropertyOp28
 70
     1
102
RTVSPropertyOp29
 70
     1
102
RTVSPropertyOp30
 70
     1
102
RTVSPropertyOp31
 70
     1
102
RTVSPropertyOp32
 70
     1
102
RTVSPropertyOp33
 70
     1
102
RTVSPropertyOp34
 70
     1
102
RTVSPropertyOp35
 70
     1
102
RTVSPropertyOp36
 70
     1
102
RTVSPropertyOp37
 70
     1
102
RTVSPropertyOp38
 70
     1
102
RTVSPropertyOp39
 70
     1
102
RTVSPropertyOp40
 70
     1
102
RTVSPropertyOp41
 70
     1
102
RTVSPropertyOp42
 70
     1
102
RTVSPropertyOp43
 70
     1
102
RTVSPropertyOp44
 70
     1
102
RTVSPropertyOp45
 70
     1
102
RTVSPropertyOp46
 70
     1
102
RTVSPropertyOp47
 70
     1
102
RTVSPropertyOp48
 70
     1
102
RTVSPropertyOp49
 70
     1
102
RTVSPropertyOp50
 70
     1
102
RTVSPropertyOp51
 70
     0
102
RTVSPropertyOp52
 70
     0
102
RTVSPropertyOp53
 70
     1
102
RTVSPropertyOp54
 70
     1
102
RTVSPropertyOp55
 70
     1
102
RTVSPropertyOp56
 70
     1
102
RTVSPropertyOp57
 70
     1
102
RTVSPost2010Prop28
280
     0
102
RTVSPost2010PropOp28
 70
     1
102
RTVSPost2010Prop29
280
     1
102
RTVSPost2010PropOp29
 70
     1
102
RTVSPost2010Prop30
280
     1
102
RTVSPost2010PropOp30
 70
     1
102
RTVSPost2010Prop31
280
     0
102
RTVSPost2010PropOp31
 70
     1
102
RTVSPost2010Prop32
280
     0
102
RTVSPost2010PropOp32
 70
     1
102
RTVSPost2010Prop33
280
     0
102
RTVSPost2010PropOp33
 70
     1
102
RTVSPost2010Prop34
280
     0
102
RTVSPost2010PropOp34
 70
     1
102
RTVSPost2010Prop35
280
     0
102
RTVSPost2010PropOp35
 70
     1
102
RTVSPost2010Prop36
280
     0
102
RTVSPost2010PropOp36
 70
     1
102
RTVSPost2010Prop37
 90
       50
102
RTVSPost2010PropOp37
 70
     1
102
RTVSPost2010Prop38
140
0.0
102
RTVSPost2010PropOp38
 70
     1
102
RTVSPost2010Prop39
140
1.0
102
RTVSPost2010PropOp39
 70
     1
102
RTVSPost2010Prop40
 90
        0
102
RTVSPost2010PropOp40
 70
     1
102
RTVSPost2010Prop41ColorIndex
 90
       18
102
RTVSPost2010Prop41ColorRGB
 90
        0
102
RTVSPost2010PropOp41
 70
     1
102
RTVSPost2010Prop42
 90
       50
102
RTVSPost2010PropOp42
 70
     1
102
RTVSPost2010Prop43
 90
        3
102
RTVSPost2010PropOp43
 70
     1
102
RTVSPost2010Prop44ColorIndex
 90
        5
102
RTVSPost2010Prop44ColorRGB
 90
      255
102
RTVSPost2010PropOp44
 70
     1
102
RTVSPost2010Prop45
280
     0
102
RTVSPost2010PropOp45
 70
     1
102
RTVSPost2010Prop46
 90
       50
102
RTVSPost2010PropOp46
 70
     1
102
RTVSPost2010Prop47
 90
       50
102
RTVSPost2010PropOp47
 70
     1
102
RTVSPost2010Prop48
 90
       50
102
RTVSPost2010PropOp48
 70
     1
102
RTVSPost2010Prop49
280
     0
102
RTVSPost2010PropOp49
 70
     1
102
RTVSPost2010Prop50
 90
       50
102
RTVSPost2010PropOp50
 70
     1
102
RTVSPost2010Prop51ColorIndex
 90
      256
102
RTVSPost2010Prop51ColorRGB
 90
-16777216
102
RTVSPost2010PropOp51
 70
     0
102
RTVSPost2010Prop52
140
1.0
102
RTVSPost2010PropOp52
 70
     0
102
RTVSPost2010Prop53
 90
        2
102
RTVSPost2010PropOp53
 70
     1
102
RTVSPost2010Prop54
  1
strokes_ogs.tif
102
RTVSPost2010PropOp54
 70
     1
102
RTVSPost2010Prop55
280
     0
102
RTVSPost2010PropOp55
 70
     1
102
RTVSPost2010Prop56
140
1.0
102
RTVSPost2010PropOp56
 70
     1
102
RTVSPost2010Prop57
140
1.0
102
RTVSPost2010PropOp57
 70
     1
  0
XRECORD
  5
2AF
102
{ACAD_REACTORS
330
2AE
102
}
330
2AE
100
AcDbXrecord
280
     1
102
RTVSPropertyOp0
 70
     0
102
RTVSPropertyOp1
 70
     0
102
RTVSPropertyOp2
 70
     0
102
RTVSPropertyOp3
 70
     0
102
RTVSPropertyOp4
 70
     0
102
RTVSPropertyOp5
 70
     0
102
RTVSPropertyOp6
 70
     0
102
RTVSPropertyOp7
 70
     0
102
RTVSPropertyOp8
 70
     0
102
RTVSPropertyOp9
 70
     0
102
RTVSPropertyOp10
 70
     0
102
RTVSPropertyOp11
 70
     0
102
RTVSPropertyOp12
 70
     0
102
RTVSPropertyOp13
 70
     0
102
RTVSPropertyOp14
 70
     2
102
RTVSPropertyOp15
 70
     0
102
RTVSPropertyOp16
 70
     0
102
RTVSPropertyOp17
 70
     0
102
RTVSPropertyOp18
 70
     0
102
RTVSPropertyOp19
 70
     0
102
RTVSPropertyOp20
 70
     0
102
RTVSPropertyOp21
 70
     0
102
RTVSPropertyOp22
 70
     0
102
RTVSPropertyOp23
 70
     0
102
RTVSPropertyOp24
 70
     0
102
RTVSPropertyOp25
 70
     0
102
RTVSPropertyOp26
 70
     0
102
RTVSPropertyOp27
 70
     0
102
RTVSPropertyOp28
 70
     0
102
RTVSPropertyOp29
 70
     0
102
RTVSPropertyOp30
 70
     0
102
RTVSPropertyOp31
 70
     0
102
RTVSPropertyOp32
 70
     0
102
RTVSPropertyOp33
 70
     0
102
RTVSPropertyOp34
 70
     0
102
RTVSPropertyOp35
 70
     0
102
RTVSPropertyOp36
 70
     0
102
RTVSPropertyOp37
 70
     0
102
RTVSPropertyOp38
 70
     0
102
RTVSPropertyOp39
 70
     0
102
RTVSPropertyOp40
 70
     0
102
RTVSPropertyOp41
 70
     0
102
RTVSPropertyOp42
 70
     0
102
RTVSPropertyOp43
 70
     0
102
RTVSPropertyOp44
 70
     0
102
RTVSPropertyOp45
 70
     0
102
RTVSPropertyOp46
 70
     0
102
RTVSPropertyOp47
 70
     0
102
RTVSPropertyOp48
 70
     0
102
RTVSPropertyOp49
 70
     0
102
RTVSPropertyOp50
 70
     0
102
RTVSPropertyOp51
 70
     0
102
RTVSPropertyOp52
 70
     0
102
RTVSPropertyOp53
 70
     0
102
RTVSPropertyOp54
 70
     0
102
RTVSPropertyOp55
 70
     0
102
RTVSPropertyOp56
 70
     0
102
RTVSPropertyOp57
 70
     0
102
RTVSPost2010Prop28
280
     0
102
RTVSPost2010PropOp28
 70
     0
102
RTVSPost2010Prop29
280
     1
102
RTVSPost2010PropOp29
 70
     0
102
RTVSPost2010Prop30
280
     1
102
RTVSPost2010PropOp30
 70
     0
102
RTVSPost2010Prop31
280
     0
102
RTVSPost2010PropOp31
 70
     0
102
RTVSPost2010Prop32
280
     0
102
RTVSPost2010PropOp32
 70
     0
102
RTVSPost2010Prop33
280
     0
102
RTVSPost2010PropOp33
 70
     0
102
RTVSPost2010Prop34
280
     0
102
RTVSPost2010PropOp34
 70
     0
102
RTVSPost2010Prop35
280
     0
102
RTVSPost2010PropOp35
 70
     0
102
RTVSPost2010Prop36
280
     0
102
RTVSPost2010PropOp36
 70
     0
102
RTVSPost2010Prop37
 90
       50
102
RTVSPost2010PropOp37
 70
     0
102
RTVSPost2010Prop38
140
0.0
102
RTVSPost2010PropOp38
 70
     0
102
RTVSPost2010Prop39
140
1.0
102
RTVSPost2010PropOp39
 70
     0
102
RTVSPost2010Prop40
 90
        0
102
RTVSPost2010PropOp40
 70
     0
102
RTVSPost2010Prop41ColorIndex
 90
       18
102
RTVSPost2010Prop41ColorRGB
 90
        0
102
RTVSPost2010PropOp41
 70
     0
102
RTVSPost2010Prop42
 90
       50
102
RTVSPost2010PropOp42
 70
     0
102
RTVSPost2010Prop43
 90
        3
102
RTVSPost2010PropOp43
 70
     0
102
RTVSPost2010Prop44ColorIndex
 90
        5
102
RTVSPost2010Prop44ColorRGB
 90
      255
102
RTVSPost2010PropOp44
 70
     0
102
RTVSPost2010Prop45
280
     0
102
RTVSPost2010PropOp45
 70
     0
102
RTVSPost2010Prop46
 90
       50
102
RTVSPost2010PropOp46
 70
     0
102
RTVSPost2010Prop47
 90
       50
102
RTVSPost2010PropOp47
 70
     0
102
RTVSPost2010Prop48
 90
       50
102
RTVSPost2010PropOp48
 70
     0
102
RTVSPost2010Prop49
280
     0
102
RTVSPost2010PropOp49
 70
     0
102
RTVSPost2010Prop50
 90
       50
102
RTVSPost2010PropOp50
 70
     0
102
RTVSPost2010Prop51ColorIndex
 90
      256
102
RTVSPost2010Prop51ColorRGB
 90
-16777216
102
RTVSPost2010PropOp51
 70
     0
102
RTVSPost2010Prop52
140
1.0
102
RTVSPost2010PropOp52
 70
     0
102
RTVSPost2010Prop53
 90
        2
102
RTVSPost2010PropOp53
 70
     0
102
RTVSPost2010Prop54
  1
strokes_ogs.tif
102
RTVSPost2010PropOp54
 70
     0
102
RTVSPost2010Prop55
280
     0
102
RTVSPost2010PropOp55
 70
     0
102
RTVSPost2010Prop56
140
1.0
102
RTVSPost2010PropOp56
 70
     0
102
RTVSPost2010Prop57
140
1.0
102
RTVSPost2010PropOp57
 70
     0
  0
XRECORD
  5
29D
102
{ACAD_REACTORS
330
29C
102
}
330
29C
100
AcDbXrecord
280
     1
102
RTVSPropertyOp0
 70
     1
102
RTVSPropertyOp1
 70
     1
102
RTVSPropertyOp2
 70
     1
102
RTVSPropertyOp3
 70
     1
102
RTVSPropertyOp4
 70
     1
102
RTVSPropertyOp5
 70
     1
102
RTVSPropertyOp6
 70
     1
102
RTVSPropertyOp7
 70
     1
102
RTVSPropertyOp8
 70
     1
102
RTVSPropertyOp9
 70
     1
102
RTVSPropertyOp10
 70
     1
102
RTVSPropertyOp11
 70
     1
102
RTVSPropertyOp12
 70
     1
102
RTVSPropertyOp13
 70
     1
102
RTVSPropertyOp14
 70
     1
102
RTVSPropertyOp15
 70
     1
102
RTVSPropertyOp16
 70
     1
102
RTVSPropertyOp17
 70
     1
102
RTVSPropertyOp18
 70
     1
102
RTVSPropertyOp19
 70
     1
102
RTVSPropertyOp20
 70
     1
102
RTVSPropertyOp21
 70
     1
102
RTVSPropertyOp22
 70
     1
102
RTVSPropertyOp23
 70
     1
102
RTVSPropertyOp24
 70
     1
102
RTVSPropertyOp25
 70
     1
102
RTVSPropertyOp26
 70
     1
102
RTVSPropertyOp27
 70
     1
102
RTVSPropertyOp28
 70
     1
102
RTVSPropertyOp29
 70
     1
102
RTVSPropertyOp30
 70
     1
102
RTVSPropertyOp31
 70
     1
102
RTVSPropertyOp32
 70
     1
102
RTVSPropertyOp33
 70
     1
102
RTVSPropertyOp34
 70
     1
102
RTVSPropertyOp35
 70
     1
102
RTVSPropertyOp36
 70
     1
102
RTVSPropertyOp37
 70
     1
102
RTVSPropertyOp38
 70
     1
102
RTVSPropertyOp39
 70
     1
102
RTVSPropertyOp40
 70
     1
102
RTVSPropertyOp41
 70
     1
102
RTVSPropertyOp42
 70
     1
102
RTVSPropertyOp43
 70
     1
102
RTVSPropertyOp44
 70
     1
102
RTVSPropertyOp45
 70
     1
102
RTVSPropertyOp46
 70
     1
102
RTVSPropertyOp47
 70
     1
102
RTVSPropertyOp48
 70
     1
102
RTVSPropertyOp49
 70
     1
102
RTVSPropertyOp50
 70
     1
102
RTVSPropertyOp51
 70
     0
102
RTVSPropertyOp52
 70
     0
102
RTVSPropertyOp53
 70
     1
102
RTVSPropertyOp54
 70
     1
102
RTVSPropertyOp55
 70
     1
102
RTVSPropertyOp56
 70
     1
102
RTVSPropertyOp57
 70
     1
102
RTVSPost2010Prop28
280
     0
102
RTVSPost2010PropOp28
 70
     1
102
RTVSPost2010Prop29
280
     1
102
RTVSPost2010PropOp29
 70
     1
102
RTVSPost2010Prop30
280
     1
102
RTVSPost2010PropOp30
 70
     1
102
RTVSPost2010Prop31
280
     0
102
RTVSPost2010PropOp31
 70
     1
102
RTVSPost2010Prop32
280
     0
102
RTVSPost2010PropOp32
 70
     1
102
RTVSPost2010Prop33
280
     0
102
RTVSPost2010PropOp33
 70
     1
102
RTVSPost2010Prop34
280
     0
102
RTVSPost2010PropOp34
 70
     1
102
RTVSPost2010Prop35
280
     0
102
RTVSPost2010PropOp35
 70
     1
102
RTVSPost2010Prop36
280
     0
102
RTVSPost2010PropOp36
 70
     1
102
RTVSPost2010Prop37
 90
       50
102
RTVSPost2010PropOp37
 70
     1
102
RTVSPost2010Prop38
140
0.0
102
RTVSPost2010PropOp38
 70
     1
102
RTVSPost2010Prop39
140
1.0
102
RTVSPost2010PropOp39
 70
     1
102
RTVSPost2010Prop40
 90
        0
102
RTVSPost2010PropOp40
 70
     1
102
RTVSPost2010Prop41ColorIndex
 90
       18
102
RTVSPost2010Prop41ColorRGB
 90
        0
102
RTVSPost2010PropOp41
 70
     1
102
RTVSPost2010Prop42
 90
       50
102
RTVSPost2010PropOp42
 70
     1
102
RTVSPost2010Prop43
 90
        3
102
RTVSPost2010PropOp43
 70
     1
102
RTVSPost2010Prop44ColorIndex
 90
        5
102
RTVSPost2010Prop44ColorRGB
 90
      255
102
RTVSPost2010PropOp44
 70
     1
102
RTVSPost2010Prop45
280
     0
102
RTVSPost2010PropOp45
 70
     1
102
RTVSPost2010Prop46
 90
       50
102
RTVSPost2010PropOp46
 70
     1
102
RTVSPost2010Prop47
 90
       50
102
RTVSPost2010PropOp47
 70
     1
102
RTVSPost2010Prop48
 90
       50
102
RTVSPost2010PropOp48
 70
     1
102
RTVSPost2010Prop49
280
     0
102
RTVSPost2010PropOp49
 70
     1
102
RTVSPost2010Prop50
 90
       50
102
RTVSPost2010PropOp50
 70
     1
102
RTVSPost2010Prop51ColorIndex
 90
      256
102
RTVSPost2010Prop51ColorRGB
 90
-16777216
102
RTVSPost2010PropOp51
 70
     0
102
RTVSPost2010Prop52
140
1.0
102
RTVSPost2010PropOp52
 70
     0
102
RTVSPost2010Prop53
 90
        2
102
RTVSPost2010PropOp53
 70
     1
102
RTVSPost2010Prop54
  1
strokes_ogs.tif
102
RTVSPost2010PropOp54
 70
     1
102
RTVSPost2010Prop55
280
     0
102
RTVSPost2010PropOp55
 70
     1
102
RTVSPost2010Prop56
140
1.0
102
RTVSPost2010PropOp56
 70
     1
102
RTVSPost2010Prop57
140
1.0
102
RTVSPost2010PropOp57
 70
     1
  0
XRECORD
  5
2BB
102
{ACAD_REACTORS
330
2BA
102
}
330
2BA
100
AcDbXrecord
280
     1
102
RTVSPropertyOp0
 70
     1
102
RTVSPropertyOp1
 70
     1
102
RTVSPropertyOp2
 70
     1
102
RTVSPropertyOp3
 70
     1
102
RTVSPropertyOp4
 70
     1
102
RTVSPropertyOp5
 70
     1
102
RTVSPropertyOp6
 70
     1
102
RTVSPropertyOp7
 70
     1
102
RTVSPropertyOp8
 70
     1
102
RTVSPropertyOp9
 70
     1
102
RTVSPropertyOp10
 70
     1
102
RTVSPropertyOp11
 70
     1
102
RTVSPropertyOp12
 70
     1
102
RTVSPropertyOp13
 70
     1
102
RTVSPropertyOp14
 70
     1
102
RTVSPropertyOp15
 70
     1
102
RTVSPropertyOp16
 70
     1
102
RTVSPropertyOp17
 70
     1
102
RTVSPropertyOp18
 70
     1
102
RTVSPropertyOp19
 70
     1
102
RTVSPropertyOp20
 70
     1
102
RTVSPropertyOp21
 70
     1
102
RTVSPropertyOp22
 70
     1
102
RTVSPropertyOp23
 70
     1
102
RTVSPropertyOp24
 70
     1
102
RTVSPropertyOp25
 70
     1
102
RTVSPropertyOp26
 70
     1
102
RTVSPropertyOp27
 70
     1
102
RTVSPropertyOp28
 70
     1
102
RTVSPropertyOp29
 70
     1
102
RTVSPropertyOp30
 70
     1
102
RTVSPropertyOp31
 70
     1
102
RTVSPropertyOp32
 70
     1
102
RTVSPropertyOp33
 70
     1
102
RTVSPropertyOp34
 70
     1
102
RTVSPropertyOp35
 70
     1
102
RTVSPropertyOp36
 70
     1
102
RTVSPropertyOp37
 70
     1
102
RTVSPropertyOp38
 70
     1
102
RTVSPropertyOp39
 70
     1
102
RTVSPropertyOp40
 70
     1
102
RTVSPropertyOp41
 70
     1
102
RTVSPropertyOp42
 70
     1
102
RTVSPropertyOp43
 70
     1
102
RTVSPropertyOp44
 70
     1
102
RTVSPropertyOp45
 70
     1
102
RTVSPropertyOp46
 70
     1
102
RTVSPropertyOp47
 70
     1
102
RTVSPropertyOp48
 70
     1
102
RTVSPropertyOp49
 70
     1
102
RTVSPropertyOp50
 70
     1
102
RTVSPropertyOp51
 70
     0
102
RTVSPropertyOp52
 70
     0
102
RTVSPropertyOp53
 70
     1
102
RTVSPropertyOp54
 70
     1
102
RTVSPropertyOp55
 70
     1
102
RTVSPropertyOp56
 70
     1
102
RTVSPropertyOp57
 70
     1
102
RTVSPost2010Prop28
280
     0
102
RTVSPost2010PropOp28
 70
     1
102
RTVSPost2010Prop29
280
     1
102
RTVSPost2010PropOp29
 70
     1
102
RTVSPost2010Prop30
280
     1
102
RTVSPost2010PropOp30
 70
     1
102
RTVSPost2010Prop31
280
     0
102
RTVSPost2010PropOp31
 70
     1
102
RTVSPost2010Prop32
280
     0
102
RTVSPost2010PropOp32
 70
     1
102
RTVSPost2010Prop33
280
     0
102
RTVSPost2010PropOp33
 70
     1
102
RTVSPost2010Prop34
280
     0
102
RTVSPost2010PropOp34
 70
     1
102
RTVSPost2010Prop35
280
     0
102
RTVSPost2010PropOp35
 70
     1
102
RTVSPost2010Prop36
280
     0
102
RTVSPost2010PropOp36
 70
     1
102
RTVSPost2010Prop37
 90
       50
102
RTVSPost2010PropOp37
 70
     1
102
RTVSPost2010Prop38
140
0.0
102
RTVSPost2010PropOp38
 70
     1
102
RTVSPost2010Prop39
140
1.0
102
RTVSPost2010PropOp39
 70
     1
102
RTVSPost2010Prop40
 90
        0
102
RTVSPost2010PropOp40
 70
     1
102
RTVSPost2010Prop41ColorIndex
 90
       18
102
RTVSPost2010Prop41ColorRGB
 90
        0
102
RTVSPost2010PropOp41
 70
     1
102
RTVSPost2010Prop42
 90
       50
102
RTVSPost2010PropOp42
 70
     1
102
RTVSPost2010Prop43
 90
        3
102
RTVSPost2010PropOp43
 70
     1
102
RTVSPost2010Prop44ColorIndex
 90
        5
102
RTVSPost2010Prop44ColorRGB
 90
      255
102
RTVSPost2010PropOp44
 70
     1
102
RTVSPost2010Prop45
280
     0
102
RTVSPost2010PropOp45
 70
     1
102
RTVSPost2010Prop46
 90
       50
102
RTVSPost2010PropOp46
 70
     1
102
RTVSPost2010Prop47
 90
       50
102
RTVSPost2010PropOp47
 70
     1
102
RTVSPost2010Prop48
 90
       50
102
RTVSPost2010PropOp48
 70
     1
102
RTVSPost2010Prop49
280
     0
102
RTVSPost2010PropOp49
 70
     1
102
RTVSPost2010Prop50
 90
       50
102
RTVSPost2010PropOp50
 70
     1
102
RTVSPost2010Prop51ColorIndex
 90
      256
102
RTVSPost2010Prop51ColorRGB
 90
-16777216
102
RTVSPost2010PropOp51
 70
     0
102
RTVSPost2010Prop52
140
1.0
102
RTVSPost2010PropOp52
 70
     0
102
RTVSPost2010Prop53
 90
        2
102
RTVSPost2010PropOp53
 70
     1
102
RTVSPost2010Prop54
  1
strokes_ogs.tif
102
RTVSPost2010PropOp54
 70
     1
102
RTVSPost2010Prop55
280
     0
102
RTVSPost2010PropOp55
 70
     1
102
RTVSPost2010Prop56
140
1.0
102
RTVSPost2010PropOp56
 70
     1
102
RTVSPost2010Prop57
140
1.0
102
RTVSPost2010PropOp57
 70
     1
  0
XRECORD
  5
2B9
102
{ACAD_REACTORS
330
2B8
102
}
330
2B8
100
AcDbXrecord
280
     1
102
RTVSPropertyOp0
 70
     1
102
RTVSPropertyOp1
 70
     1
102
RTVSPropertyOp2
 70
     1
102
RTVSPropertyOp3
 70
     1
102
RTVSPropertyOp4
 70
     1
102
RTVSPropertyOp5
 70
     1
102
RTVSPropertyOp6
 70
     1
102
RTVSPropertyOp7
 70
     1
102
RTVSPropertyOp8
 70
     1
102
RTVSPropertyOp9
 70
     1
102
RTVSPropertyOp10
 70
     1
102
RTVSPropertyOp11
 70
     1
102
RTVSPropertyOp12
 70
     1
102
RTVSPropertyOp13
 70
     1
102
RTVSPropertyOp14
 70
     1
102
RTVSPropertyOp15
 70
     1
102
RTVSPropertyOp16
 70
     1
102
RTVSPropertyOp17
 70
     1
102
RTVSPropertyOp18
 70
     1
102
RTVSPropertyOp19
 70
     1
102
RTVSPropertyOp20
 70
     1
102
RTVSPropertyOp21
 70
     1
102
RTVSPropertyOp22
 70
     1
102
RTVSPropertyOp23
 70
     1
102
RTVSPropertyOp24
 70
     1
102
RTVSPropertyOp25
 70
     1
102
RTVSPropertyOp26
 70
     1
102
RTVSPropertyOp27
 70
     1
102
RTVSPropertyOp28
 70
     1
102
RTVSPropertyOp29
 70
     1
102
RTVSPropertyOp30
 70
     1
102
RTVSPropertyOp31
 70
     1
102
RTVSPropertyOp32
 70
     1
102
RTVSPropertyOp33
 70
     1
102
RTVSPropertyOp34
 70
     1
102
RTVSPropertyOp35
 70
     1
102
RTVSPropertyOp36
 70
     1
102
RTVSPropertyOp37
 70
     1
102
RTVSPropertyOp38
 70
     1
102
RTVSPropertyOp39
 70
     1
102
RTVSPropertyOp40
 70
     1
102
RTVSPropertyOp41
 70
     1
102
RTVSPropertyOp42
 70
     1
102
RTVSPropertyOp43
 70
     1
102
RTVSPropertyOp44
 70
     1
102
RTVSPropertyOp45
 70
     1
102
RTVSPropertyOp46
 70
     1
102
RTVSPropertyOp47
 70
     1
102
RTVSPropertyOp48
 70
     1
102
RTVSPropertyOp49
 70
     1
102
RTVSPropertyOp50
 70
     1
102
RTVSPropertyOp51
 70
     0
102
RTVSPropertyOp52
 70
     0
102
RTVSPropertyOp53
 70
     1
102
RTVSPropertyOp54
 70
     1
102
RTVSPropertyOp55
 70
     1
102
RTVSPropertyOp56
 70
     1
102
RTVSPropertyOp57
 70
     1
102
RTVSPost2010Prop28
280
     0
102
RTVSPost2010PropOp28
 70
     1
102
RTVSPost2010Prop29
280
     1
102
RTVSPost2010PropOp29
 70
     1
102
RTVSPost2010Prop30
280
     1
102
RTVSPost2010PropOp30
 70
     1
102
RTVSPost2010Prop31
280
     0
102
RTVSPost2010PropOp31
 70
     1
102
RTVSPost2010Prop32
280
     0
102
RTVSPost2010PropOp32
 70
     1
102
RTVSPost2010Prop33
280
     0
102
RTVSPost2010PropOp33
 70
     1
102
RTVSPost2010Prop34
280
     0
102
RTVSPost2010PropOp34
 70
     1
102
RTVSPost2010Prop35
280
     0
102
RTVSPost2010PropOp35
 70
     1
102
RTVSPost2010Prop36
280
     0
102
RTVSPost2010PropOp36
 70
     1
102
RTVSPost2010Prop37
 90
       50
102
RTVSPost2010PropOp37
 70
     1
102
RTVSPost2010Prop38
140
0.0
102
RTVSPost2010PropOp38
 70
     1
102
RTVSPost2010Prop39
140
1.0
102
RTVSPost2010PropOp39
 70
     1
102
RTVSPost2010Prop40
 90
        0
102
RTVSPost2010PropOp40
 70
     1
102
RTVSPost2010Prop41ColorIndex
 90
       18
102
RTVSPost2010Prop41ColorRGB
 90
        0
102
RTVSPost2010PropOp41
 70
     1
102
RTVSPost2010Prop42
 90
       50
102
RTVSPost2010PropOp42
 70
     1
102
RTVSPost2010Prop43
 90
        3
102
RTVSPost2010PropOp43
 70
     1
102
RTVSPost2010Prop44ColorIndex
 90
        5
102
RTVSPost2010Prop44ColorRGB
 90
      255
102
RTVSPost2010PropOp44
 70
     1
102
RTVSPost2010Prop45
280
     0
102
RTVSPost2010PropOp45
 70
     1
102
RTVSPost2010Prop46
 90
       50
102
RTVSPost2010PropOp46
 70
     1
102
RTVSPost2010Prop47
 90
       50
102
RTVSPost2010PropOp47
 70
     1
102
RTVSPost2010Prop48
 90
       50
102
RTVSPost2010PropOp48
 70
     1
102
RTVSPost2010Prop49
280
     0
102
RTVSPost2010PropOp49
 70
     1
102
RTVSPost2010Prop50
 90
       50
102
RTVSPost2010PropOp50
 70
     1
102
RTVSPost2010Prop51ColorIndex
 90
      256
102
RTVSPost2010Prop51ColorRGB
 90
-16777216
102
RTVSPost2010PropOp51
 70
     0
102
RTVSPost2010Prop52
140
1.0
102
RTVSPost2010PropOp52
 70
     0
102
RTVSPost2010Prop53
 90
        2
102
RTVSPost2010PropOp53
 70
     1
102
RTVSPost2010Prop54
  1
strokes_ogs.tif
102
RTVSPost2010PropOp54
 70
     1
102
RTVSPost2010Prop55
280
     0
102
RTVSPost2010PropOp55
 70
     1
102
RTVSPost2010Prop56
140
1.0
102
RTVSPost2010PropOp56
 70
     1
102
RTVSPost2010Prop57
140
1.0
102
RTVSPost2010PropOp57
 70
     1
  0
XRECORD
  5
2B3
102
{ACAD_REACTORS
330
2B2
102
}
330
2B2
100
AcDbXrecord
280
     1
102
RTVSPropertyOp0
 70
     1
102
RTVSPropertyOp1
 70
     1
102
RTVSPropertyOp2
 70
     1
102
RTVSPropertyOp3
 70
     1
102
RTVSPropertyOp4
 70
     1
102
RTVSPropertyOp5
 70
     1
102
RTVSPropertyOp6
 70
     1
102
RTVSPropertyOp7
 70
     1
102
RTVSPropertyOp8
 70
     1
102
RTVSPropertyOp9
 70
     1
102
RTVSPropertyOp10
 70
     1
102
RTVSPropertyOp11
 70
     1
102
RTVSPropertyOp12
 70
     1
102
RTVSPropertyOp13
 70
     1
102
RTVSPropertyOp14
 70
     1
102
RTVSPropertyOp15
 70
     1
102
RTVSPropertyOp16
 70
     1
102
RTVSPropertyOp17
 70
     1
102
RTVSPropertyOp18
 70
     1
102
RTVSPropertyOp19
 70
     1
102
RTVSPropertyOp20
 70
     1
102
RTVSPropertyOp21
 70
     1
102
RTVSPropertyOp22
 70
     1
102
RTVSPropertyOp23
 70
     1
102
RTVSPropertyOp24
 70
     1
102
RTVSPropertyOp25
 70
     1
102
RTVSPropertyOp26
 70
     1
102
RTVSPropertyOp27
 70
     1
102
RTVSPropertyOp28
 70
     1
102
RTVSPropertyOp29
 70
     1
102
RTVSPropertyOp30
 70
     1
102
RTVSPropertyOp31
 70
     1
102
RTVSPropertyOp32
 70
     1
102
RTVSPropertyOp33
 70
     1
102
RTVSPropertyOp34
 70
     1
102
RTVSPropertyOp35
 70
     1
102
RTVSPropertyOp36
 70
     1
102
RTVSPropertyOp37
 70
     1
102
RTVSPropertyOp38
 70
     1
102
RTVSPropertyOp39
 70
     1
102
RTVSPropertyOp40
 70
     1
102
RTVSPropertyOp41
 70
     1
102
RTVSPropertyOp42
 70
     1
102
RTVSPropertyOp43
 70
     1
102
RTVSPropertyOp44
 70
     1
102
RTVSPropertyOp45
 70
     1
102
RTVSPropertyOp46
 70
     1
102
RTVSPropertyOp47
 70
     1
102
RTVSPropertyOp48
 70
     1
102
RTVSPropertyOp49
 70
     1
102
RTVSPropertyOp50
 70
     1
102
RTVSPropertyOp51
 70
     0
102
RTVSPropertyOp52
 70
     0
102
RTVSPropertyOp53
 70
     1
102
RTVSPropertyOp54
 70
     1
102
RTVSPropertyOp55
 70
     1
102
RTVSPropertyOp56
 70
     1
102
RTVSPropertyOp57
 70
     1
102
RTVSPost2010Prop28
280
     0
102
RTVSPost2010PropOp28
 70
     1
102
RTVSPost2010Prop29
280
     1
102
RTVSPost2010PropOp29
 70
     1
102
RTVSPost2010Prop30
280
     1
102
RTVSPost2010PropOp30
 70
     1
102
RTVSPost2010Prop31
280
     0
102
RTVSPost2010PropOp31
 70
     1
102
RTVSPost2010Prop32
280
     0
102
RTVSPost2010PropOp32
 70
     1
102
RTVSPost2010Prop33
280
     0
102
RTVSPost2010PropOp33
 70
     1
102
RTVSPost2010Prop34
280
     0
102
RTVSPost2010PropOp34
 70
     1
102
RTVSPost2010Prop35
280
     0
102
RTVSPost2010PropOp35
 70
     1
102
RTVSPost2010Prop36
280
     0
102
RTVSPost2010PropOp36
 70
     1
102
RTVSPost2010Prop37
 90
       50
102
RTVSPost2010PropOp37
 70
     1
102
RTVSPost2010Prop38
140
0.0
102
RTVSPost2010PropOp38
 70
     1
102
RTVSPost2010Prop39
140
1.0
102
RTVSPost2010PropOp39
 70
     1
102
RTVSPost2010Prop40
 90
        0
102
RTVSPost2010PropOp40
 70
     1
102
RTVSPost2010Prop41ColorIndex
 90
       18
102
RTVSPost2010Prop41ColorRGB
 90
        0
102
RTVSPost2010PropOp41
 70
     1
102
RTVSPost2010Prop42
 90
       50
102
RTVSPost2010PropOp42
 70
     1
102
RTVSPost2010Prop43
 90
        3
102
RTVSPost2010PropOp43
 70
     1
102
RTVSPost2010Prop44ColorIndex
 90
        5
102
RTVSPost2010Prop44ColorRGB
 90
      255
102
RTVSPost2010PropOp44
 70
     1
102
RTVSPost2010Prop45
280
     0
102
RTVSPost2010PropOp45
 70
     1
102
RTVSPost2010Prop46
 90
       50
102
RTVSPost2010PropOp46
 70
     1
102
RTVSPost2010Prop47
 90
       50
102
RTVSPost2010PropOp47
 70
     1
102
RTVSPost2010Prop48
 90
       50
102
RTVSPost2010PropOp48
 70
     1
102
RTVSPost2010Prop49
280
     0
102
RTVSPost2010PropOp49
 70
     1
102
RTVSPost2010Prop50
 90
       50
102
RTVSPost2010PropOp50
 70
     1
102
RTVSPost2010Prop51ColorIndex
 90
      256
102
RTVSPost2010Prop51ColorRGB
 90
-16777216
102
RTVSPost2010PropOp51
 70
     0
102
RTVSPost2010Prop52
140
1.0
102
RTVSPost2010PropOp52
 70
     0
102
RTVSPost2010Prop53
 90
        2
102
RTVSPost2010PropOp53
 70
     1
102
RTVSPost2010Prop54
  1
strokes_ogs.tif
102
RTVSPost2010PropOp54
 70
     1
102
RTVSPost2010Prop55
280
     0
102
RTVSPost2010PropOp55
 70
     1
102
RTVSPost2010Prop56
140
1.0
102
RTVSPost2010PropOp56
 70
     1
102
RTVSPost2010Prop57
140
1.0
102
RTVSPost2010PropOp57
 70
     1
  0
XRECORD
  5
2B5
102
{ACAD_REACTORS
330
2B4
102
}
330
2B4
100
AcDbXrecord
280
     1
102
RTVSPropertyOp0
 70
     1
102
RTVSPropertyOp1
 70
     1
102
RTVSPropertyOp2
 70
     1
102
RTVSPropertyOp3
 70
     1
102
RTVSPropertyOp4
 70
     1
102
RTVSPropertyOp5
 70
     1
102
RTVSPropertyOp6
 70
     1
102
RTVSPropertyOp7
 70
     1
102
RTVSPropertyOp8
 70
     1
102
RTVSPropertyOp9
 70
     1
102
RTVSPropertyOp10
 70
     1
102
RTVSPropertyOp11
 70
     1
102
RTVSPropertyOp12
 70
     1
102
RTVSPropertyOp13
 70
     1
102
RTVSPropertyOp14
 70
     1
102
RTVSPropertyOp15
 70
     1
102
RTVSPropertyOp16
 70
     1
102
RTVSPropertyOp17
 70
     1
102
RTVSPropertyOp18
 70
     1
102
RTVSPropertyOp19
 70
     1
102
RTVSPropertyOp20
 70
     1
102
RTVSPropertyOp21
 70
     1
102
RTVSPropertyOp22
 70
     1
102
RTVSPropertyOp23
 70
     1
102
RTVSPropertyOp24
 70
     1
102
RTVSPropertyOp25
 70
     1
102
RTVSPropertyOp26
 70
     1
102
RTVSPropertyOp27
 70
     1
102
RTVSPropertyOp28
 70
     1
102
RTVSPropertyOp29
 70
     1
102
RTVSPropertyOp30
 70
     1
102
RTVSPropertyOp31
 70
     1
102
RTVSPropertyOp32
 70
     1
102
RTVSPropertyOp33
 70
     1
102
RTVSPropertyOp34
 70
     1
102
RTVSPropertyOp35
 70
     1
102
RTVSPropertyOp36
 70
     1
102
RTVSPropertyOp37
 70
     1
102
RTVSPropertyOp38
 70
     1
102
RTVSPropertyOp39
 70
     1
102
RTVSPropertyOp40
 70
     1
102
RTVSPropertyOp41
 70
     1
102
RTVSPropertyOp42
 70
     1
102
RTVSPropertyOp43
 70
     1
102
RTVSPropertyOp44
 70
     1
102
RTVSPropertyOp45
 70
     1
102
RTVSPropertyOp46
 70
     1
102
RTVSPropertyOp47
 70
     1
102
RTVSPropertyOp48
 70
     1
102
RTVSPropertyOp49
 70
     1
102
RTVSPropertyOp50
 70
     1
102
RTVSPropertyOp51
 70
     0
102
RTVSPropertyOp52
 70
     0
102
RTVSPropertyOp53
 70
     1
102
RTVSPropertyOp54
 70
     1
102
RTVSPropertyOp55
 70
     1
102
RTVSPropertyOp56
 70
     1
102
RTVSPropertyOp57
 70
     1
102
RTVSPost2010Prop28
280
     0
102
RTVSPost2010PropOp28
 70
     1
102
RTVSPost2010Prop29
280
     1
102
RTVSPost2010PropOp29
 70
     1
102
RTVSPost2010Prop30
280
     1
102
RTVSPost2010PropOp30
 70
     1
102
RTVSPost2010Prop31
280
     0
102
RTVSPost2010PropOp31
 70
     1
102
RTVSPost2010Prop32
280
     0
102
RTVSPost2010PropOp32
 70
     1
102
RTVSPost2010Prop33
280
     0
102
RTVSPost2010PropOp33
 70
     1
102
RTVSPost2010Prop34
280
     0
102
RTVSPost2010PropOp34
 70
     1
102
RTVSPost2010Prop35
280
     0
102
RTVSPost2010PropOp35
 70
     1
102
RTVSPost2010Prop36
280
     0
102
RTVSPost2010PropOp36
 70
     1
102
RTVSPost2010Prop37
 90
       50
102
RTVSPost2010PropOp37
 70
     1
102
RTVSPost2010Prop38
140
0.0
102
RTVSPost2010PropOp38
 70
     1
102
RTVSPost2010Prop39
140
1.0
102
RTVSPost2010PropOp39
 70
     1
102
RTVSPost2010Prop40
 90
        0
102
RTVSPost2010PropOp40
 70
     1
102
RTVSPost2010Prop41ColorIndex
 90
       18
102
RTVSPost2010Prop41ColorRGB
 90
        0
102
RTVSPost2010PropOp41
 70
     1
102
RTVSPost2010Prop42
 90
       50
102
RTVSPost2010PropOp42
 70
     1
102
RTVSPost2010Prop43
 90
        3
102
RTVSPost2010PropOp43
 70
     1
102
RTVSPost2010Prop44ColorIndex
 90
        5
102
RTVSPost2010Prop44ColorRGB
 90
      255
102
RTVSPost2010PropOp44
 70
     1
102
RTVSPost2010Prop45
280
     0
102
RTVSPost2010PropOp45
 70
     1
102
RTVSPost2010Prop46
 90
       50
102
RTVSPost2010PropOp46
 70
     1
102
RTVSPost2010Prop47
 90
       50
102
RTVSPost2010PropOp47
 70
     1
102
RTVSPost2010Prop48
 90
       50
102
RTVSPost2010PropOp48
 70
     1
102
RTVSPost2010Prop49
280
     0
102
RTVSPost2010PropOp49
 70
     1
102
RTVSPost2010Prop50
 90
       50
102
RTVSPost2010PropOp50
 70
     1
102
RTVSPost2010Prop51ColorIndex
 90
      256
102
RTVSPost2010Prop51ColorRGB
 90
-16777216
102
RTVSPost2010PropOp51
 70
     0
102
RTVSPost2010Prop52
140
1.0
102
RTVSPost2010PropOp52
 70
     0
102
RTVSPost2010Prop53
 90
        2
102
RTVSPost2010PropOp53
 70
     1
102
RTVSPost2010Prop54
  1
strokes_ogs.tif
102
RTVSPost2010PropOp54
 70
     1
102
RTVSPost2010Prop55
280
     0
102
RTVSPost2010PropOp55
 70
     1
102
RTVSPost2010Prop56
140
1.0
102
RTVSPost2010PropOp56
 70
     1
102
RTVSPost2010Prop57
140
1.0
102
RTVSPost2010PropOp57
 70
     1
  0
XRECORD
  5
2A5
102
{ACAD_REACTORS
330
2A4
102
}
330
2A4
100
AcDbXrecord
280
     1
102
RTVSPropertyOp0
 70
     1
102
RTVSPropertyOp1
 70
     1
102
RTVSPropertyOp2
 70
     1
102
RTVSPropertyOp3
 70
     1
102
RTVSPropertyOp4
 70
     1
102
RTVSPropertyOp5
 70
     1
102
RTVSPropertyOp6
 70
     1
102
RTVSPropertyOp7
 70
     1
102
RTVSPropertyOp8
 70
     1
102
RTVSPropertyOp9
 70
     1
102
RTVSPropertyOp10
 70
     1
102
RTVSPropertyOp11
 70
     1
102
RTVSPropertyOp12
 70
     1
102
RTVSPropertyOp13
 70
     1
102
RTVSPropertyOp14
 70
     1
102
RTVSPropertyOp15
 70
     1
102
RTVSPropertyOp16
 70
     1
102
RTVSPropertyOp17
 70
     1
102
RTVSPropertyOp18
 70
     1
102
RTVSPropertyOp19
 70
     1
102
RTVSPropertyOp20
 70
     1
102
RTVSPropertyOp21
 70
     1
102
RTVSPropertyOp22
 70
     1
102
RTVSPropertyOp23
 70
     1
102
RTVSPropertyOp24
 70
     1
102
RTVSPropertyOp25
 70
     1
102
RTVSPropertyOp26
 70
     1
102
RTVSPropertyOp27
 70
     1
102
RTVSPropertyOp28
 70
     1
102
RTVSPropertyOp29
 70
     1
102
RTVSPropertyOp30
 70
     1
102
RTVSPropertyOp31
 70
     1
102
RTVSPropertyOp32
 70
     1
102
RTVSPropertyOp33
 70
     1
102
RTVSPropertyOp34
 70
     1
102
RTVSPropertyOp35
 70
     1
102
RTVSPropertyOp36
 70
     1
102
RTVSPropertyOp37
 70
     1
102
RTVSPropertyOp38
 70
     1
102
RTVSPropertyOp39
 70
     1
102
RTVSPropertyOp40
 70
     1
102
RTVSPropertyOp41
 70
     1
102
RTVSPropertyOp42
 70
     1
102
RTVSPropertyOp43
 70
     1
102
RTVSPropertyOp44
 70
     1
102
RTVSPropertyOp45
 70
     1
102
RTVSPropertyOp46
 70
     1
102
RTVSPropertyOp47
 70
     1
102
RTVSPropertyOp48
 70
     1
102
RTVSPropertyOp49
 70
     1
102
RTVSPropertyOp50
 70
     1
102
RTVSPropertyOp51
 70
     0
102
RTVSPropertyOp52
 70
     0
102
RTVSPropertyOp53
 70
     1
102
RTVSPropertyOp54
 70
     1
102
RTVSPropertyOp55
 70
     1
102
RTVSPropertyOp56
 70
     1
102
RTVSPropertyOp57
 70
     1
102
RTVSPost2010Prop28
280
     0
102
RTVSPost2010PropOp28
 70
     1
102
RTVSPost2010Prop29
280
     1
102
RTVSPost2010PropOp29
 70
     1
102
RTVSPost2010Prop30
280
     1
102
RTVSPost2010PropOp30
 70
     1
102
RTVSPost2010Prop31
280
     0
102
RTVSPost2010PropOp31
 70
     1
102
RTVSPost2010Prop32
280
     0
102
RTVSPost2010PropOp32
 70
     1
102
RTVSPost2010Prop33
280
     0
102
RTVSPost2010PropOp33
 70
     1
102
RTVSPost2010Prop34
280
     0
102
RTVSPost2010PropOp34
 70
     1
102
RTVSPost2010Prop35
280
     0
102
RTVSPost2010PropOp35
 70
     1
102
RTVSPost2010Prop36
280
     0
102
RTVSPost2010PropOp36
 70
     1
102
RTVSPost2010Prop37
 90
       50
102
RTVSPost2010PropOp37
 70
     1
102
RTVSPost2010Prop38
140
0.0
102
RTVSPost2010PropOp38
 70
     1
102
RTVSPost2010Prop39
140
1.0
102
RTVSPost2010PropOp39
 70
     1
102
RTVSPost2010Prop40
 90
        0
102
RTVSPost2010PropOp40
 70
     1
102
RTVSPost2010Prop41ColorIndex
 90
       18
102
RTVSPost2010Prop41ColorRGB
 90
        0
102
RTVSPost2010PropOp41
 70
     1
102
RTVSPost2010Prop42
 90
       50
102
RTVSPost2010PropOp42
 70
     1
102
RTVSPost2010Prop43
 90
        3
102
RTVSPost2010PropOp43
 70
     1
102
RTVSPost2010Prop44ColorIndex
 90
        5
102
RTVSPost2010Prop44ColorRGB
 90
      255
102
RTVSPost2010PropOp44
 70
     1
102
RTVSPost2010Prop45
280
     0
102
RTVSPost2010PropOp45
 70
     1
102
RTVSPost2010Prop46
 90
       50
102
RTVSPost2010PropOp46
 70
     1
102
RTVSPost2010Prop47
 90
       50
102
RTVSPost2010PropOp47
 70
     1
102
RTVSPost2010Prop48
 90
       50
102
RTVSPost2010PropOp48
 70
     1
102
RTVSPost2010Prop49
280
     0
102
RTVSPost2010PropOp49
 70
     1
102
RTVSPost2010Prop50
 90
       50
102
RTVSPost2010PropOp50
 70
     1
102
RTVSPost2010Prop51ColorIndex
 90
      256
102
RTVSPost2010Prop51ColorRGB
 90
-16777216
102
RTVSPost2010PropOp51
 70
     0
102
RTVSPost2010Prop52
140
1.0
102
RTVSPost2010PropOp52
 70
     0
102
RTVSPost2010Prop53
 90
        2
102
RTVSPost2010PropOp53
 70
     1
102
RTVSPost2010Prop54
  1
strokes_ogs.tif
102
RTVSPost2010PropOp54
 70
     1
102
RTVSPost2010Prop55
280
     0
102
RTVSPost2010PropOp55
 70
     1
102
RTVSPost2010Prop56
140
1.0
102
RTVSPost2010PropOp56
 70
     1
102
RTVSPost2010Prop57
140
1.0
102
RTVSPost2010PropOp57
 70
     1
  0
XRECORD
  5
297
102
{ACAD_REACTORS
330
296
102
}
330
296
100
AcDbXrecord
280
     1
102
RTVSPropertyOp0
 70
     1
102
RTVSPropertyOp1
 70
     1
102
RTVSPropertyOp2
 70
     1
102
RTVSPropertyOp3
 70
     1
102
RTVSPropertyOp4
 70
     1
102
RTVSPropertyOp5
 70
     1
102
RTVSPropertyOp6
 70
     1
102
RTVSPropertyOp7
 70
     1
102
RTVSPropertyOp8
 70
     1
102
RTVSPropertyOp9
 70
     1
102
RTVSPropertyOp10
 70
     1
102
RTVSPropertyOp11
 70
     1
102
RTVSPropertyOp12
 70
     1
102
RTVSPropertyOp13
 70
     1
102
RTVSPropertyOp14
 70
     1
102
RTVSPropertyOp15
 70
     1
102
RTVSPropertyOp16
 70
     1
102
RTVSPropertyOp17
 70
     1
102
RTVSPropertyOp18
 70
     1
102
RTVSPropertyOp19
 70
     1
102
RTVSPropertyOp20
 70
     1
102
RTVSPropertyOp21
 70
     1
102
RTVSPropertyOp22
 70
     1
102
RTVSPropertyOp23
 70
     1
102
RTVSPropertyOp24
 70
     1
102
RTVSPropertyOp25
 70
     1
102
RTVSPropertyOp26
 70
     1
102
RTVSPropertyOp27
 70
     1
102
RTVSPropertyOp28
 70
     1
102
RTVSPropertyOp29
 70
     1
102
RTVSPropertyOp30
 70
     1
102
RTVSPropertyOp31
 70
     1
102
RTVSPropertyOp32
 70
     1
102
RTVSPropertyOp33
 70
     1
102
RTVSPropertyOp34
 70
     1
102
RTVSPropertyOp35
 70
     1
102
RTVSPropertyOp36
 70
     1
102
RTVSPropertyOp37
 70
     1
102
RTVSPropertyOp38
 70
     1
102
RTVSPropertyOp39
 70
     1
102
RTVSPropertyOp40
 70
     1
102
RTVSPropertyOp41
 70
     1
102
RTVSPropertyOp42
 70
     1
102
RTVSPropertyOp43
 70
     1
102
RTVSPropertyOp44
 70
     1
102
RTVSPropertyOp45
 70
     1
102
RTVSPropertyOp46
 70
     1
102
RTVSPropertyOp47
 70
     1
102
RTVSPropertyOp48
 70
     1
102
RTVSPropertyOp49
 70
     1
102
RTVSPropertyOp50
 70
     1
102
RTVSPropertyOp51
 70
     0
102
RTVSPropertyOp52
 70
     0
102
RTVSPropertyOp53
 70
     1
102
RTVSPropertyOp54
 70
     1
102
RTVSPropertyOp55
 70
     1
102
RTVSPropertyOp56
 70
     1
102
RTVSPropertyOp57
 70
     1
102
RTVSPost2010Prop28
280
     0
102
RTVSPost2010PropOp28
 70
     1
102
RTVSPost2010Prop29
280
     1
102
RTVSPost2010PropOp29
 70
     1
102
RTVSPost2010Prop30
280
     1
102
RTVSPost2010PropOp30
 70
     1
102
RTVSPost2010Prop31
280
     0
102
RTVSPost2010PropOp31
 70
     1
102
RTVSPost2010Prop32
280
     0
102
RTVSPost2010PropOp32
 70
     1
102
RTVSPost2010Prop33
280
     0
102
RTVSPost2010PropOp33
 70
     1
102
RTVSPost2010Prop34
280
     0
102
RTVSPost2010PropOp34
 70
     1
102
RTVSPost2010Prop35
280
     0
102
RTVSPost2010PropOp35
 70
     1
102
RTVSPost2010Prop36
280
     0
102
RTVSPost2010PropOp36
 70
     1
102
RTVSPost2010Prop37
 90
       50
102
RTVSPost2010PropOp37
 70
     1
102
RTVSPost2010Prop38
140
0.0
102
RTVSPost2010PropOp38
 70
     1
102
RTVSPost2010Prop39
140
1.0
102
RTVSPost2010PropOp39
 70
     1
102
RTVSPost2010Prop40
 90
        0
102
RTVSPost2010PropOp40
 70
     1
102
RTVSPost2010Prop41ColorIndex
 90
       18
102
RTVSPost2010Prop41ColorRGB
 90
        0
102
RTVSPost2010PropOp41
 70
     1
102
RTVSPost2010Prop42
 90
       50
102
RTVSPost2010PropOp42
 70
     1
102
RTVSPost2010Prop43
 90
        3
102
RTVSPost2010PropOp43
 70
     1
102
RTVSPost2010Prop44ColorIndex
 90
        5
102
RTVSPost2010Prop44ColorRGB
 90
      255
102
RTVSPost2010PropOp44
 70
     1
102
RTVSPost2010Prop45
280
     0
102
RTVSPost2010PropOp45
 70
     1
102
RTVSPost2010Prop46
 90
       50
102
RTVSPost2010PropOp46
 70
     1
102
RTVSPost2010Prop47
 90
       50
102
RTVSPost2010PropOp47
 70
     1
102
RTVSPost2010Prop48
 90
       50
102
RTVSPost2010PropOp48
 70
     1
102
RTVSPost2010Prop49
280
     0
102
RTVSPost2010PropOp49
 70
     1
102
RTVSPost2010Prop50
 90
       50
102
RTVSPost2010PropOp50
 70
     1
102
RTVSPost2010Prop51ColorIndex
 90
      256
102
RTVSPost2010Prop51ColorRGB
 90
-16777216
102
RTVSPost2010PropOp51
 70
     0
102
RTVSPost2010Prop52
140
1.0
102
RTVSPost2010PropOp52
 70
     0
102
RTVSPost2010Prop53
 90
        2
102
RTVSPost2010PropOp53
 70
     1
102
RTVSPost2010Prop54
  1
strokes_ogs.tif
102
RTVSPost2010PropOp54
 70
     1
102
RTVSPost2010Prop55
280
     0
102
RTVSPost2010PropOp55
 70
     1
102
RTVSPost2010Prop56
140
1.0
102
RTVSPost2010PropOp56
 70
     1
102
RTVSPost2010Prop57
140
1.0
102
RTVSPost2010PropOp57
 70
     1
  0
XRECORD
  5
2B7
102
{ACAD_REACTORS
330
2B6
102
}
330
2B6
100
AcDbXrecord
280
     1
102
RTVSPropertyOp0
 70
     1
102
RTVSPropertyOp1
 70
     1
102
RTVSPropertyOp2
 70
     1
102
RTVSPropertyOp3
 70
     1
102
RTVSPropertyOp4
 70
     1
102
RTVSPropertyOp5
 70
     1
102
RTVSPropertyOp6
 70
     1
102
RTVSPropertyOp7
 70
     1
102
RTVSPropertyOp8
 70
     1
102
RTVSPropertyOp9
 70
     1
102
RTVSPropertyOp10
 70
     1
102
RTVSPropertyOp11
 70
     1
102
RTVSPropertyOp12
 70
     1
102
RTVSPropertyOp13
 70
     1
102
RTVSPropertyOp14
 70
     1
102
RTVSPropertyOp15
 70
     1
102
RTVSPropertyOp16
 70
     1
102
RTVSPropertyOp17
 70
     1
102
RTVSPropertyOp18
 70
     1
102
RTVSPropertyOp19
 70
     1
102
RTVSPropertyOp20
 70
     1
102
RTVSPropertyOp21
 70
     1
102
RTVSPropertyOp22
 70
     1
102
RTVSPropertyOp23
 70
     1
102
RTVSPropertyOp24
 70
     1
102
RTVSPropertyOp25
 70
     1
102
RTVSPropertyOp26
 70
     1
102
RTVSPropertyOp27
 70
     1
102
RTVSPropertyOp28
 70
     1
102
RTVSPropertyOp29
 70
     1
102
RTVSPropertyOp30
 70
     1
102
RTVSPropertyOp31
 70
     1
102
RTVSPropertyOp32
 70
     1
102
RTVSPropertyOp33
 70
     1
102
RTVSPropertyOp34
 70
     1
102
RTVSPropertyOp35
 70
     1
102
RTVSPropertyOp36
 70
     1
102
RTVSPropertyOp37
 70
     1
102
RTVSPropertyOp38
 70
     1
102
RTVSPropertyOp39
 70
     1
102
RTVSPropertyOp40
 70
     1
102
RTVSPropertyOp41
 70
     1
102
RTVSPropertyOp42
 70
     1
102
RTVSPropertyOp43
 70
     1
102
RTVSPropertyOp44
 70
     1
102
RTVSPropertyOp45
 70
     1
102
RTVSPropertyOp46
 70
     1
102
RTVSPropertyOp47
 70
     1
102
RTVSPropertyOp48
 70
     1
102
RTVSPropertyOp49
 70
     1
102
RTVSPropertyOp50
 70
     1
102
RTVSPropertyOp51
 70
     0
102
RTVSPropertyOp52
 70
     0
102
RTVSPropertyOp53
 70
     1
102
RTVSPropertyOp54
 70
     1
102
RTVSPropertyOp55
 70
     1
102
RTVSPropertyOp56
 70
     1
102
RTVSPropertyOp57
 70
     1
102
RTVSPost2010Prop28
280
     0
102
RTVSPost2010PropOp28
 70
     1
102
RTVSPost2010Prop29
280
     1
102
RTVSPost2010PropOp29
 70
     1
102
RTVSPost2010Prop30
280
     1
102
RTVSPost2010PropOp30
 70
     1
102
RTVSPost2010Prop31
280
     0
102
RTVSPost2010PropOp31
 70
     1
102
RTVSPost2010Prop32
280
     0
102
RTVSPost2010PropOp32
 70
     1
102
RTVSPost2010Prop33
280
     0
102
RTVSPost2010PropOp33
 70
     1
102
RTVSPost2010Prop34
280
     0
102
RTVSPost2010PropOp34
 70
     1
102
RTVSPost2010Prop35
280
     0
102
RTVSPost2010PropOp35
 70
     1
102
RTVSPost2010Prop36
280
     0
102
RTVSPost2010PropOp36
 70
     1
102
RTVSPost2010Prop37
 90
       50
102
RTVSPost2010PropOp37
 70
     1
102
RTVSPost2010Prop38
140
0.0
102
RTVSPost2010PropOp38
 70
     1
102
RTVSPost2010Prop39
140
1.0
102
RTVSPost2010PropOp39
 70
     1
102
RTVSPost2010Prop40
 90
        0
102
RTVSPost2010PropOp40
 70
     1
102
RTVSPost2010Prop41ColorIndex
 90
       18
102
RTVSPost2010Prop41ColorRGB
 90
        0
102
RTVSPost2010PropOp41
 70
     1
102
RTVSPost2010Prop42
 90
       50
102
RTVSPost2010PropOp42
 70
     1
102
RTVSPost2010Prop43
 90
        3
102
RTVSPost2010PropOp43
 70
     1
102
RTVSPost2010Prop44ColorIndex
 90
        5
102
RTVSPost2010Prop44ColorRGB
 90
      255
102
RTVSPost2010PropOp44
 70
     1
102
RTVSPost2010Prop45
280
     0
102
RTVSPost2010PropOp45
 70
     1
102
RTVSPost2010Prop46
 90
       50
102
RTVSPost2010PropOp46
 70
     1
102
RTVSPost2010Prop47
 90
       50
102
RTVSPost2010PropOp47
 70
     1
102
RTVSPost2010Prop48
 90
       50
102
RTVSPost2010PropOp48
 70
     1
102
RTVSPost2010Prop49
280
     0
102
RTVSPost2010PropOp49
 70
     1
102
RTVSPost2010Prop50
 90
       50
102
RTVSPost2010PropOp50
 70
     1
102
RTVSPost2010Prop51ColorIndex
 90
      256
102
RTVSPost2010Prop51ColorRGB
 90
-16777216
102
RTVSPost2010PropOp51
 70
     0
102
RTVSPost2010Prop52
140
1.0
102
RTVSPost2010PropOp52
 70
     0
102
RTVSPost2010Prop53
 90
        2
102
RTVSPost2010PropOp53
 70
     1
102
RTVSPost2010Prop54
  1
strokes_ogs.tif
102
RTVSPost2010PropOp54
 70
     1
102
RTVSPost2010Prop55
280
     0
102
RTVSPost2010PropOp55
 70
     1
102
RTVSPost2010Prop56
140
1.0
102
RTVSPost2010PropOp56
 70
     1
102
RTVSPost2010Prop57
140
1.0
102
RTVSPost2010PropOp57
 70
     1
  0
ENDSEC
  0
SECTION
  2
THUMBNAILIMAGE
 90
    16364
310
28000000B40000005500000001000800000000000000000000000000000000000000000000000000FFFFFF00FF000000FFFF000000FF000000FFFF000000FF00FF00FF000000000080808000C0C0C000FF000000FF7F7F00A5000000A55252007F0000007F3F3F004C0000004C2626002600000026131300FF3F0000FF9F7F
310
00A5290000A56752007F1F00007F4F3F004C1300004C2F26002609000026171300FF7F0000FFBF7F00A5520000A57C52007F3F00007F5F3F004C2600004C39260026130000261C1300FFBF0000FFDF7F00A57C0000A59152007F5F00007F6F3F004C3900004C422600261C000026211300FFFF0000FFFF7F00A5A50000A5A5
310
52007F7F00007F7F3F004C4C00004C4C26002626000026261300BFFF0000DFFF7F007CA5000091A552005F7F00006F7F3F00394C0000424C26001C260000212613007FFF0000BFFF7F0052A500007CA552003F7F00005F7F3F00264C0000394C2600132600001C2613003FFF00009FFF7F0029A5000067A552001F7F00004F
310
7F3F00134C00002F4C2600092600001726130000FF00007FFF7F0000A5000052A55200007F00003F7F3F00004C0000264C2600002600001326130000FF3F007FFF9F0000A5290052A56700007F1F003F7F4F00004C1300264C2F00002609001326170000FF7F007FFFBF0000A5520052A57C00007F3F003F7F5F00004C2600
310
264C39000026130013261C0000FFBF007FFFDF0000A57C0052A59100007F5F003F7F6F00004C3900264C420000261C001326210000FFFF007FFFFF0000A5A50052A5A500007F7F003F7F7F00004C4C00264C4C00002626001326260000BFFF007FDFFF00007CA5005291A500005F7F003F6F7F0000394C0026424C00001C26
310
0013212600007FFF007FBFFF000052A500527CA500003F7F003F5F7F0000264C0026394C0000132600131C2600003FFF007F9FFF000029A5005267A500001F7F003F4F7F0000134C00262F4C0000092600131726000000FF007F7FFF000000A5005252A50000007F003F3F7F0000004C0026264C0000002600131326003F00
310
FF009F7FFF002900A5006752A5001F007F004F3F7F0013004C002F264C0009002600171326007F00FF00BF7FFF005200A5007C52A5003F007F005F3F7F0026004C0039264C00130026001C132600BF00FF00DF7FFF007C00A5009152A5005F007F006F3F7F0039004C0042264C001C00260021132600FF00FF00FF7FFF00A5
310
00A500A552A5007F007F007F3F7F004C004C004C264C002600260026132600FF00BF00FF7FDF00A5007C00A55291007F005F007F3F6F004C0039004C26420026001C0026132100FF007F00FF7FBF00A5005200A5527C007F003F007F3F5F004C0026004C2639002600130026131C00FF003F00FF7F9F00A5002900A5526700
310
7F001F007F3F4F004C0013004C262F002600090026131700000000002D2D2D005B5B5B0089898900B7B7B700B3B3B30000000000000000000000000000000000000000000000000000000000000000000000000000000000000000000000000000000000000000000000000000000000000000000000000000000000000000
310
00000000000000000000000000000000000000000000000000000000000000000000000000000000000000000000000000000000000000000000000000000000000000000000000000000000000000000000000000000000000000000000000000000000000000000000000000000000000000000000000000000000000000
310
00000000000000000000000000000000000000000000000000000000000000000000000000000000000000000000000000000000000000000000000000000000000000000000000000000000000000000000000000000000000000000000000000000000000000000000000000000000000000000000000000000000000000
310
00000000000000000000000000000000000000000000000000000000000000000000000000000000000000000000000000000000000000000000000000000000000000000000000000000000000000000000000000000000000000000000000000000000000000000000000000000000000000000000000000000000000000
310
00000000000000000000000000000000000000000000000000000000000000000000000000000000000000000000000000000000000000000000000000000000000000000000000000000000000000000000000000000000000000000000000000000000000000000000000000000000000000000000000000000000000000
310
00000000000000000000000000000000000000000000000000000000000000000000000000000000000000000000000007070707000007070707070707070000000000000000000000000000000000000000000000000000000000000000000000000000000000000000000000000000000000000000000000000000000000
310
00000000000000000000000000000000000000000000000000000000000000000000000000000000000000000000000000000000000000000000000000000000000000000000000000000000000000000000000000000000000000000000000000000000070707070707070707070707070707070000000000000000000000
310
00000000000000000000000000000000000000000000000000000000000000000000000000000000000000000000000000000000000000000000000000000000000000000000000000000000000000000000000000000000000000000000000000000000000000000000000000000000000000000000000000000000000000
310
00000000000000000000000000000000000000000000000000000707070707070707070707070707070700000000000000000000000000000000000000000000000000000000000000000000000000000000000000000000000000000000000000000000000000000000000000000000000000000000000000000000000000
310
00000000000000000000000000000000000000000000000000000000000000000000000000000000000000000000000000000000000000000000000000000000000000000000000000000000000000070707070707000707070707070707070000000000000000000000000000000000000000000000000000000000000000
310
00000000000000000000000000000000000000000000000000000000000000000000000000000000000000000000000000000000000000000000000000000000000000000000000000000000000000000000000000000000000000000000000000000000000000000000000000000000000000000000000000000000000000
310
00000000000707070707070707070707070707070700000000000000000000000000000000000000000000000000000000000000000000000000000000000000000000000000000000000000000000000000000000000000000000000000000000000000000000000000000000000000000000000000000000000000000000
310
00000000000000000000000000000000000000000000000000000000000000000000000000000000000000000000000000000000000000000000070707070707070707070707070707070000000000000000000000000000000000000000000000000000000000000000000000000000000000000000000000000000000000
310
00000000000000000000000000000000000000000000000000000000000000000000000000000000000000000000000000000000000000000000000000000000000000000000000000000000000000000000000000000000000000000000000000000000000000000000000000000007000007000000070007070007000007
310
00000000000000000000000000000000000000000000000000000000000000000000000000000000000000000000000000000000000000000000000000000000000000000000000000000000000000000000000000000000000000000000000000000000000000000000000000000000000000000000000000000000000000
310
00000000000000000000000000000000000000000000000000000000000000000000000000070707070707070703030303030307070707070000000000000000000000000000000000000000000000000000000000000000000000000000000000000000000000000000000000000000000000000000000000000000000000
310
00000000000000000000000000000000000000000000000000000000000000000000000000000000000000000000000000000000000000000000000000000000000000000000000000000000000000000000000000000000000007070707000303030303030303030303030007000000000000000000000000000000000000
310
00000000000000000000000000000000000000000000000000000000000000000000000000000000000000000000000000000000000000000000000000000000000000000000000000000000000000000000000000000000000000000000000000000000000000000000000000000000000000000000000000000000000000
310
00000000000000000000000000000000070000070003030303030303030303030300070000000000000000000000000000000000000000000000000000000000000000000000000000000000000000000000000000000000000000000000000000000000000000000000000000000000000000000000000000000000000000
310
00000000000000000000000000000000000000000000000000000000000000000000000000000000000000000000000000000000000000000000000000000000000000000007000007000000000000000000000000000007000000000000000000000000000000000000000000000000000000000000000000000000000000
310
00000000000000000000000000000000000000000000000000000000000000000000000000000000000000000000000000000000000000000000000000000000000000000000000000000000000000000000000000000000000000000000000000000000000000000000000000000000000000000000000000000707070707
310
07070707070707070707070707070000000000000000000000000000000000000000000000000000000000000000000000000000000000000000000000000000000000000000000000000000000000000000000000000000000000000000000000000000000000000000000000000000000000000000000000000000000000
310
00000000000000000000000000000000000000000000000000000000000000000000000000000000000000000000000000000000000000000000000000000000000000000000000000000000000000000000000000000000000000000000000000000000000000000000000000000000000000000000000000000000000000
310
00000000000000000000000000000000000000000000000000000000000000000000000000000000000000000000000000000000000000000000000000000000000000000000000000000000000000000000000000000000000000000707070707000000000000000000000000000000000000000000000000000000000000
310
00000000000000000000000000000000000000000000000000000000000000000000000000000000000000000000000000000000000000000000000000000000000000000000000000000000000000000000000000000000000000000000000000000000000000000000000000000000000000000000000000000000000000
310
00000000000000000000000000000000000007070707070000000000000000000000000000000000000000000000000000000000000000000000000000000000000000000000000000000000000000000000000000000000000000000000000000000000000000000000000000000000000000000000000000000000000000
310
00000000000000000000000000000000000000000000000000000000000000000000000000000000000000000000000000000000000000000000000000000000000000000000000000000000000000000000000000000000000000000000000000000000000000000000000000000000000000000000000000000000000000
310
000000000000000000000000000000000000000000000000000000000000000000000000000000000000000000000000000000000000000000000000000000000000000000000000000000000000000000000000000000000000000000000000000000000000000000000000000000000000000000000000000000000000A1
310
00000000000000000000000000000000000000000000000000000000000000000000000000000000000000000000000000000000000000000000000000000000000000000000000000000000000000000000000000000000000000000000000000000000000000000000000000000000000000000000000000000000000000
310
00000000000000000000000000000000000000000000000000000000000000000000020202020202020202020202020202020202A10202020202020202020202020202020202020000000000000000000000000000000000000000000000000000000000000000000000000000000000000000000000000000000000000000
310
000000000000000000000000000000000000000000000000000000000000000000000000000000000000000000000000000000000000000000000000000000000000000000000000000000000000000000000000000000020202020202020202020202020202020202A1020202020202020202020202020202020202020000
310
00000000000000000000000000000000000000000000000000000000000000000000000000000000000000000000000000000000000000000000000000000000000000000000000000000000000000000000000000000000000000000000000000000000000000000000000000000000000000000000000000000000000000
310
00000000000000000000000000020200000000000000000000A1A1A1000000A100000000000000A1A10000000000000000020200000000000000000000000000000000000000000000000000000000000000000000000000000000000000000000000000000000000000000000000000000000000000000000000000000000
310
00000000000000000000000000000000000000000000000000000000000000000000000000000000000000000000000000000000000000000000000000000000000002020000000000000000A1A1000000A1A100A10000000000A1A10000A10000000000000002020000000000000000000000000000000000000000000000
310
00000000000000000000000000000000000000000000000000000000000000000000000000000000000000000000000000000000000000000000000000000000000000000000000000000000000000000000000000000000000000000000000000000000000000000000000000000000000000000000000202000000000000
310
0000A10000000000A100A10000000000A1000000A100000000000000020200000000000000000000000000000000000000000000000000000000000000000000000000000000000000000000000000000000000000000000000000000000000000000000000000000000000000000000000000000000000000000000000000
310
000000000000000000000000000000000000000000000000000000000000000000000000000000000000000000020200000000000000A100000000000000A1A100000000A10000000000A100000000000002020000000000000000000000000000000000000000000000000000000000000000000000000000000000000000
310
0000000000000000000000000000000000000000000000000000000000000000000000000000000000000000000000000000000000000000000000000000000000000000000000000000000000000000000000000000000000000000000000000000020200000000000000A100000000000000A1A100000000A10000000000
310
A1000000000000020200000000000000000000000000000000000000000000000000000000000000000000000000000000000000000000000000000000000000000000000000000000000000000000000000000000000000000000000000000000000000000000000000000000000000000000000000000000000000000000
310
000000000000000000000000000000000000000000000000020200000000000000A100000000000000A1A10000000000A100000000A100000000000002020000000000000000000000000000000000000000000000000000000000000000000000000000000000000000000000000000000000000000000000000000000000
310
000000000000000000000000000000000000000000000000000000000000000000000000000000000000000000000000000000000000000000000000000000000000000000000000000000000002020000000000000000A10000000000A100A10000000000A10000A1A1000000000000000202000000000000000000000000
310
00000000000000000000000000000000000000000000000000000000000000000000000000000000000000000000000000000000000000000000000000000000000000000000000000000000000000000000000000000000000000000000000000000000000000000000000000000000000000000000000000000000000000
310
00000002020000000000000000A10000000000A100A1000000000000A1A100000000000000000002020000000000000000000000000000000000000000000000000000000000000000000000000000000000000000000000000000000000000000000000000000000000000000000000000000000000000000000000000000
310
00000000000000000000000000000000000000000000000000000000000000000000000000000000000000000000000000000000000000000202000000000202020200A1A100A1A10000A100000000000000000002020202000000000202000000000000000000000000000000000000000000000000000000000000000000
310
0000000000000000000000000000000000000000000000000000000000000000000000000000000000000000000000000000000000000000000000000000000000000000000000000000000000000000000000000000000000000000000000000000000000000000000000000002020000000002000002000000A100000000
310
A1000000000000000000020000020000000002020000000000000000000000000000000000000000000000000000000000000000000000000000000000000000000000000000000000000000000000000000000000000000000000000000000000000000000000000000000000000000000000000000000000000000000000
310
00000000000000000000000000000000000000000000000000000000000000000000000202000000000202020200000000000078787878780000000000000002020202000000000202000000000000000000000000000000000000000000000000000000000000000000000000000000000000000000000000000000000000
310
00000000000000000000000000000000000000000000000000000000000000000000000000000000000000000000000000000000000000000000000000000000000000000000000000000000000000000000000000000078780202020202020202020202020202027878787878020202020202020202020202020202027800
310
00000000000000000000000000000000000000000000000000000000000000000000000000000000000000000000000000000000000000000000000000000000000000000000000000000000000000000000000000000000000000000000000000000000000000000000000000000000000000000000000000000000000000
310
0000000000000000000000000000000000000000000000000000000000000000A100000000000000000000000000000000000000000000000000000000000000000000000000000000000000000000000000000000000000000000000000000000000000000000000000000000000000000000000000000000000000000000
310
00000000000000000000000000000000000000000000000000000000000000000000000000000000000000000000000000000000000000000000000000000000000000000000000000000000000000000000000000000000000000000000000000000000000000000000000000000000000000000000000000000000000000
310
00000000000000000000000000000000000000000000000000000000000000000000000000000000000000000000000000000000000000000000000000000000000000000000000000000000000000000000000000000000000000000000000000000000000000000000000000000000000000000000000000000000000000
310
00000000000000000000000000000000000000000000000000000000000000000000000000000000000000000000000000000000000000000000000000000000000000000000000000000000000000000000000000000000000000000000000000000000000000000000000000000000000000000000000000000000000000
310
00000000000000000000000000000000000000000000000000000000000000000000000000000000000000000000000000000000000000000000000000000000000000000000000000000000000000000000000000000000000000000000000000000000000000000000000000000000000000000000000000000000000000
310
00000000000000000000000000000000000000000000000000000000000000000000000000000000000000000000000000000000000000000000000000000000000000000000000000000000000000000000000000000000000000000000000000000000000000000000000000000000000000000000000000000000000000
310
00000000000000000000000000000000000000000000000000000000000000000000000000000000000000000000000000000000000000000000000000000000000000000000000000000000000000000000000000000000000000000000000000000000000000000000000000000000000000000000000000000000000000
310
00000000000000000000000000000000000000000000000000000000000000000000000000000000000000000000000000000000000000000000000000000000000000000000000000000000000000000000000000000000000000000000000000000000000000000000000000000000000000000000000000000000000000
310
00000000000000000000000000000000000000000000000000000000000000000000000000000000000000000000000000000000000000000000000000000000000000000000000000000000000000000000000000000000000000000000000004000000000000000000000000000000000000000000000000000000000000
310
00000000000000000000000000000000000000000000000000000000000000000000000000000000000000000000000000000000000000000000000000000000000000000000000000000000000000000000000000000000000000000000000000000000000000000000000000000000000000000000000000000000000000
310
00000000000000000002020200000000000000000000040000000000000000000000020202000000000000000000000000000000000000000000000000000000000000000000000000000000000000000000000000000000000000000000000000000000000000000000000000000000000000000000000000000000000000
310
000000000000000000000000000000000000000000000000000000000000000000000000000000000000000000000000000000000000000000000202020202020202A1A1A1A1A1A1A1A1A10202020202A1A1A1A1A1A1A102020202020202000000000000000000000000000000000000000000000000000000000000000000
310
0000000000000000000000000000000000000000000000000000000000000000000000000000000000000000000000000000000000000000000000000000000000000000000000000000000000000000000000000000000000000000000000000000000000000000000000000000020202020202020202A102030303030202
310
A10202020202030303020202A1020202020202020000000000000000000000000000000000000000000000000000000000000000000000000000000000000000000000000000000000000000000000000000000000000000000000000000000000000000000000000000000000000000000000000000000000000000000000
310
000000000000000000000000000000000000000000000000000000000000000000000000A1A100000000020202020003030303000000040000000303030303000202020200000000A1A10000000000000000000000000000000000000000000000000000000000000000000000000000000000000000000000000000000000
310
0000000000000000000000000000000000000000000000000000000000000000000000000000000000000000000000000000000000000000000000000000000000000000000000000000000000000000000000000000000000A10200000000020202020000000000000000040000000000000000000202020000000000A102
310
00000000000000000000000000000000000000000000000000000000000000000000000000000000000000000000000000000000000000000000000000000000000000000000000000000000000000000000000000000000000000000000000000000000000000000000000000000000000000000000000000000000000000
310
000000000000000000000000000000A10203030000000000000000000000000000040000000000000000000000000000000303A1020000000000000000000000000000000000000000000000000000000000000000000000000000000000000000000000000000000000000000000000000000000000000000000000000000
310
0000000000000000000000000000000000000000000000000000000000000000000000000000000000000000000000000000000000000000000000000000000000000002A10203030000000000000000000000000000040000000000000000000000000000000303A102000000000000000000000000000000000000000000
310
00000000000000000000000000000000000000000000000000000000000000000000000000000000000000000000000000000000000000000000000000000000000000000000000000000000000000000000000000000000000000000000000000000000000000000000000000000000000000000000000002A10203030000
310
000000A1A1A10000000000000400000000000000A1A1A100000000000303A1020000000000000000000000000000000000000000000000000000000000000000000000000000000000000000000000000000000000000000000000000000000000000000000000000000000000000000000000000000000000000000000000
310
0000000000000000000000000000000000000000000000000000000000000000000000000000000000000000000002A1020303000000A103030300A1A100000000040000000000A103030300A1A10000000303A102000000000000000000000000000000000000000000000000000000000000000000000000000000000000
310
00000000000000000000000000000000000000000000000000000000000000000000000000000000000000000000000000000000000000000000000000000000000000000000000000000000000000000000000000000000000000000000000000000000A1020000000000030303030300A100000000040000000000030303
310
030300A10000000000A1020000000000000000000000000000000000000000000000000000000000000000000000000000000000000000000000000000000000000000000000000000000000000000000000000000000000000000000000000000000000000000000000000000000000000000000000000000000000000000
310
0000000000000000000000000000000000000000000000000000A10200000000A100000000000000A10000000400000000A100000000000000A100000000A102000000000000000000000000000000000000000000000000000000000000000000000000000000000000000000000000000000000000000000000000000000
310
00000000000000000000000000000000000000000000000000000000000000000000000000000000000000000000000000000000000000000000000000000000000000000000000000000000000000A1A100000000A100000000000000A10000000400000000A100000000000000A100000000A1A100000000000000000000
310
00000000000000000000000000000000000000000000000000000000000000000000000000000000000000000000000000000000000000000000000000000000000000000000000000000000000000000000000000000000000000000000000000000000000000000000000000000000000000000000000000000000000000
310
0000000000020200000000A100000000000000A1000000A100000000A100000000000000A1000000000202000000000000000000000000000000000000000000000000000000000000000000000000000000000000000000000000000000000000000000000000000000000000000000000000000000000000000000000000
310
0000000000000000000000000000000000000000000000000000000000000000000000000000000000000000000000000000000000000000000002020000000000A10000000000A1000000A1A1A100000000A10000000000A10000000000020200000000000000000000000000000000000000000000000000000000000000
310
00000000000000000000000000000000000000000000000000000000000000000000000000000000000000000000000000000000000000000000000000000000000000000000000000000000000000000000000000000000000000000000000000000000000000000000000000000002020000000000A1A1000000A1A10000
310
0000A1A100000000A1A1000000A1A100000000000202000000000000000000000000000000000000000000000000000000000000000000000000000000000000000000000000000000000000000000000000000000000000000000000000000000000000000000000000000000000000000000000000000000000000000000
310
00000000000000000000000000000000000000000000000000000000000000000000000000020200000000000000A1A1A10000000000000400000000000000A1A1A100000000000000020200000000000000000000000000000000000000000000000000000000000000000000000000000000000000000000000000000000
310
000000000000000000000000000000000000000000000000000000000000000000000000000000000000000000000000000000000000000000000000000000000000000000000000000000000000000000000000000000000000A1A100000000000000000000000000000000040000000000000000000000000000000000A1
310
A1000000000000000000000000000000000000000000000000000000000000000000000000000000000000000000000000000000000000000000000000000000000000000000000000000000000000000000000000000000000000000000000000000000000000000000000000000000000000000000000000000000000000
310
00000000000000000000000000000000A10203030000000000000000000000000000040000000000000000000000000000000303A10200000000000000000000000000000000000000000000000000000000000000000000000000000000000000000000000000000000000000000000000000000000000000000000000000
310
000000000000000000000000000000000000000000000000000000000000000000000000000000000000000000000000000000000000000000000000000000000000000000A102030300000000A1000000A100000000A1A1A100000000A1000000A100000000000303A1020000000000000000000000000000000000000000
310
0000000000000000000000000000000000000000000000000000000000000000000000000000000000000000000000000000000000000000000000000000000000000000000000000000000000000000000000000000000000000000000000000000000000000000000000000000000000000000000000000004A102030304
310
0404A1A1A10404A1A1040404A10202A10404A1A1A104A1A1A1040404040303A10204000000000000000000000000000000000000000000000000000000000000000000000000000000000000000000000000000000000000000000000000000000000000000000000000000000000000000000000000000000000000000000
310
000000000000000000000000000000000000000000000000000000000000000000000000000000000000000000000000A102030300000000A1A10000A1A1000000A1A1A100000000A1A10000A1A1000000000303A1020000000000000000000000000000000000000000000000000000000000000000000000000000000000
310
0000000000000000000000000000000000000000000000000000000000000000000000000000000000000000000000000000000000000000000000000000000000000000000000000000000000000000000000000000000000000000000000000000000000A10200000000000000000000000000000000A100000000000000
310
00000000000000000000A10200000000000000000000000000000000000000000000000000000000000000000000000000000000000000000000000000000000000000000000000000000000000000000000000000000000000000000000000000000000000000000000000000000000000000000000000000000000000000
310
000000000000000000000000000000000000000000000000000000A10200000000000000000000000000000000040000000000000000000000000000000000A1020000000000000000000000000000000000000000000000000000000000000000000000000000000000000000000000000000000000000000000000000000
310
0000000000000000000000000000000000000000000000000000000000000000000000000000000000000000000000000000000000000000000000000000000000000000000000000000000000000000A1A100000000000000000000000000000000040000000000000000000000000000000000A1A1000000000000000000
310
00000000000000000000000000000000000000000000000000000000000000000000000000000000000000000000000000000000000000000000000000000000000000000000000000000000000000000000000000000000000000000000000000000000000000000000000000000000000000000000000000000000000000
310
000000000000020200000000000000A1A1A1000000000000A1A1000000000000A1A1A10000000000000002020000000000000000000000000000000000000000000000000000000000000000000000000000000000000000000000000000000000000000000000000000000000000000000000000000000000000000000000
310
000000000000000000000000000000000000000000000000000000000000000000000000000000000000000000000000000000000000000000000002020000000000A103030300A1A1000000A1A1A100000000A103030300A1A100000000000202000000000000000000000000000000000000000000000000000000000000
310
0000000000000000000000000000000000000000000000000000000000000000000000000000000000000000000000000000000000000000000000000000000000000000000000000000000000000000000000000000000000000000000000000000000000000000000000000000000002020000000000030303030300A100
310
000000A1A100000000030303030300A1000000000002020000000000000000000000000000000000000000000000000000000000000000000000000000000000000000000000000000000000000000000000000000000000000000000000000000000000000000000000000000000000000000000000000000000000000000
310
0000000000000000000000000000000000000000000000000000000000000000000000000000A1A100000000A100000000000000A10000000400000000A100000000000000A100000000A1A1000000000000000000000000000000000000000000000000000000000000000000000000000000000000000000000000000000
310
00000000000000000000000000000000000000000000000000000000000000000000000000000000000000000000000000000000000000000000000000000000000000000000000000000000000000000000000000000000000000A10200000000A100000000000000A10000000400000000A100000000000000A100000000
310
A1020000000000000000000000000000000000000000000000000000000000000000000000000000000000000000000000000000000000000000000000000000000000000000000000000000000000000000000000000000000000000000000000000000000000000000000000000000000000000000000000000000000000
310
0000000000000000000000000000000000A10203030000A100000000000000A10000000400000000A100000000000000A100000303A102000000000000000000000000000000000000000000000000000000000000000000000000000000000000000000000000000000000000000000000000000000000000000000000000
310
00000000000000000000000000000000000000000000000000000000000000000000000000000000000000000000000000000000000000000000000000000000000000000000A1020303000000A10000000000A100000000040000000000A10000000000A10000000303A10200000000000000000000000000000000000000
310
000000000000000000000000000000000000000000000000000000000000000000000000000000000000000000000000000000000000000000000000000000000000000000000000000000000000000000000000000000000000000000000000000000000000000000000000000000000000000000000000000002A1020303
310
000000A1A1000000A1A100000000040000000000A1A1000000A1A10000000303A102000000000000000000000000000000000000000000000000000000000000000000000000000000000000000000000000000000000000000000000000000000000000000000000000000000000000000000000000000000000000000000
310
00000000000000000000000000000000000000000000000000000000000000000000000000000000000000000000000002A10203030000000000A1A1A10000000000000400000000000000A1A1A100000000000303A10200000000000000000000000000000000000000000000000000000000000000000000000000000000
310
000000000000000000000000000000000000000000000000000000000000000000000000000000000000000000000000000000000000000000000000000000000000000000000000000000000000000000000000000000000000000000000000000000000002A1020000000000000000000000000000000004000000000000
310
0000000000000000000000A102000000000000000000000000000000000000000000000000000000000000000000000000000000000000000000000000000000000000000000000000000000000000000000000000000000000000000000000000000000000000000000000000000000000000000000000000000000000000
310
00000000000000000000000000000000000000000000000000000000A10200000000020202020000000000000000040000000000000000000202020000000000A10200000000000000000000000000000000000000000000000000000000000000000000000000000000000000000000000000000000000000000000000000
310
000000000000000000000000000000000000000000000000000000000000000000000000000000000000000000000000000000000000000000000000000000000000000000000000000000000000000000A1A100000000020202020000000000000000040000000000000000000202020200000000A1A10000000000000000
310
00000000000000000000000000000000000000000000000000000000000000000000000000000000000000000000000000000000000000000000000000000000000000000000000000000000000000000000000000000000000000000000000000000000000000000000000000000000000000000000000000000000000000
310
00000000000000000200000000020202020000000000000000020000000000000000000202020200000002000200000000000000000000000000000000000000000000000000000000000000000000000000000000000000000000000000000000000000000000000000000000000000000000000000000000000000000000
310
000000000000000000000000000000000000000000000000000000000000000000000000000000000000000000000000000000000000000000000000000202020202020202A1A1A1A1A1A1A1A1A10202020202A1A1A1A1A1A1A102020202020202000000000000000000000000000000000000000000000000000000000000
310
0000000000000000000000000000000000000000000000000000000000000000000000000000000000000000000000000000000000000000000000000000000000000000000000000000000000000000000000000000000000000000000000000000000000000000000000000000000000000002020202020202A102030303
310
030202A10202020202A10303030302A1020202020200000000000000000000000000000000000000000000000000000000000000000000000000000000000000000000000000000000000000000000000000000000000000000000000000000000000000000000000000000000000000000000000000000000000000000000
310
00000000000000000000000000000000000000000000000000000000000000000000000000000000000000000000000000030303030300000004000000000003030303000000000000000000000000000000000000000000000000000000000000000000000000000000000000000000000000000000000000000000000000
310
00000000000000000000000000000000000000000000000000000000000000000000000000000000000000000000000000000000000000000000000000000000000000000000000000000000000000000000000000000000000000000000000000000000000000000000000000000400000000000000000000000000000000
310
00000000000000000000000000000000000000000000000000000000000000000000000000000000000000000000000000000000000000000000000000000000000000000000000000000000000000000000000000000000000000000000000000000000000000000000000000000000000000000000000000000000000000
310
00000000000000000000000000000000000000000000000000000000000000000000000000000000000000000000000000000000000000000000000000000000000000000000000000000000000000000000000000000000000000000000000000000000000000000000000000000000000000000000000000000000000000
310
00000000000000000000000000000000000000000000000000000000000000000000000000000000000000000000000000000000000000000000000000000000000000000000000000000000000000000000000000000000000000000000000000000000000000000000000000000000000000000000000000000000000000
310
00000000000000000000000000000000000000000000000000000000000000000000000000000000000000000000000000000000000000000000000000000000000000000000000000000000000000000000000000000000000000000000000000000000000000000000000000000000000000000000000000000000000000
310
000000000000000000000000000000000000000000000000000000000000000000000000000000000000000000000000000000000000000000000000000000000000000000000000000000000000000000000000000000000000000000000000000000000000000000000000
  0
ENDSEC
  0
EOF
