  0
SECTION
  2
HEADER
  9
$ACADVER
  1
AC1015
  9
$ACADMAINTVER
 70
     6
  9
$DWGCODEPAGE
  3
ANSI_932
  9
$INSBASE
 10
0.0
 20
0.0
 30
0.0
  9
$EXTMIN
 10
108.9624414837276
 20
40.0
 30
0.0
  9
$EXTMAX
 10
372.0
 20
339.4518980894253
 30
0.0
  9
$LIMMIN
 10
108.9624414837276
 20
40.0
  9
$LIMMAX
 10
372.0
 20
339.4518980894253
  9
$ORTHOMODE
 70
     0
  9
$REGENMODE
 70
     1
  9
$FILLMODE
 70
     1
  9
$QTEXTMODE
 70
     0
  9
$MIRRTEXT
 70
     1
  9
$LTSCALE
 40
0.1729118571644975
  9
$ATTMODE
 70
     1
  9
$TEXTSIZE
 40
2.5
  9
$TRACEWID
 40
1.0
  9
$TEXTSTYLE
  7
Standard
  9
$CLAYER
  8
0
  9
$CELTYPE
  6
ByLayer
  9
$CECOLOR
 62
   256
  9
$CELTSCALE
 40
1.0
  9
$DISPSILH
 70
     0
  9
$DIMSCALE
 40
1.0
  9
$DIMASZ
 40
2.5
  9
$DIMEXO
 40
0.625
  9
$DIMDLI
 40
3.75
  9
$DIMRND
 40
0.0
  9
$DIMDLE
 40
0.0
  9
$DIMEXE
 40
1.25
  9
$DIMTP
 40
0.0
  9
$DIMTM
 40
0.0
  9
$DIMTXT
 40
2.5
  9
$DIMCEN
 40
2.5
  9
$DIMTSZ
 40
0.0
  9
$DIMTOL
 70
     0
  9
$DIMLIM
 70
     0
  9
$DIMTIH
 70
     0
  9
$DIMTOH
 70
     0
  9
$DIMSE1
 70
     0
  9
$DIMSE2
 70
     0
  9
$DIMTAD
 70
     1
  9
$DIMZIN
 70
     0
  9
$DIMBLK
  1

  9
$DIMASO
 70
     1
  9
$DIMSHO
 70
     1
  9
$DIMPOST
  1

  9
$DIMAPOST
  1

  9
$DIMALT
 70
     0
  9
$DIMALTD
 70
     3
  9
$DIMALTF
 40
0.03937007874016
  9
$DIMLFAC
 40
1.0
  9
$DIMTOFL
 70
     1
  9
$DIMTVP
 40
0.0
  9
$DIMTIX
 70
     0
  9
$DIMSOXD
 70
     0
  9
$DIMSAH
 70
     0
  9
$DIMBLK1
  1

  9
$DIMBLK2
  1

  9
$DIMSTYLE
  2
Standard
  9
$DIMCLRD
 70
     0
  9
$DIMCLRE
 70
     0
  9
$DIMCLRT
 70
     0
  9
$DIMTFAC
 40
0.75
  9
$DIMGAP
 40
0.625
  9
$DIMJUST
 70
     0
  9
$DIMSD1
 70
     0
  9
$DIMSD2
 70
     0
  9
$DIMTOLJ
 70
     0
  9
$DIMTZIN
 70
     8
  9
$DIMALTZ
 70
     0
  9
$DIMALTTZ
 70
     0
  9
$DIMUPT
 70
     0
  9
$DIMDEC
 70
     2
  9
$DIMTDEC
 70
     2
  9
$DIMALTU
 70
     2
  9
$DIMALTTD
 70
     3
  9
$DIMTXSTY
  7
Standard
  9
$DIMAUNIT
 70
     0
  9
$DIMADEC
 70
     0
  9
$DIMALTRND
 40
0.0
  9
$DIMAZIN
 70
     0
  9
$DIMDSEP
 70
    46
  9
$DIMATFIT
 70
     3
  9
$DIMFRAC
 70
     0
  9
$DIMLDRBLK
  1

  9
$DIMLUNIT
 70
     2
  9
$DIMLWD
 70
    -2
  9
$DIMLWE
 70
    -2
  9
$DIMTMOVE
 70
     0
  9
$LUNITS
 70
     2
  9
$LUPREC
 70
     4
  9
$SKETCHINC
 40
1.0
  9
$FILLETRAD
 40
10.0
  9
$AUNITS
 70
     0
  9
$AUPREC
 70
     0
  9
$MENU
  1
.
  9
$ELEVATION
 40
0.0
  9
$PELEVATION
 40
0.0
  9
$THICKNESS
 40
0.0
  9
$LIMCHECK
 70
     0
  9
$CHAMFERA
 40
10.0
  9
$CHAMFERB
 40
10.0
  9
$CHAMFERC
 40
20.0
  9
$CHAMFERD
 40
0.0
  9
$SKPOLY
 70
     0
  9
$TDCREATE
 40
2457922.72155956
  9
$TDUCREATE
 40
2457922.34655956
  9
$TDUPDATE
 40
2457922.721560104
  9
$TDUUPDATE
 40
2457922.346560104
  9
$TDINDWG
 40
0.0000000116
  9
$TDUSRTIMER
 40
0.0000000116
  9
$USRTIMER
 70
     1
  9
$ANGBASE
 50
0.0
  9
$ANGDIR
 70
     0
  9
$PDMODE
 70
     0
  9
$PDSIZE
 40
0.0
  9
$PLINEWID
 40
0.0
  9
$SPLFRAME
 70
     0
  9
$SPLINETYPE
 70
     6
  9
$SPLINESEGS
 70
     8
  9
$HANDSEED
  5
41B
  9
$SURFTAB1
 70
     6
  9
$SURFTAB2
 70
     6
  9
$SURFTYPE
 70
     6
  9
$SURFU
 70
     6
  9
$SURFV
 70
     6
  9
$UCSBASE
  2

  9
$UCSNAME
  2

  9
$UCSORG
 10
0.0
 20
0.0
 30
0.0
  9
$UCSXDIR
 10
1.0
 20
0.0
 30
0.0
  9
$UCSYDIR
 10
0.0
 20
1.0
 30
0.0
  9
$UCSORTHOREF
  2

  9
$UCSORTHOVIEW
 70
     0
  9
$UCSORGTOP
 10
0.0
 20
0.0
 30
0.0
  9
$UCSORGBOTTOM
 10
0.0
 20
0.0
 30
0.0
  9
$UCSORGLEFT
 10
0.0
 20
0.0
 30
0.0
  9
$UCSORGRIGHT
 10
0.0
 20
0.0
 30
0.0
  9
$UCSORGFRONT
 10
0.0
 20
0.0
 30
0.0
  9
$UCSORGBACK
 10
0.0
 20
0.0
 30
0.0
  9
$PUCSBASE
  2

  9
$PUCSNAME
  2

  9
$PUCSORG
 10
0.0
 20
0.0
 30
0.0
  9
$PUCSXDIR
 10
1.0
 20
0.0
 30
0.0
  9
$PUCSYDIR
 10
0.0
 20
1.0
 30
0.0
  9
$PUCSORTHOREF
  2

  9
$PUCSORTHOVIEW
 70
     0
  9
$PUCSORGTOP
 10
0.0
 20
0.0
 30
0.0
  9
$PUCSORGBOTTOM
 10
0.0
 20
0.0
 30
0.0
  9
$PUCSORGLEFT
 10
0.0
 20
0.0
 30
0.0
  9
$PUCSORGRIGHT
 10
0.0
 20
0.0
 30
0.0
  9
$PUCSORGFRONT
 10
0.0
 20
0.0
 30
0.0
  9
$PUCSORGBACK
 10
0.0
 20
0.0
 30
0.0
  9
$USERI1
 70
     0
  9
$USERI2
 70
     0
  9
$USERI3
 70
     0
  9
$USERI4
 70
     0
  9
$USERI5
 70
     0
  9
$USERR1
 40
0.0
  9
$USERR2
 40
0.0
  9
$USERR3
 40
0.0
  9
$USERR4
 40
0.0
  9
$USERR5
 40
0.0
  9
$WORLDVIEW
 70
     1
  9
$SHADEDGE
 70
     3
  9
$SHADEDIF
 70
    70
  9
$TILEMODE
 70
     1
  9
$MAXACTVP
 70
    64
  9
$PINSBASE
 10
0.0
 20
0.0
 30
0.0
  9
$PLIMCHECK
 70
     0
  9
$PEXTMIN
 10
1.000000000000000E+20
 20
1.000000000000000E+20
 30
1.000000000000000E+20
  9
$PEXTMAX
 10
-1.000000000000000E+20
 20
-1.000000000000000E+20
 30
-1.000000000000000E+20
  9
$PLIMMIN
 10
0.0
 20
0.0
  9
$PLIMMAX
 10
420.0
 20
297.0
  9
$UNITMODE
 70
     0
  9
$VISRETAIN
 70
     1
  9
$PLINEGEN
 70
     0
  9
$PSLTSCALE
 70
     0
  9
$TREEDEPTH
 70
  3020
  9
$CMLSTYLE
  2
Standard
  9
$CMLJUST
 70
     0
  9
$CMLSCALE
 40
20.0
  9
$PROXYGRAPHICS
 70
     1
  9
$MEASUREMENT
 70
     1
  9
$CELWEIGHT
370
    -1
  9
$ENDCAPS
280
     0
  9
$JOINSTYLE
280
     0
  9
$LWDISPLAY
290
     0
  9
$INSUNITS
 70
     4
  9
$HYPERLINKBASE
  1

  9
$STYLESHEET
  1

  9
$XEDIT
290
     1
  9
$CEPSNTYPE
380
     0
  9
$PSTYLEMODE
290
     1
  9
$FINGERPRINTGUID
  2
{831B5E33-B3BD-48B4-810E-E9BBCDB27A44}
  9
$VERSIONGUID
  2
{FAEB1C32-E019-11D5-929B-00C0DF256EC4}
  9
$EXTNAMES
290
     1
  9
$PSVPSCALE
 40
0.0
  9
$OLESTARTUP
290
     0
  0
ENDSEC
  0
SECTION
  2
CLASSES
  0
CLASS
  1
ACDBDICTIONARYWDFLT
  2
AcDbDictionaryWithDefault
  3
ObjectDBX Classes
 90
        0
280
     0
281
     0
  0
CLASS
  1
VISUALSTYLE
  2
AcDbVisualStyle
  3
ObjectDBX Classes
 90
     4095
280
     0
281
     0
  0
CLASS
  1
MATERIAL
  2
AcDbMaterial
  3
ObjectDBX Classes
 90
     1153
280
     0
281
     0
  0
CLASS
  1
SCALE
  2
AcDbScale
  3
ObjectDBX Classes
 90
     1153
280
     0
281
     0
  0
CLASS
  1
DICTIONARYVAR
  2
AcDbDictionaryVar
  3
ObjectDBX Classes
 90
        0
280
     0
281
     0
  0
CLASS
  1
ACDBPLACEHOLDER
  2
AcDbPlaceHolder
  3
ObjectDBX Classes
 90
        0
280
     0
281
     0
  0
CLASS
  1
LAYOUT
  2
AcDbLayout
  3
ObjectDBX Classes
 90
        0
280
     0
281
     0
  0
ENDSEC
  0
SECTION
  2
TABLES
  0
TABLE
  2
VPORT
  5
8
330
0
100
AcDbSymbolTable
 70
     1
  0
VPORT
  5
29
330
8
100
AcDbSymbolTableRecord
100
AcDbViewportTableRecord
  2
*Active
 70
     0
 10
0.0
 20
0.0
 11
1.0
 21
1.0
 12
240.4812207418638
 22
189.7259490447126
 13
0.0
 23
0.0
 14
10.0
 24
10.0
 15
10.0
 25
10.0
 16
0.0
 26
0.0
 36
1.0
 17
0.0
 27
0.0
 37
0.0
 40
329.3970878983678
 41
1.333333333333333
 42
50.0
 43
0.0
 44
0.0
 50
0.0
 51
0.0
 71
     0
 72
 20000
 73
     1
 74
     3
 75
     0
 76
     0
 77
     0
 78
     0
281
     0
 65
     1
110
0.0
120
0.0
130
0.0
111
1.0
121
0.0
131
0.0
112
0.0
122
1.0
132
0.0
 79
     0
146
0.0
  0
ENDTAB
  0
TABLE
  2
LTYPE
  5
5
330
0
100
AcDbSymbolTable
 70
     7
  0
LTYPE
  5
14
330
5
100
AcDbSymbolTableRecord
100
AcDbLinetypeTableRecord
  2
ByBlock
 70
     0
  3

 72
    65
 73
     0
 40
0.0
  0
LTYPE
  5
15
330
5
100
AcDbSymbolTableRecord
100
AcDbLinetypeTableRecord
  2
ByLayer
 70
     0
  3

 72
    65
 73
     0
 40
0.0
  0
LTYPE
  5
16
330
5
100
AcDbSymbolTableRecord
100
AcDbLinetypeTableRecord
  2
Continuous
 70
     0
  3
Solid line
 72
    65
 73
     0
 40
0.0
  0
LTYPE
  5
40
330
5
100
AcDbSymbolTableRecord
100
AcDbLinetypeTableRecord
  2
DASHED
 70
     0
  3
ICAD/SX(2) Dashed __ __ __ __ __ __ __ __ __ __ __ __ __ _
 72
    65
 73
     2
 40
19.05
 49
12.7
 74
     0
 49
-6.35
 74
     0
  0
LTYPE
  5
41
330
5
100
AcDbSymbolTableRecord
100
AcDbLinetypeTableRecord
  2
CENTER
 70
     0
  3
ICAD/SX(3) Center ____ _ ____ _ ____ _ ____ _ ____ _ ____
 72
    65
 73
     4
 40
50.8
 49
31.75
 74
     0
 49
-6.35
 74
     0
 49
6.35
 74
     0
 49
-6.35
 74
     0
  0
LTYPE
  5
42
330
5
100
AcDbSymbolTableRecord
100
AcDbLinetypeTableRecord
  2
PHANTOM
 70
     0
  3
ICAD/SX(4) Phantom ______  __  __  ______  __  __  ______
 72
    65
 73
     6
 40
63.5
 49
31.75
 74
     0
 49
-6.35
 74
     0
 49
6.35
 74
     0
 49
-6.35
 74
     0
 49
6.35
 74
     0
 49
-6.35
 74
     0
  0
LTYPE
  5
43
330
5
100
AcDbSymbolTableRecord
100
AcDbLinetypeTableRecord
  2
DOT
 70
     0
  3
ICAD/SX(5) Dot . . . . . . . . . . . . . . . . . . . . . . . .
 72
    65
 73
     2
 40
6.35
 49
0.0
 74
     0
 49
-6.35
 74
     0
  0
LTYPE
  5
44
330
5
100
AcDbSymbolTableRecord
100
AcDbLinetypeTableRecord
  2
HIDDEN
 70
     0
  3
ICAD/SX(6) Hidden __ __ __ __ __ __ __ __ __ __ __ __ __ __
 72
    65
 73
     2
 40
9.525
 49
6.35
 74
     0
 49
-3.175
 74
     0
  0
LTYPE
  5
45
330
5
100
AcDbSymbolTableRecord
100
AcDbLinetypeTableRecord
  2
DOTSX
 70
     0
  3
ICAD/SX(5) Dot . . . . . . . . . . . . . . . . . . . . . . . .
 72
    65
 73
     2
 40
6.35
 49
3.175
 74
     0
 49
-3.175
 74
     0
  0
ENDTAB
  0
TABLE
  2
LAYER
  5
2
330
0
100
AcDbSymbolTable
 70
     6
  0
LAYER
  5
10
330
2
100
AcDbSymbolTableRecord
100
AcDbLayerTableRecord
  2
0
 70
     0
 62
     7
  6
Continuous
370
    -3
390
F
  0
LAYER
  5
46
330
2
100
AcDbSymbolTableRecord
100
AcDbLayerTableRecord
  2
NoLayerName_001
 70
     0
 62
     7
  6
Continuous
370
    -3
390
F
  0
LAYER
  5
47
330
2
100
AcDbSymbolTableRecord
100
AcDbLayerTableRecord
  2
NoLayerName_002
 70
     0
 62
     7
  6
Continuous
370
    -3
390
F
  0
LAYER
  5
48
330
2
100
AcDbSymbolTableRecord
100
AcDbLayerTableRecord
  2
NoLayerName_003
 70
     0
 62
     7
  6
Continuous
370
    -3
390
F
  0
LAYER
  5
49
330
2
100
AcDbSymbolTableRecord
100
AcDbLayerTableRecord
  2
Defpoints
 70
     0
 62
     7
  6
Continuous
290
     0
370
    -3
390
F
  0
LAYER
  5
4A
330
2
100
AcDbSymbolTableRecord
100
AcDbLayerTableRecord
  2
SX_DraftLine
 70
     0
 62
     7
  6
Continuous
290
     0
370
    -3
390
F
  0
ENDTAB
  0
TABLE
  2
STYLE
  5
3
330
0
100
AcDbSymbolTable
 70
     2
  0
STYLE
  5
11
330
3
100
AcDbSymbolTableRecord
100
AcDbTextStyleTableRecord
  2
Standard
 70
     0
 40
0.0
 41
1.0
 50
0.0
 71
     0
 42
2.5
  3
txt
  4
extfont2
  0
STYLE
  5
3F
330
3
100
AcDbSymbolTableRecord
100
AcDbTextStyleTableRecord
  2

 70
     1
 40
0.0
 41
1.0
 50
0.0
 71
     0
 42
2.5
  3
ltypeshp.shx
  4

  0
ENDTAB
  0
TABLE
  2
VIEW
  5
6
330
0
100
AcDbSymbolTable
 70
     0
  0
ENDTAB
  0
TABLE
  2
UCS
  5
7
330
0
100
AcDbSymbolTable
 70
     0
  0
ENDTAB
  0
TABLE
  2
APPID
  5
9
330
0
100
AcDbSymbolTable
 70
     1
  0
APPID
  5
12
330
9
100
AcDbSymbolTableRecord
100
AcDbRegAppTableRecord
  2
ACAD
 70
     0
  0
ENDTAB
  0
TABLE
  2
DIMSTYLE
  5
A
330
0
100
AcDbSymbolTable
 70
     1
100
AcDbDimStyleTable
  0
DIMSTYLE
105
27
330
A
100
AcDbSymbolTableRecord
100
AcDbDimStyleTableRecord
  2
Standard
 70
     0
 41
2.5
 42
0.625
 43
3.75
 44
1.25
 73
     0
 74
     0
 77
     1
140
2.5
141
2.5
143
0.03937007874016
146
0.75
147
0.625
171
     3
172
     1
178
     0
271
     2
272
     2
274
     3
283
     0
284
     8
340
11
  0
ENDTAB
  0
TABLE
  2
BLOCK_RECORD
  5
1
330
0
100
AcDbSymbolTable
 70
     1
  0
BLOCK_RECORD
  5
1F
330
1
100
AcDbSymbolTableRecord
100
AcDbBlockTableRecord
  2
*Model_Space
340
22
  0
BLOCK_RECORD
  5
1B
330
1
100
AcDbSymbolTableRecord
100
AcDbBlockTableRecord
  2
*Paper_Space
340
1E
  0
BLOCK_RECORD
  5
23
330
1
100
AcDbSymbolTableRecord
100
AcDbBlockTableRecord
  2
*Paper_Space0
340
0
  0
ENDTAB
  0
ENDSEC
  0
SECTION
  2
BLOCKS
  0
BLOCK
  5
20
330
1F
100
AcDbEntity
  8
0
100
AcDbBlockBegin
  2
*Model_Space
 70
     0
 10
0.0
 20
0.0
 30
0.0
  3
*Model_Space
  1

  0
ENDBLK
  5
21
330
1F
100
AcDbEntity
  8
0
100
AcDbBlockEnd
  0
BLOCK
  5
1C
330
1B
100
AcDbEntity
 67
     1
  8
0
100
AcDbBlockBegin
  2
*Paper_Space
 70
     0
 10
0.0
 20
0.0
 30
0.0
  3
*Paper_Space
  1

  0
ENDBLK
  5
1D
330
1B
100
AcDbEntity
 67
     1
  8
0
100
AcDbBlockEnd
  0
BLOCK
  5
24
330
23
100
AcDbEntity
  8
0
100
AcDbBlockBegin
  2
*Paper_Space0
 70
     0
 10
0.0
 20
0.0
 30
0.0
  3
*Paper_Space0
  1

  0
ENDBLK
  5
25
330
23
100
AcDbEntity
  8
0
100
AcDbBlockEnd
  0
ENDSEC
  0
SECTION
  2
ENTITIES
  0
POINT
  5
4B
330
1F
100
AcDbEntity
  8
NoLayerName_001
  6
Continuous
 62
     7
 60
     1
370
    50
100
AcDbPoint
 10
0.0
 20
0.0
 30
0.0
  0
LINE
  5
4C
330
1F
100
AcDbEntity
  8
NoLayerName_001
  6
Continuous
 62
     7
370
    50
100
AcDbLine
 10
219.9419489585807
 20
315.3826759685923
 30
0.0
 11
227.9419489585807
 21
315.3826759685923
 31
0.0
  0
ARC
  5
4D
330
1F
100
AcDbEntity
  8
NoLayerName_001
  6
Continuous
 62
     7
370
    50
100
AcDbCircle
 10
223.9419489585807
 20
318.3826759685923
 30
0.0
 40
3.75
100
AcDbArc
 50
306.869897645844
 51
233.130102354156
  0
LINE
  5
4E
330
1F
100
AcDbEntity
  8
NoLayerName_001
  6
Continuous
 62
     7
370
    50
100
AcDbLine
 10
265.9419489585807
 20
315.3826759685923
 30
0.0
 11
273.9419489585807
 21
315.3826759685923
 31
0.0
  0
ARC
  5
4F
330
1F
100
AcDbEntity
  8
NoLayerName_001
  6
Continuous
 62
     7
370
    50
100
AcDbCircle
 10
269.9419489585807
 20
318.3826759685923
 30
0.0
 40
3.75
100
AcDbArc
 50
306.869897645844
 51
233.130102354156
  0
LINE
  5
50
330
1F
100
AcDbEntity
  8
NoLayerName_001
  6
Continuous
 62
     7
370
    50
100
AcDbLine
 10
219.9419489585807
 20
237.8826759685924
 30
0.0
 11
227.9419489585807
 21
237.8826759685924
 31
0.0
  0
LINE
  5
51
330
1F
100
AcDbEntity
  8
NoLayerName_001
  6
Continuous
 62
     7
370
    50
100
AcDbLine
 10
265.9419489585807
 20
237.8826759685924
 30
0.0
 11
273.9419489585807
 21
237.8826759685924
 31
0.0
  0
ARC
  5
52
330
1F
100
AcDbEntity
  8
NoLayerName_001
  6
Continuous
 62
     7
370
    50
100
AcDbCircle
 10
223.9419489585807
 20
234.8826759685924
 30
0.0
 40
3.75
100
AcDbArc
 50
126.869897645844
 51
53.13010235415599
  0
ARC
  5
53
330
1F
100
AcDbEntity
  8
NoLayerName_001
  6
Continuous
 62
     7
370
    50
100
AcDbCircle
 10
269.9419489585807
 20
234.8826759685924
 30
0.0
 40
3.75
100
AcDbArc
 50
126.869897645844
 51
53.13010235415599
  0
LINE
  5
54
330
1F
100
AcDbEntity
  8
NoLayerName_001
  6
Continuous
 62
    30
370
    50
100
AcDbLine
 10
197.9419489585806
 20
306.6326759685924
 30
0.0
 11
200.4419489585807
 21
306.6326759685924
 31
0.0
  0
LINE
  5
55
330
1F
100
AcDbEntity
  8
NoLayerName_001
  6
Continuous
 62
    30
370
    50
100
AcDbLine
 10
197.9419489585806
 20
296.6326759685925
 30
0.0
 11
200.4419489585807
 21
296.6326759685925
 31
0.0
  0
LINE
  5
56
330
1F
100
AcDbEntity
  8
NoLayerName_001
  6
Continuous
 62
    30
370
    50
100
AcDbLine
 10
197.9419489585807
 20
256.6326759685923
 30
0.0
 11
200.4419489585807
 21
256.6326759685923
 31
0.0
  0
LINE
  5
57
330
1F
100
AcDbEntity
  8
NoLayerName_001
  6
Continuous
 62
    30
370
    50
100
AcDbLine
 10
197.9419489585806
 20
246.6326759685924
 30
0.0
 11
200.4419489585807
 21
246.6326759685924
 31
0.0
  0
LINE
  5
58
330
1F
100
AcDbEntity
  8
NoLayerName_001
  6
Continuous
 62
    30
370
    50
100
AcDbLine
 10
197.9419489585806
 20
281.6326759685924
 30
0.0
 11
200.4419489585806
 21
281.6326759685924
 31
0.0
  0
LINE
  5
59
330
1F
100
AcDbEntity
  8
NoLayerName_001
  6
Continuous
 62
    30
370
    50
100
AcDbLine
 10
197.9419489585807
 20
271.6326759685924
 30
0.0
 11
200.4419489585807
 21
271.6326759685924
 31
0.0
  0
LINE
  5
5A
330
1F
100
AcDbEntity
  8
NoLayerName_001
  6
Continuous
 62
    30
370
    50
100
AcDbLine
 10
200.4419489585806
 20
281.6326759685924
 30
0.0
 11
200.4419489585806
 21
271.6326759685924
 31
0.0
  0
LINE
  5
5B
330
1F
100
AcDbEntity
  8
NoLayerName_001
  6
Continuous
 62
    30
370
    50
100
AcDbLine
 10
200.4419489585806
 20
276.1326759685924
 30
0.0
 11
225.7482078617324
 21
276.1326759685924
 31
0.0
  0
LINE
  5
5C
330
1F
100
AcDbEntity
  8
NoLayerName_001
  6
Continuous
 62
    30
370
    50
100
AcDbLine
 10
200.4419489585806
 20
277.1326759685924
 30
0.0
 11
225.7482078617324
 21
277.1326759685924
 31
0.0
  0
LINE
  5
5D
330
1F
100
AcDbEntity
  8
NoLayerName_001
  6
Continuous
 62
    30
370
    50
100
AcDbLine
 10
134.5569473070539
 20
303.6326759685924
 30
0.0
 11
117.5569473070538
 21
303.6326759685924
 31
0.0
  0
LINE
  5
5E
330
1F
100
AcDbEntity
  8
NoLayerName_001
  6
Continuous
 62
     7
370
    50
100
AcDbLine
 10
131.0569473070539
 20
300.1826759685924
 30
0.0
 11
135.0569473070539
 21
300.1826759685924
 31
0.0
  0
LINE
  5
5F
330
1F
100
AcDbEntity
  8
NoLayerName_001
  6
Continuous
 62
     7
370
    50
100
AcDbLine
 10
135.0569473070539
 20
303.5691676416961
 30
0.0
 11
135.0569473070539
 21
303.0826759685925
 31
0.0
  0
LINE
  5
60
330
1F
100
AcDbEntity
  8
NoLayerName_001
  6
Continuous
 62
     7
370
    50
100
AcDbLine
 10
131.0569473070539
 20
303.0826759685924
 30
0.0
 11
135.0569473070539
 21
303.0826759685924
 31
0.0
  0
LINE
  5
61
330
1F
100
AcDbEntity
  8
NoLayerName_001
  6
Continuous
 62
    30
370
    50
100
AcDbLine
 10
131.0569473070539
 20
299.6326759685925
 30
0.0
 11
131.0569473070539
 21
300.1826759685924
 31
0.0
  0
LINE
  5
62
330
1F
100
AcDbEntity
  8
NoLayerName_001
  6
Continuous
 62
    30
370
    50
100
AcDbLine
 10
131.0569473070539
 20
303.0826759685924
 30
0.0
 11
131.0569473070539
 21
303.6326759685924
 31
0.0
  0
LINE
  5
63
330
1F
100
AcDbEntity
  8
NoLayerName_001
  6
Continuous
 62
     7
370
    50
100
AcDbLine
 10
135.0569473070539
 20
300.1826759685924
 30
0.0
 11
135.0569473070539
 21
299.6961842954888
 31
0.0
  0
LINE
  5
64
330
1F
100
AcDbEntity
  8
NoLayerName_001
  6
Continuous
 62
    30
370
    50
100
AcDbLine
 10
134.5569473070539
 20
299.6326759685924
 30
0.0
 11
117.5569473070538
 21
299.6326759685924
 31
0.0
  0
ARC
  5
65
330
1F
100
AcDbEntity
  8
NoLayerName_001
  6
Continuous
 62
    30
370
    50
100
AcDbCircle
 10
134.5569473070539
 20
301.6326759685924
 30
0.0
 40
2.0
100
AcDbArc
 50
270.0
 51
90.0
  0
LINE
  5
66
330
1F
100
AcDbEntity
  8
NoLayerName_001
  6
Continuous
 62
     7
370
    50
100
AcDbLine
 10
131.0569473070539
 20
253.0826759685922
 30
0.0
 11
135.0569473070539
 21
253.0826759685922
 31
0.0
  0
LINE
  5
67
330
1F
100
AcDbEntity
  8
NoLayerName_001
  6
Continuous
 62
     7
370
    50
100
AcDbLine
 10
135.0569473070539
 20
249.6961842954885
 30
0.0
 11
135.0569473070539
 21
250.1826759685922
 31
0.0
  0
LINE
  5
68
330
1F
100
AcDbEntity
  8
NoLayerName_001
  6
Continuous
 62
     7
370
    50
100
AcDbLine
 10
131.0569473070539
 20
250.1826759685922
 30
0.0
 11
135.0569473070539
 21
250.1826759685922
 31
0.0
  0
LINE
  5
69
330
1F
100
AcDbEntity
  8
NoLayerName_001
  6
Continuous
 62
    30
370
    50
100
AcDbLine
 10
189.4419489585807
 20
305.6326759685923
 30
0.0
 11
189.4419489585807
 21
297.6326759685923
 31
0.0
  0
LINE
  5
6A
330
1F
100
AcDbEntity
  8
NoLayerName_001
  6
Continuous
 62
    30
370
    50
100
AcDbLine
 10
189.9419489585807
 20
297.6326759685923
 30
0.0
 11
189.9419489585807
 21
255.6326759685923
 31
0.0
  0
LINE
  5
6B
330
1F
100
AcDbEntity
  8
NoLayerName_001
  6
Continuous
 62
    30
370
    50
100
AcDbLine
 10
131.0569473070539
 20
253.6326759685923
 30
0.0
 11
131.0569473070539
 21
253.0826759685923
 31
0.0
  0
LINE
  5
6C
330
1F
100
AcDbEntity
  8
NoLayerName_001
  6
Continuous
 62
    30
370
    50
100
AcDbLine
 10
189.4419489585807
 20
255.6326759685924
 30
0.0
 11
189.4419489585807
 21
247.6326759685923
 31
0.0
  0
LINE
  5
6D
330
1F
100
AcDbEntity
  8
NoLayerName_001
  6
Continuous
 62
    30
370
    50
100
AcDbLine
 10
131.0569473070539
 20
250.1826759685922
 30
0.0
 11
131.0569473070539
 21
249.6326759685922
 31
0.0
  0
LINE
  5
6E
330
1F
100
AcDbEntity
  8
NoLayerName_001
  6
Continuous
 62
    30
370
    50
100
AcDbLine
 10
197.9419489585807
 20
306.6326759685924
 30
0.0
 11
196.4419489585807
 21
303.6326759685924
 31
0.0
  0
LINE
  5
6F
330
1F
100
AcDbEntity
  8
NoLayerName_001
  6
Continuous
 62
    30
370
    50
100
AcDbLine
 10
197.9419489585807
 20
296.6326759685924
 30
0.0
 11
196.4419489585807
 21
299.6326759685924
 31
0.0
  0
LINE
  5
70
330
1F
100
AcDbEntity
  8
NoLayerName_001
  6
Continuous
 62
    30
370
    50
100
AcDbLine
 10
196.4419489585807
 20
303.6326759685924
 30
0.0
 11
196.4419489585807
 21
299.6326759685924
 31
0.0
  0
LINE
  5
71
330
1F
100
AcDbEntity
  8
NoLayerName_001
  6
Continuous
 62
    30
370
    50
100
AcDbLine
 10
197.9419489585807
 20
256.6326759685923
 30
0.0
 11
196.4419489585807
 21
253.6326759685923
 31
0.0
  0
LINE
  5
72
330
1F
100
AcDbEntity
  8
NoLayerName_001
  6
Continuous
 62
    30
370
    50
100
AcDbLine
 10
197.9419489585807
 20
246.6326759685923
 30
0.0
 11
196.4419489585807
 21
249.6326759685923
 31
0.0
  0
LINE
  5
73
330
1F
100
AcDbEntity
  8
NoLayerName_001
  6
Continuous
 62
    30
370
    50
100
AcDbLine
 10
196.4419489585807
 20
253.6326759685923
 30
0.0
 11
196.4419489585807
 21
249.6326759685923
 31
0.0
  0
LINE
  5
74
330
1F
100
AcDbEntity
  8
NoLayerName_001
  6
Continuous
 62
    30
370
    50
100
AcDbLine
 10
195.4419489585807
 20
307.2228459123418
 30
0.0
 11
193.9419489585807
 21
304.2228459123418
 31
0.0
  0
LINE
  5
75
330
1F
100
AcDbEntity
  8
NoLayerName_001
  6
Continuous
 62
    30
370
    50
100
AcDbLine
 10
193.9419489585807
 20
304.2228459123419
 30
0.0
 11
193.9419489585807
 21
299.042506024843
 31
0.0
  0
LINE
  5
76
330
1F
100
AcDbEntity
  8
NoLayerName_001
  6
Continuous
 62
    30
370
    50
100
AcDbLine
 10
195.4419489585807
 20
296.042506024843
 30
0.0
 11
193.9419489585807
 21
299.042506024843
 31
0.0
  0
LINE
  5
77
330
1F
100
AcDbEntity
  8
NoLayerName_001
  6
Continuous
 62
    30
370
    50
100
AcDbLine
 10
193.9419489585807
 20
254.2228459123418
 30
0.0
 11
193.9419489585807
 21
249.0425060248429
 31
0.0
  0
LINE
  5
78
330
1F
100
AcDbEntity
  8
NoLayerName_001
  6
Continuous
 62
     7
370
    50
100
AcDbLine
 10
135.0569473070539
 20
253.0826759685922
 30
0.0
 11
135.0569473070539
 21
253.5691676416959
 31
0.0
  0
LINE
  5
79
330
1F
100
AcDbEntity
  8
NoLayerName_001
  6
Continuous
 62
    30
370
    50
100
AcDbLine
 10
195.4419489585807
 20
257.2228459123418
 30
0.0
 11
193.9419489585807
 21
254.2228459123418
 31
0.0
  0
LINE
  5
7A
330
1F
100
AcDbEntity
  8
NoLayerName_001
  6
Continuous
 62
    30
370
    50
100
AcDbLine
 10
195.4419489585807
 20
246.0425060248429
 30
0.0
 11
193.9419489585807
 21
249.0425060248429
 31
0.0
  0
LINE
  5
7B
330
1F
100
AcDbEntity
  8
NoLayerName_001
  6
Continuous
 62
    30
370
    50
100
AcDbLine
 10
190.4419489585807
 20
276.6326759685924
 30
0.0
 11
192.9419489585807
 21
278.1326759685924
 31
0.0
  0
LINE
  5
7C
330
1F
100
AcDbEntity
  8
NoLayerName_001
  6
Continuous
 62
    30
370
    50
100
AcDbLine
 10
190.4419489585807
 20
276.6326759685924
 30
0.0
 11
192.9419489585807
 21
275.1326759685924
 31
0.0
  0
LINE
  5
7D
330
1F
100
AcDbEntity
  8
NoLayerName_001
  6
Continuous
 62
    30
370
    50
100
AcDbLine
 10
192.9419489585807
 20
278.1326759685924
 30
0.0
 11
192.9419489585807
 21
275.1326759685924
 31
0.0
  0
LINE
  5
7E
330
1F
100
AcDbEntity
  8
NoLayerName_001
  6
Continuous
 62
    30
370
    50
100
AcDbLine
 10
188.4419489585807
 20
305.6326759685924
 30
0.0
 11
188.4419489585807
 21
303.6326759685924
 31
0.0
  0
LINE
  5
7F
330
1F
100
AcDbEntity
  8
NoLayerName_001
  6
Continuous
 62
    30
370
    50
100
AcDbLine
 10
188.4419489585807
 20
299.6326759685924
 30
0.0
 11
188.4419489585807
 21
297.6326759685924
 31
0.0
  0
LINE
  5
80
330
1F
100
AcDbEntity
  8
NoLayerName_001
  6
Continuous
 62
    30
370
    50
100
AcDbLine
 10
189.4419489585807
 20
303.6326759685924
 30
0.0
 11
188.4419489585807
 21
303.6326759685924
 31
0.0
  0
LINE
  5
81
330
1F
100
AcDbEntity
  8
NoLayerName_001
  6
Continuous
 62
    30
370
    50
100
AcDbLine
 10
189.4419489585807
 20
299.6326759685924
 30
0.0
 11
188.4419489585807
 21
299.6326759685924
 31
0.0
  0
LINE
  5
82
330
1F
100
AcDbEntity
  8
NoLayerName_001
  6
Continuous
 62
    30
370
    50
100
AcDbLine
 10
189.9419489585807
 20
297.6326759685924
 30
0.0
 11
188.4419489585807
 21
297.6326759685924
 31
0.0
  0
LINE
  5
83
330
1F
100
AcDbEntity
  8
NoLayerName_001
  6
Continuous
 62
    30
370
    50
100
AcDbLine
 10
188.4419489585807
 20
247.6326759685924
 30
0.0
 11
188.4419489585807
 21
249.6326759685924
 31
0.0
  0
LINE
  5
84
330
1F
100
AcDbEntity
  8
NoLayerName_001
  6
Continuous
 62
    30
370
    50
100
AcDbLine
 10
188.4419489585807
 20
253.6326759685924
 30
0.0
 11
188.4419489585807
 21
255.6326759685924
 31
0.0
  0
LINE
  5
85
330
1F
100
AcDbEntity
  8
NoLayerName_001
  6
Continuous
 62
    30
370
    50
100
AcDbLine
 10
189.4419489585807
 20
249.6326759685924
 30
0.0
 11
188.4419489585807
 21
249.6326759685924
 31
0.0
  0
LINE
  5
86
330
1F
100
AcDbEntity
  8
NoLayerName_001
  6
Continuous
 62
    30
370
    50
100
AcDbLine
 10
189.4419489585807
 20
253.6326759685924
 30
0.0
 11
188.4419489585807
 21
253.6326759685924
 31
0.0
  0
LINE
  5
87
330
1F
100
AcDbEntity
  8
NoLayerName_001
  6
Continuous
 62
    30
370
    50
100
AcDbLine
 10
189.9419489585807
 20
255.6326759685924
 30
0.0
 11
188.4419489585807
 21
255.6326759685924
 31
0.0
  0
LINE
  5
88
330
1F
100
AcDbEntity
  8
NoLayerName_001
  6
Continuous
 62
    30
370
    50
100
AcDbLine
 10
189.9419489585807
 20
305.6326759685924
 30
0.0
 11
188.4419489585807
 21
305.6326759685924
 31
0.0
  0
LINE
  5
89
330
1F
100
AcDbEntity
  8
NoLayerName_001
  6
Continuous
 62
    30
370
    50
100
AcDbLine
 10
189.9419489585807
 20
247.6326759685923
 30
0.0
 11
188.4419489585807
 21
247.6326759685923
 31
0.0
  0
LINE
  5
8A
330
1F
100
AcDbEntity
  8
NoLayerName_001
  6
CENTER
 62
     3
370
    25
100
AcDbLine
 10
307.6911043191752
 20
276.6326759685924
 30
0.0
 11
184.850427924113
 21
276.6326759685924
 31
0.0
  0
ARC
  5
8B
330
1F
100
AcDbEntity
  8
NoLayerName_001
  6
Continuous
 62
    30
370
    50
100
AcDbCircle
 10
134.556947307054
 20
251.6326759685923
 30
0.0
 40
2.0
100
AcDbArc
 50
270.0
 51
90.0
  0
LINE
  5
8C
330
1F
100
AcDbEntity
  8
NoLayerName_001
  6
Continuous
 62
    30
370
    50
100
AcDbLine
 10
264.9419489585807
 20
321.1326759685923
 30
0.0
 11
246.4419489585806
 21
321.1326759685923
 31
0.0
  0
LINE
  5
8D
330
1F
100
AcDbEntity
  8
NoLayerName_001
  6
Continuous
 62
    30
370
    50
100
AcDbLine
 10
264.9419489585807
 20
232.1326759685925
 30
0.0
 11
246.4419489585806
 21
232.1326759685925
 31
0.0
  0
LINE
  5
8E
330
1F
100
AcDbEntity
  8
NoLayerName_001
  6
Continuous
 62
    30
370
    50
100
AcDbLine
 10
137.5569473070539
 20
278.6326759685924
 30
0.0
 11
117.5569473070538
 21
278.6326759685924
 31
0.0
  0
LINE
  5
8F
330
1F
100
AcDbEntity
  8
NoLayerName_001
  6
Continuous
 62
    30
370
    50
100
AcDbLine
 10
137.556947307054
 20
274.6326759685924
 30
0.0
 11
117.556947307054
 21
274.6326759685924
 31
0.0
  0
LINE
  5
90
330
1F
100
AcDbEntity
  8
NoLayerName_001
  6
Continuous
 62
    30
370
    50
100
AcDbLine
 10
139.5569473070539
 20
297.6326759685923
 30
0.0
 11
139.5569473070539
 21
280.6326759685923
 31
0.0
  0
LINE
  5
91
330
1F
100
AcDbEntity
  8
NoLayerName_001
  6
Continuous
 62
    30
370
    50
100
AcDbLine
 10
139.5569473070539
 20
272.6326759685923
 30
0.0
 11
139.5569473070539
 21
255.6326759685924
 31
0.0
  0
LINE
  5
92
330
1F
100
AcDbEntity
  8
NoLayerName_001
  6
Continuous
 62
    30
370
    50
100
AcDbLine
 10
140.5569473070539
 20
305.6326759685923
 30
0.0
 11
140.5569473070539
 21
303.6326759685924
 31
0.0
  0
LINE
  5
93
330
1F
100
AcDbEntity
  8
NoLayerName_001
  6
Continuous
 62
    30
370
    50
100
AcDbLine
 10
140.5569473070539
 20
299.6326759685924
 30
0.0
 11
140.5569473070539
 21
297.6326759685923
 31
0.0
  0
LINE
  5
94
330
1F
100
AcDbEntity
  8
NoLayerName_001
  6
Continuous
 62
    30
370
    50
100
AcDbLine
 10
141.0569473070539
 20
305.6326759685923
 30
0.0
 11
141.0569473070539
 21
303.6326759685924
 31
0.0
  0
LINE
  5
95
330
1F
100
AcDbEntity
  8
NoLayerName_001
  6
Continuous
 62
    30
370
    50
100
AcDbLine
 10
121.0569473070539
 20
297.6326759685925
 30
0.0
 11
121.0569473070539
 21
299.6326759685924
 31
0.0
  0
LINE
  5
96
330
1F
100
AcDbEntity
  8
NoLayerName_001
  6
Continuous
 62
    30
370
    50
100
AcDbLine
 10
141.0569473070539
 20
299.6326759685924
 30
0.0
 11
141.0569473070539
 21
297.6326759685923
 31
0.0
  0
LINE
  5
97
330
1F
100
AcDbEntity
  8
NoLayerName_001
  6
Continuous
 62
    30
370
    50
100
AcDbLine
 10
121.0569473070539
 20
305.6326759685923
 30
0.0
 11
121.0569473070539
 21
303.6326759685924
 31
0.0
  0
LINE
  5
98
330
1F
100
AcDbEntity
  8
NoLayerName_001
  6
Continuous
 62
    30
370
    50
100
AcDbLine
 10
120.5569473070539
 20
305.6326759685923
 30
0.0
 11
120.5569473070539
 21
303.6326759685924
 31
0.0
  0
LINE
  5
99
330
1F
100
AcDbEntity
  8
NoLayerName_001
  6
Continuous
 62
    30
370
    50
100
AcDbLine
 10
141.5569473070539
 20
299.6326759685924
 30
0.0
 11
140.5569473070539
 21
299.6326759685924
 31
0.0
  0
LINE
  5
9A
330
1F
100
AcDbEntity
  8
NoLayerName_001
  6
Continuous
 62
    30
370
    50
100
AcDbLine
 10
141.5569473070539
 20
303.6326759685924
 30
0.0
 11
140.5569473070539
 21
303.6326759685924
 31
0.0
  0
LINE
  5
9B
330
1F
100
AcDbEntity
  8
NoLayerName_001
  6
CENTER
 62
     3
370
    25
100
AcDbLine
 10
141.5569473070539
 20
276.6326759685924
 30
0.0
 11
108.9624414837276
 21
276.6326759685924
 31
0.0
  0
LINE
  5
9C
330
1F
100
AcDbEntity
  8
NoLayerName_001
  6
Continuous
 62
    30
370
    50
100
AcDbLine
 10
120.5569473070539
 20
297.6326759685925
 30
0.0
 11
120.5569473070539
 21
299.6326759685924
 31
0.0
  0
LINE
  5
9D
330
1F
100
AcDbEntity
  8
NoLayerName_001
  6
Continuous
 62
    30
370
    50
100
AcDbLine
 10
121.056947307054
 20
255.6326759685923
 30
0.0
 11
121.056947307054
 21
253.6326759685924
 31
0.0
  0
LINE
  5
9E
330
1F
100
AcDbEntity
  8
NoLayerName_001
  6
Continuous
 62
    30
370
    50
100
AcDbLine
 10
121.0569473070539
 20
247.6326759685925
 30
0.0
 11
121.0569473070539
 21
249.6326759685924
 31
0.0
  0
LINE
  5
9F
330
1F
100
AcDbEntity
  8
NoLayerName_001
  6
Continuous
 62
    30
370
    50
100
AcDbLine
 10
120.5569473070539
 20
247.6326759685925
 30
0.0
 11
120.5569473070539
 21
249.6326759685924
 31
0.0
  0
LINE
  5
A0
330
1F
100
AcDbEntity
  8
NoLayerName_001
  6
Continuous
 62
    30
370
    50
100
AcDbLine
 10
140.5569473070539
 20
247.6326759685925
 30
0.0
 11
140.5569473070539
 21
249.6326759685924
 31
0.0
  0
LINE
  5
A1
330
1F
100
AcDbEntity
  8
NoLayerName_001
  6
Continuous
 62
    30
370
    50
100
AcDbLine
 10
140.5569473070539
 20
253.6326759685924
 30
0.0
 11
140.5569473070539
 21
255.6326759685925
 31
0.0
  0
LINE
  5
A2
330
1F
100
AcDbEntity
  8
NoLayerName_001
  6
Continuous
 62
    30
370
    50
100
AcDbLine
 10
141.0569473070539
 20
247.6326759685925
 30
0.0
 11
141.0569473070539
 21
249.6326759685924
 31
0.0
  0
LINE
  5
A3
330
1F
100
AcDbEntity
  8
NoLayerName_001
  6
Continuous
 62
    30
370
    50
100
AcDbLine
 10
141.0569473070539
 20
253.6326759685924
 30
0.0
 11
141.0569473070539
 21
255.6326759685925
 31
0.0
  0
LINE
  5
A4
330
1F
100
AcDbEntity
  8
NoLayerName_001
  6
Continuous
 62
    30
370
    50
100
AcDbLine
 10
120.556947307054
 20
255.6326759685923
 30
0.0
 11
120.556947307054
 21
253.6326759685924
 31
0.0
  0
LINE
  5
A5
330
1F
100
AcDbEntity
  8
NoLayerName_001
  6
Continuous
 62
    30
370
    50
100
AcDbLine
 10
140.5569473070539
 20
253.6326759685923
 30
0.0
 11
141.5569473070539
 21
253.6326759685923
 31
0.0
  0
LINE
  5
A6
330
1F
100
AcDbEntity
  8
NoLayerName_001
  6
Continuous
 62
    30
370
    50
100
AcDbLine
 10
141.5569473070539
 20
249.6326759685923
 30
0.0
 11
140.5569473070539
 21
249.6326759685923
 31
0.0
  0
LINE
  5
A7
330
1F
100
AcDbEntity
  8
NoLayerName_001
  6
Continuous
 62
    30
370
    50
100
AcDbLine
 10
141.5569473070539
 20
305.6326759685923
 30
0.0
 11
120.0569473070539
 21
305.6326759685923
 31
0.0
  0
LINE
  5
A8
330
1F
100
AcDbEntity
  8
NoLayerName_001
  6
Continuous
 62
    30
370
    50
100
AcDbLine
 10
141.5569473070539
 20
297.6326759685923
 30
0.0
 11
120.0569473070539
 21
297.6326759685923
 31
0.0
  0
LINE
  5
A9
330
1F
100
AcDbEntity
  8
NoLayerName_001
  6
Continuous
 62
    30
370
    50
100
AcDbLine
 10
139.5569473070539
 20
280.6326759685923
 30
0.0
 11
120.0569473070539
 21
280.6326759685923
 31
0.0
  0
LINE
  5
AA
330
1F
100
AcDbEntity
  8
NoLayerName_001
  6
Continuous
 62
    30
370
    50
100
AcDbLine
 10
139.5569473070539
 20
272.6326759685923
 30
0.0
 11
120.0569473070539
 21
272.6326759685923
 31
0.0
  0
LINE
  5
AB
330
1F
100
AcDbEntity
  8
NoLayerName_001
  6
Continuous
 62
    30
370
    50
100
AcDbLine
 10
141.5569473070539
 20
255.6326759685924
 30
0.0
 11
120.0569473070539
 21
255.6326759685924
 31
0.0
  0
LINE
  5
AC
330
1F
100
AcDbEntity
  8
NoLayerName_001
  6
Continuous
 62
    30
370
    50
100
AcDbLine
 10
141.5569473070539
 20
247.6326759685924
 30
0.0
 11
120.0569473070539
 21
247.6326759685924
 31
0.0
  0
CIRCLE
  5
AD
330
1F
100
AcDbEntity
  8
NoLayerName_001
  6
Continuous
 62
    30
370
    50
100
AcDbCircle
 10
269.9419489585807
 20
318.3826759685923
 30
0.0
 40
5.0
  0
CIRCLE
  5
AE
330
1F
100
AcDbEntity
  8
NoLayerName_001
  6
Continuous
 62
    30
370
    50
100
AcDbCircle
 10
269.9419489585807
 20
318.3826759685923
 30
0.0
 40
2.15
  0
LINE
  5
AF
330
1F
100
AcDbEntity
  8
NoLayerName_001
  6
Continuous
 62
    30
370
    50
100
AcDbLine
 10
266.5419489585807
 20
335.6326759685923
 30
0.0
 11
266.5419489585807
 21
335.1326759685923
 31
0.0
  0
LINE
  5
B0
330
1F
100
AcDbEntity
  8
NoLayerName_001
  6
Continuous
 62
    30
370
    50
100
AcDbLine
 10
243.9419489585807
 20
335.1326759685923
 30
0.0
 11
246.5419489585807
 21
334.1326759685922
 31
0.0
  0
LINE
  5
B1
330
1F
100
AcDbEntity
  8
NoLayerName_001
  6
Continuous
 62
    30
370
    50
100
AcDbLine
 10
243.9419489585807
 20
335.1326759685923
 30
0.0
 11
247.5419489585807
 21
334.1326759685922
 31
0.0
  0
LINE
  5
B2
330
1F
100
AcDbEntity
  8
NoLayerName_001
  6
Continuous
 62
    30
370
    50
100
AcDbLine
 10
266.5419489585807
 20
335.1326759685923
 30
0.0
 11
262.9419489585808
 21
334.1326759685922
 31
0.0
  0
LINE
  5
B3
330
1F
100
AcDbEntity
  8
NoLayerName_001
  6
Continuous
 62
    30
370
    50
100
AcDbLine
 10
266.5419489585807
 20
335.1326759685923
 30
0.0
 11
263.9419489585807
 21
334.1326759685922
 31
0.0
  0
LINE
  5
B4
330
1F
100
AcDbEntity
  8
NoLayerName_001
  6
Continuous
 62
    30
370
    50
100
AcDbLine
 10
262.9419489585808
 20
334.1326759685921
 30
0.0
 11
262.9419489585808
 21
333.1326759685922
 31
0.0
  0
LINE
  5
B5
330
1F
100
AcDbEntity
  8
NoLayerName_001
  6
Continuous
 62
    30
370
    50
100
AcDbLine
 10
263.9419489585808
 20
334.1326759685921
 30
0.0
 11
263.9419489585808
 21
333.1326759685922
 31
0.0
  0
LINE
  5
B6
330
1F
100
AcDbEntity
  8
NoLayerName_001
  6
Continuous
 62
    30
370
    50
100
AcDbLine
 10
246.5419489585807
 20
334.1326759685921
 30
0.0
 11
246.5419489585807
 21
333.1326759685922
 31
0.0
  0
LINE
  5
B7
330
1F
100
AcDbEntity
  8
NoLayerName_001
  6
Continuous
 62
    30
370
    50
100
AcDbLine
 10
247.5419489585807
 20
334.1326759685921
 30
0.0
 11
247.5419489585807
 21
333.1326759685922
 31
0.0
  0
LINE
  5
B8
330
1F
100
AcDbEntity
  8
NoLayerName_001
  6
Continuous
 62
    30
370
    25
100
AcDbLine
 10
263.9419489585808
 20
334.1326759685921
 30
0.0
 11
246.5419489585808
 21
334.1326759685921
 31
0.0
  0
LINE
  5
B9
330
1F
100
AcDbEntity
  8
NoLayerName_001
  6
Continuous
 62
    30
370
    25
100
AcDbLine
 10
266.5419489585807
 20
335.1326759685923
 30
0.0
 11
243.9419489585807
 21
335.1326759685923
 31
0.0
  0
LINE
  5
BA
330
1F
100
AcDbEntity
  8
NoLayerName_001
  6
Continuous
 62
    30
370
    50
100
AcDbLine
 10
243.9419489585807
 20
335.6326759685923
 30
0.0
 11
243.9419489585807
 21
335.1326759685923
 31
0.0
  0
LINE
  5
BB
330
1F
100
AcDbEntity
  8
NoLayerName_001
  6
Continuous
 62
    30
370
    50
100
AcDbLine
 10
273.3419489585806
 20
335.6326759685923
 30
0.0
 11
273.3419489585806
 21
335.1326759685923
 31
0.0
  0
LINE
  5
BC
330
1F
100
AcDbEntity
  8
NoLayerName_001
  6
Continuous
 62
    30
370
    50
100
AcDbLine
 10
295.9419489585807
 20
335.1326759685923
 30
0.0
 11
293.3419489585806
 21
334.1326759685922
 31
0.0
  0
LINE
  5
BD
330
1F
100
AcDbEntity
  8
NoLayerName_001
  6
Continuous
 62
    30
370
    50
100
AcDbLine
 10
295.9419489585807
 20
335.1326759685923
 30
0.0
 11
292.3419489585806
 21
334.1326759685922
 31
0.0
  0
LINE
  5
BE
330
1F
100
AcDbEntity
  8
NoLayerName_001
  6
Continuous
 62
    30
370
    50
100
AcDbLine
 10
273.3419489585806
 20
335.1326759685923
 30
0.0
 11
276.9419489585806
 21
334.1326759685922
 31
0.0
  0
LINE
  5
BF
330
1F
100
AcDbEntity
  8
NoLayerName_001
  6
Continuous
 62
    30
370
    50
100
AcDbLine
 10
273.3419489585806
 20
335.1326759685923
 30
0.0
 11
275.9419489585806
 21
334.1326759685922
 31
0.0
  0
LINE
  5
C0
330
1F
100
AcDbEntity
  8
NoLayerName_001
  6
Continuous
 62
    30
370
    50
100
AcDbLine
 10
276.9419489585806
 20
334.1326759685921
 30
0.0
 11
276.9419489585806
 21
333.1326759685922
 31
0.0
  0
LINE
  5
C1
330
1F
100
AcDbEntity
  8
NoLayerName_001
  6
Continuous
 62
    30
370
    50
100
AcDbLine
 10
275.9419489585807
 20
334.1326759685921
 30
0.0
 11
275.9419489585807
 21
333.1326759685922
 31
0.0
  0
LINE
  5
C2
330
1F
100
AcDbEntity
  8
NoLayerName_001
  6
Continuous
 62
    30
370
    50
100
AcDbLine
 10
293.3419489585806
 20
334.1326759685921
 30
0.0
 11
293.3419489585806
 21
333.1326759685922
 31
0.0
  0
LINE
  5
C3
330
1F
100
AcDbEntity
  8
NoLayerName_001
  6
Continuous
 62
    30
370
    50
100
AcDbLine
 10
292.3419489585806
 20
334.1326759685921
 30
0.0
 11
292.3419489585806
 21
333.1326759685922
 31
0.0
  0
LINE
  5
C4
330
1F
100
AcDbEntity
  8
NoLayerName_001
  6
Continuous
 62
    30
370
    25
100
AcDbLine
 10
275.9419489585807
 20
334.1326759685921
 30
0.0
 11
293.3419489585807
 21
334.1326759685921
 31
0.0
  0
LINE
  5
C5
330
1F
100
AcDbEntity
  8
NoLayerName_001
  6
Continuous
 62
    30
370
    25
100
AcDbLine
 10
273.3419489585806
 20
335.1326759685923
 30
0.0
 11
295.9419489585807
 21
335.1326759685923
 31
0.0
  0
LINE
  5
C6
330
1F
100
AcDbEntity
  8
NoLayerName_001
  6
Continuous
 62
    30
370
    50
100
AcDbLine
 10
295.9419489585807
 20
335.6326759685923
 30
0.0
 11
295.9419489585807
 21
335.1326759685923
 31
0.0
  0
LINE
  5
C7
330
1F
100
AcDbEntity
  8
NoLayerName_001
  6
Continuous
 62
    30
370
    50
100
AcDbLine
 10
246.5419489585807
 20
324.6326759685923
 30
0.0
 11
246.5419489585807
 21
321.1326759685923
 31
0.0
  0
LINE
  5
C8
330
1F
100
AcDbEntity
  8
NoLayerName_001
  6
Continuous
 62
    30
370
    50
100
AcDbLine
 10
293.3419489585806
 20
324.6326759685923
 30
0.0
 11
293.3419489585806
 21
321.1326759685923
 31
0.0
  0
LINE
  5
C9
330
1F
100
AcDbEntity
  8
NoLayerName_001
  6
Continuous
 62
    30
370
    50
100
AcDbLine
 10
274.9419489585807
 20
321.1326759685923
 30
0.0
 11
293.3419489585806
 21
321.1326759685923
 31
0.0
  0
ARC
  5
CA
330
1F
100
AcDbEntity
  8
NoLayerName_001
  6
Continuous
 62
    30
370
    50
100
AcDbCircle
 10
296.4419489585807
 20
333.6326759685923
 30
0.0
 40
2.0
100
AcDbArc
 50
0.0
 51
90.0
  0
LINE
  5
CB
330
1F
100
AcDbEntity
  8
NoLayerName_001
  6
Continuous
 62
    30
370
    50
100
AcDbLine
 10
295.9419489585807
 20
327.3326759685922
 30
0.0
 11
295.9419489585807
 21
332.9326759685922
 31
0.0
  0
ARC
  5
CC
330
1F
100
AcDbEntity
  8
NoLayerName_001
  6
Continuous
 62
    30
370
    50
100
AcDbCircle
 10
295.7419489585806
 20
332.9326759685922
 30
0.0
 40
0.2
100
AcDbArc
 50
0.0
 51
90.0
  0
ARC
  5
CD
330
1F
100
AcDbEntity
  8
NoLayerName_001
  6
Continuous
 62
    30
370
    50
100
AcDbCircle
 10
295.7419489585806
 20
327.3326759685922
 30
0.0
 40
0.2
100
AcDbArc
 50
270.0
 51
0.0
  0
LINE
  5
CE
330
1F
100
AcDbEntity
  8
NoLayerName_001
  6
Continuous
 62
    30
370
    50
100
AcDbLine
 10
189.4419489585807
 20
324.6326759685923
 30
0.0
 11
189.4419489585807
 21
327.1326759685923
 31
0.0
  0
LINE
  5
CF
330
1F
100
AcDbEntity
  8
NoLayerName_001
  6
Continuous
 62
    30
370
    50
100
AcDbLine
 10
189.9419489585807
 20
305.6326759685925
 30
0.0
 11
189.9419489585807
 21
324.6326759685923
 31
0.0
  0
LINE
  5
D0
330
1F
100
AcDbEntity
  8
NoLayerName_001
  6
Continuous
 62
    30
370
    50
100
AcDbLine
 10
189.9419489585807
 20
324.6326759685923
 30
0.0
 11
189.4419489585807
 21
324.6326759685923
 31
0.0
  0
ARC
  5
D1
330
1F
100
AcDbEntity
  8
NoLayerName_001
  6
Continuous
 62
    30
370
    50
100
AcDbCircle
 10
197.4419489585807
 20
333.6326759685923
 30
0.0
 40
2.0
100
AcDbArc
 50
90.0
 51
180.0
  0
LINE
  5
D2
330
1F
100
AcDbEntity
  8
NoLayerName_001
  6
Continuous
 62
    30
370
    50
100
AcDbLine
 10
195.4419489585807
 20
333.6326759685923
 30
0.0
 11
195.4419489585807
 21
307.2228459123418
 31
0.0
  0
CIRCLE
  5
D3
330
1F
100
AcDbEntity
  8
NoLayerName_001
  6
Continuous
 62
    30
370
    50
100
AcDbCircle
 10
223.9419489585807
 20
318.3826759685923
 30
0.0
 40
5.0
  0
CIRCLE
  5
D4
330
1F
100
AcDbEntity
  8
NoLayerName_001
  6
Continuous
 62
    30
370
    50
100
AcDbCircle
 10
223.9419489585807
 20
318.3826759685923
 30
0.0
 40
2.15
  0
LINE
  5
D5
330
1F
100
AcDbEntity
  8
NoLayerName_001
  6
Continuous
 62
    30
370
    50
100
AcDbLine
 10
220.5419489585807
 20
335.6326759685923
 30
0.0
 11
220.5419489585807
 21
335.1326759685923
 31
0.0
  0
LINE
  5
D6
330
1F
100
AcDbEntity
  8
NoLayerName_001
  6
Continuous
 62
    30
370
    50
100
AcDbLine
 10
197.9419489585807
 20
335.1326759685923
 30
0.0
 11
200.5419489585807
 21
334.1326759685922
 31
0.0
  0
LINE
  5
D7
330
1F
100
AcDbEntity
  8
NoLayerName_001
  6
Continuous
 62
    30
370
    50
100
AcDbLine
 10
197.9419489585807
 20
335.1326759685923
 30
0.0
 11
201.5419489585807
 21
334.1326759685922
 31
0.0
  0
LINE
  5
D8
330
1F
100
AcDbEntity
  8
NoLayerName_001
  6
Continuous
 62
    30
370
    50
100
AcDbLine
 10
220.5419489585807
 20
335.1326759685923
 30
0.0
 11
216.9419489585808
 21
334.1326759685922
 31
0.0
  0
LINE
  5
D9
330
1F
100
AcDbEntity
  8
NoLayerName_001
  6
Continuous
 62
    30
370
    50
100
AcDbLine
 10
220.5419489585807
 20
335.1326759685923
 30
0.0
 11
217.9419489585807
 21
334.1326759685922
 31
0.0
  0
LINE
  5
DA
330
1F
100
AcDbEntity
  8
NoLayerName_001
  6
Continuous
 62
    30
370
    50
100
AcDbLine
 10
216.9419489585808
 20
334.1326759685921
 30
0.0
 11
216.9419489585808
 21
333.1326759685922
 31
0.0
  0
LINE
  5
DB
330
1F
100
AcDbEntity
  8
NoLayerName_001
  6
Continuous
 62
    30
370
    50
100
AcDbLine
 10
217.9419489585808
 20
334.1326759685921
 30
0.0
 11
217.9419489585808
 21
333.1326759685922
 31
0.0
  0
LINE
  5
DC
330
1F
100
AcDbEntity
  8
NoLayerName_001
  6
Continuous
 62
    30
370
    50
100
AcDbLine
 10
200.5419489585807
 20
334.1326759685921
 30
0.0
 11
200.5419489585807
 21
333.1326759685922
 31
0.0
  0
LINE
  5
DD
330
1F
100
AcDbEntity
  8
NoLayerName_001
  6
Continuous
 62
    30
370
    50
100
AcDbLine
 10
201.5419489585807
 20
334.1326759685921
 30
0.0
 11
201.5419489585807
 21
333.1326759685922
 31
0.0
  0
LINE
  5
DE
330
1F
100
AcDbEntity
  8
NoLayerName_001
  6
Continuous
 62
    30
370
    25
100
AcDbLine
 10
217.9419489585808
 20
334.1326759685921
 30
0.0
 11
200.5419489585808
 21
334.1326759685921
 31
0.0
  0
LINE
  5
DF
330
1F
100
AcDbEntity
  8
NoLayerName_001
  6
Continuous
 62
    30
370
    25
100
AcDbLine
 10
220.5419489585807
 20
335.1326759685923
 30
0.0
 11
197.9419489585807
 21
335.1326759685923
 31
0.0
  0
LINE
  5
E0
330
1F
100
AcDbEntity
  8
NoLayerName_001
  6
Continuous
 62
    30
370
    50
100
AcDbLine
 10
197.9419489585807
 20
335.6326759685923
 30
0.0
 11
197.9419489585807
 21
335.1326759685923
 31
0.0
  0
LINE
  5
E1
330
1F
100
AcDbEntity
  8
NoLayerName_001
  6
Continuous
 62
    30
370
    50
100
AcDbLine
 10
197.9419489585807
 20
327.3326759685922
 30
0.0
 11
197.9419489585807
 21
332.9326759685922
 31
0.0
  0
ARC
  5
E2
330
1F
100
AcDbEntity
  8
NoLayerName_001
  6
Continuous
 62
    30
370
    50
100
AcDbCircle
 10
198.1419489585807
 20
332.9326759685922
 30
0.0
 40
0.2
100
AcDbArc
 50
90.0
 51
180.0
  0
ARC
  5
E3
330
1F
100
AcDbEntity
  8
NoLayerName_001
  6
Continuous
 62
    30
370
    50
100
AcDbCircle
 10
198.1419489585807
 20
327.3326759685922
 30
0.0
 40
0.2
100
AcDbArc
 50
180.0
 51
270.0
  0
LINE
  5
E4
330
1F
100
AcDbEntity
  8
NoLayerName_001
  6
Continuous
 62
    30
370
    50
100
AcDbLine
 10
200.5419489585807
 20
324.6326759685923
 30
0.0
 11
200.5419489585807
 21
321.1326759685923
 31
0.0
  0
LINE
  5
E5
330
1F
100
AcDbEntity
  8
NoLayerName_001
  6
Continuous
 62
    30
370
    50
100
AcDbLine
 10
218.9419489585807
 20
321.1326759685923
 30
0.0
 11
200.5419489585807
 21
321.1326759685923
 31
0.0
  0
LINE
  5
E6
330
1F
100
AcDbEntity
  8
NoLayerName_001
  6
Continuous
 62
     7
370
    50
100
AcDbLine
 10
242.9419489585806
 20
323.8326759685923
 30
0.0
 11
242.9419489585806
 21
324.6326759685923
 31
0.0
  0
LINE
  5
E7
330
1F
100
AcDbEntity
  8
NoLayerName_001
  6
Continuous
 62
     7
370
    50
100
AcDbLine
 10
239.9419489585806
 20
323.8326759685923
 30
0.0
 11
239.9419489585806
 21
324.6326759685923
 31
0.0
  0
LINE
  5
E8
330
1F
100
AcDbEntity
  8
NoLayerName_001
  6
Continuous
 62
     7
370
    50
100
AcDbLine
 10
243.7419489585805
 20
323.6326759685924
 30
0.0
 11
243.1419489585806
 21
323.6326759685924
 31
0.0
  0
LINE
  5
E9
330
1F
100
AcDbEntity
  8
NoLayerName_001
  6
Continuous
 62
     7
370
    50
100
AcDbLine
 10
240.7419489585805
 20
323.6326759685924
 30
0.0
 11
240.1419489585806
 21
323.6326759685924
 31
0.0
  0
LINE
  5
EA
330
1F
100
AcDbEntity
  8
NoLayerName_001
  6
Continuous
 62
     7
370
    50
100
AcDbLine
 10
240.9419489585806
 20
323.8326759685923
 30
0.0
 11
240.9419489585806
 21
324.6326759685923
 31
0.0
  0
LINE
  5
EB
330
1F
100
AcDbEntity
  8
NoLayerName_001
  6
Continuous
 62
     7
370
    50
100
AcDbLine
 10
243.9419489585806
 20
323.8326759685923
 30
0.0
 11
243.9419489585806
 21
324.6326759685923
 31
0.0
  0
LINE
  5
EC
330
1F
100
AcDbEntity
  8
NoLayerName_001
  6
Continuous
 62
    30
370
    50
100
AcDbLine
 10
296.4419489585807
 20
335.6326759685923
 30
0.0
 11
197.4419489585807
 21
335.6326759685923
 31
0.0
  0
CIRCLE
  5
ED
330
1F
100
AcDbEntity
  8
NoLayerName_001
  6
Continuous
 62
    30
370
    50
100
AcDbCircle
 10
269.9419489585807
 20
234.8826759685924
 30
0.0
 40
5.0
  0
CIRCLE
  5
EE
330
1F
100
AcDbEntity
  8
NoLayerName_001
  6
Continuous
 62
    30
370
    50
100
AcDbCircle
 10
269.9419489585807
 20
234.8826759685924
 30
0.0
 40
2.15
  0
LINE
  5
EF
330
1F
100
AcDbEntity
  8
NoLayerName_001
  6
Continuous
 62
    30
370
    50
100
AcDbLine
 10
266.5419489585807
 20
217.6326759685925
 30
0.0
 11
266.5419489585807
 21
218.1326759685925
 31
0.0
  0
LINE
  5
F0
330
1F
100
AcDbEntity
  8
NoLayerName_001
  6
Continuous
 62
    30
370
    50
100
AcDbLine
 10
243.9419489585807
 20
218.1326759685925
 30
0.0
 11
246.5419489585807
 21
219.1326759685925
 31
0.0
  0
LINE
  5
F1
330
1F
100
AcDbEntity
  8
NoLayerName_001
  6
Continuous
 62
    30
370
    50
100
AcDbLine
 10
243.9419489585807
 20
218.1326759685925
 30
0.0
 11
247.5419489585807
 21
219.1326759685925
 31
0.0
  0
LINE
  5
F2
330
1F
100
AcDbEntity
  8
NoLayerName_001
  6
Continuous
 62
    30
370
    50
100
AcDbLine
 10
266.5419489585807
 20
218.1326759685925
 30
0.0
 11
262.9419489585808
 21
219.1326759685925
 31
0.0
  0
LINE
  5
F3
330
1F
100
AcDbEntity
  8
NoLayerName_001
  6
Continuous
 62
    30
370
    50
100
AcDbLine
 10
266.5419489585807
 20
218.1326759685925
 30
0.0
 11
263.9419489585807
 21
219.1326759685925
 31
0.0
  0
LINE
  5
F4
330
1F
100
AcDbEntity
  8
NoLayerName_001
  6
Continuous
 62
    30
370
    50
100
AcDbLine
 10
262.9419489585808
 20
219.1326759685925
 30
0.0
 11
262.9419489585808
 21
220.1326759685924
 31
0.0
  0
LINE
  5
F5
330
1F
100
AcDbEntity
  8
NoLayerName_001
  6
Continuous
 62
    30
370
    50
100
AcDbLine
 10
263.9419489585807
 20
219.1326759685925
 30
0.0
 11
263.9419489585807
 21
220.1326759685924
 31
0.0
  0
LINE
  5
F6
330
1F
100
AcDbEntity
  8
NoLayerName_001
  6
Continuous
 62
    30
370
    50
100
AcDbLine
 10
246.5419489585807
 20
219.1326759685925
 30
0.0
 11
246.5419489585807
 21
220.1326759685924
 31
0.0
  0
LINE
  5
F7
330
1F
100
AcDbEntity
  8
NoLayerName_001
  6
Continuous
 62
    30
370
    50
100
AcDbLine
 10
247.5419489585807
 20
219.1326759685925
 30
0.0
 11
247.5419489585807
 21
220.1326759685924
 31
0.0
  0
LINE
  5
F8
330
1F
100
AcDbEntity
  8
NoLayerName_001
  6
Continuous
 62
    30
370
    25
100
AcDbLine
 10
263.9419489585807
 20
219.1326759685925
 30
0.0
 11
246.5419489585807
 21
219.1326759685925
 31
0.0
  0
LINE
  5
F9
330
1F
100
AcDbEntity
  8
NoLayerName_001
  6
Continuous
 62
    30
370
    25
100
AcDbLine
 10
266.5419489585807
 20
218.1326759685925
 30
0.0
 11
243.9419489585807
 21
218.1326759685925
 31
0.0
  0
LINE
  5
FA
330
1F
100
AcDbEntity
  8
NoLayerName_001
  6
Continuous
 62
    30
370
    50
100
AcDbLine
 10
243.9419489585807
 20
217.6326759685925
 30
0.0
 11
243.9419489585807
 21
218.1326759685925
 31
0.0
  0
LINE
  5
FB
330
1F
100
AcDbEntity
  8
NoLayerName_001
  6
Continuous
 62
    30
370
    50
100
AcDbLine
 10
273.3419489585806
 20
217.6326759685925
 30
0.0
 11
273.3419489585806
 21
218.1326759685925
 31
0.0
  0
LINE
  5
FC
330
1F
100
AcDbEntity
  8
NoLayerName_001
  6
Continuous
 62
    30
370
    50
100
AcDbLine
 10
295.9419489585807
 20
218.1326759685925
 30
0.0
 11
293.3419489585806
 21
219.1326759685925
 31
0.0
  0
LINE
  5
FD
330
1F
100
AcDbEntity
  8
NoLayerName_001
  6
Continuous
 62
    30
370
    50
100
AcDbLine
 10
295.9419489585807
 20
218.1326759685925
 30
0.0
 11
292.3419489585806
 21
219.1326759685925
 31
0.0
  0
LINE
  5
FE
330
1F
100
AcDbEntity
  8
NoLayerName_001
  6
Continuous
 62
    30
370
    50
100
AcDbLine
 10
273.3419489585806
 20
218.1326759685925
 30
0.0
 11
276.9419489585806
 21
219.1326759685925
 31
0.0
  0
LINE
  5
FF
330
1F
100
AcDbEntity
  8
NoLayerName_001
  6
Continuous
 62
    30
370
    50
100
AcDbLine
 10
273.3419489585806
 20
218.1326759685925
 30
0.0
 11
275.9419489585806
 21
219.1326759685925
 31
0.0
  0
LINE
  5
100
330
1F
100
AcDbEntity
  8
NoLayerName_001
  6
Continuous
 62
    30
370
    50
100
AcDbLine
 10
276.9419489585806
 20
219.1326759685925
 30
0.0
 11
276.9419489585806
 21
220.1326759685924
 31
0.0
  0
LINE
  5
101
330
1F
100
AcDbEntity
  8
NoLayerName_001
  6
Continuous
 62
    30
370
    50
100
AcDbLine
 10
275.9419489585807
 20
219.1326759685925
 30
0.0
 11
275.9419489585807
 21
220.1326759685924
 31
0.0
  0
LINE
  5
102
330
1F
100
AcDbEntity
  8
NoLayerName_001
  6
Continuous
 62
    30
370
    50
100
AcDbLine
 10
293.3419489585806
 20
219.1326759685925
 30
0.0
 11
293.3419489585806
 21
220.1326759685924
 31
0.0
  0
LINE
  5
103
330
1F
100
AcDbEntity
  8
NoLayerName_001
  6
Continuous
 62
    30
370
    50
100
AcDbLine
 10
292.3419489585806
 20
219.1326759685925
 30
0.0
 11
292.3419489585806
 21
220.1326759685924
 31
0.0
  0
LINE
  5
104
330
1F
100
AcDbEntity
  8
NoLayerName_001
  6
Continuous
 62
    30
370
    25
100
AcDbLine
 10
275.9419489585807
 20
219.1326759685925
 30
0.0
 11
293.3419489585807
 21
219.1326759685925
 31
0.0
  0
LINE
  5
105
330
1F
100
AcDbEntity
  8
NoLayerName_001
  6
Continuous
 62
    30
370
    25
100
AcDbLine
 10
273.3419489585806
 20
218.1326759685925
 30
0.0
 11
295.9419489585807
 21
218.1326759685925
 31
0.0
  0
LINE
  5
106
330
1F
100
AcDbEntity
  8
NoLayerName_001
  6
Continuous
 62
    30
370
    50
100
AcDbLine
 10
295.9419489585807
 20
217.6326759685925
 30
0.0
 11
295.9419489585807
 21
218.1326759685925
 31
0.0
  0
LINE
  5
107
330
1F
100
AcDbEntity
  8
NoLayerName_001
  6
Continuous
 62
    30
370
    50
100
AcDbLine
 10
295.9419489585807
 20
225.9326759685924
 30
0.0
 11
295.9419489585807
 21
220.3326759685924
 31
0.0
  0
ARC
  5
108
330
1F
100
AcDbEntity
  8
NoLayerName_001
  6
Continuous
 62
    30
370
    50
100
AcDbCircle
 10
295.7419489585806
 20
220.3326759685924
 30
0.0
 40
0.2
100
AcDbArc
 50
270.0
 51
0.0
  0
ARC
  5
109
330
1F
100
AcDbEntity
  8
NoLayerName_001
  6
Continuous
 62
    30
370
    50
100
AcDbCircle
 10
295.7419489585806
 20
225.9326759685924
 30
0.0
 40
0.2
100
AcDbArc
 50
0.0
 51
90.0
  0
ARC
  5
10A
330
1F
100
AcDbEntity
  8
NoLayerName_001
  6
Continuous
 62
    30
370
    50
100
AcDbCircle
 10
296.4419489585807
 20
219.6326759685925
 30
0.0
 40
2.0
100
AcDbArc
 50
270.0
 51
360.0
  0
LINE
  5
10B
330
1F
100
AcDbEntity
  8
NoLayerName_001
  6
Continuous
 62
    30
370
    50
100
AcDbLine
 10
189.9419489585807
 20
247.6326759685923
 30
0.0
 11
189.9419489585807
 21
228.6326759685925
 31
0.0
  0
LINE
  5
10C
330
1F
100
AcDbEntity
  8
NoLayerName_001
  6
Continuous
 62
    30
370
    50
100
AcDbLine
 10
189.9419489585807
 20
228.6326759685925
 30
0.0
 11
189.4419489585807
 21
228.6326759685925
 31
0.0
  0
ARC
  5
10D
330
1F
100
AcDbEntity
  8
NoLayerName_001
  6
Continuous
 62
    30
370
    50
100
AcDbCircle
 10
197.4419489585807
 20
219.6326759685925
 30
0.0
 40
2.0
100
AcDbArc
 50
180.0
 51
270.0
  0
LINE
  5
10E
330
1F
100
AcDbEntity
  8
NoLayerName_001
  6
Continuous
 62
    30
370
    50
100
AcDbLine
 10
195.4419489585807
 20
219.6326759685925
 30
0.0
 11
195.4419489585807
 21
246.0425060248429
 31
0.0
  0
LINE
  5
10F
330
1F
100
AcDbEntity
  8
NoLayerName_001
  6
Continuous
 62
    30
370
    50
100
AcDbLine
 10
189.4419489585807
 20
228.6326759685925
 30
0.0
 11
189.4419489585807
 21
226.1326759685925
 31
0.0
  0
CIRCLE
  5
110
330
1F
100
AcDbEntity
  8
NoLayerName_001
  6
Continuous
 62
    30
370
    50
100
AcDbCircle
 10
223.9419489585807
 20
234.8826759685924
 30
0.0
 40
5.0
  0
CIRCLE
  5
111
330
1F
100
AcDbEntity
  8
NoLayerName_001
  6
Continuous
 62
    30
370
    50
100
AcDbCircle
 10
223.9419489585807
 20
234.8826759685924
 30
0.0
 40
2.15
  0
LINE
  5
112
330
1F
100
AcDbEntity
  8
NoLayerName_001
  6
Continuous
 62
    30
370
    50
100
AcDbLine
 10
197.9419489585807
 20
225.9326759685924
 30
0.0
 11
197.9419489585807
 21
220.3326759685924
 31
0.0
  0
LINE
  5
113
330
1F
100
AcDbEntity
  8
NoLayerName_001
  6
Continuous
 62
    30
370
    50
100
AcDbLine
 10
220.5419489585807
 20
217.6326759685925
 30
0.0
 11
220.5419489585807
 21
218.1326759685925
 31
0.0
  0
LINE
  5
114
330
1F
100
AcDbEntity
  8
NoLayerName_001
  6
Continuous
 62
    30
370
    50
100
AcDbLine
 10
197.9419489585807
 20
218.1326759685925
 30
0.0
 11
200.5419489585807
 21
219.1326759685925
 31
0.0
  0
LINE
  5
115
330
1F
100
AcDbEntity
  8
NoLayerName_001
  6
Continuous
 62
    30
370
    50
100
AcDbLine
 10
197.9419489585807
 20
218.1326759685925
 30
0.0
 11
201.5419489585807
 21
219.1326759685925
 31
0.0
  0
LINE
  5
116
330
1F
100
AcDbEntity
  8
NoLayerName_001
  6
Continuous
 62
    30
370
    50
100
AcDbLine
 10
220.5419489585807
 20
218.1326759685925
 30
0.0
 11
216.9419489585808
 21
219.1326759685925
 31
0.0
  0
LINE
  5
117
330
1F
100
AcDbEntity
  8
NoLayerName_001
  6
Continuous
 62
    30
370
    50
100
AcDbLine
 10
220.5419489585807
 20
218.1326759685925
 30
0.0
 11
217.9419489585807
 21
219.1326759685925
 31
0.0
  0
LINE
  5
118
330
1F
100
AcDbEntity
  8
NoLayerName_001
  6
Continuous
 62
    30
370
    50
100
AcDbLine
 10
216.9419489585808
 20
219.1326759685925
 30
0.0
 11
216.9419489585808
 21
220.1326759685924
 31
0.0
  0
LINE
  5
119
330
1F
100
AcDbEntity
  8
NoLayerName_001
  6
Continuous
 62
    30
370
    50
100
AcDbLine
 10
217.9419489585807
 20
219.1326759685925
 30
0.0
 11
217.9419489585807
 21
220.1326759685924
 31
0.0
  0
LINE
  5
11A
330
1F
100
AcDbEntity
  8
NoLayerName_001
  6
Continuous
 62
    30
370
    50
100
AcDbLine
 10
200.5419489585807
 20
219.1326759685925
 30
0.0
 11
200.5419489585807
 21
220.1326759685924
 31
0.0
  0
LINE
  5
11B
330
1F
100
AcDbEntity
  8
NoLayerName_001
  6
Continuous
 62
    30
370
    50
100
AcDbLine
 10
201.5419489585807
 20
219.1326759685925
 30
0.0
 11
201.5419489585807
 21
220.1326759685924
 31
0.0
  0
LINE
  5
11C
330
1F
100
AcDbEntity
  8
NoLayerName_001
  6
Continuous
 62
    30
370
    25
100
AcDbLine
 10
217.9419489585807
 20
219.1326759685925
 30
0.0
 11
200.5419489585807
 21
219.1326759685925
 31
0.0
  0
LINE
  5
11D
330
1F
100
AcDbEntity
  8
NoLayerName_001
  6
Continuous
 62
    30
370
    25
100
AcDbLine
 10
220.5419489585807
 20
218.1326759685925
 30
0.0
 11
197.9419489585807
 21
218.1326759685925
 31
0.0
  0
LINE
  5
11E
330
1F
100
AcDbEntity
  8
NoLayerName_001
  6
Continuous
 62
    30
370
    50
100
AcDbLine
 10
197.9419489585807
 20
217.6326759685925
 30
0.0
 11
197.9419489585807
 21
218.1326759685925
 31
0.0
  0
ARC
  5
11F
330
1F
100
AcDbEntity
  8
NoLayerName_001
  6
Continuous
 62
    30
370
    50
100
AcDbCircle
 10
198.1419489585807
 20
220.3326759685924
 30
0.0
 40
0.2
100
AcDbArc
 50
180.0
 51
270.0
  0
ARC
  5
120
330
1F
100
AcDbEntity
  8
NoLayerName_001
  6
Continuous
 62
    30
370
    50
100
AcDbCircle
 10
198.1419489585807
 20
225.9326759685924
 30
0.0
 40
0.2
100
AcDbArc
 50
90.0
 51
180.0
  0
LINE
  5
121
330
1F
100
AcDbEntity
  8
NoLayerName_001
  6
Continuous
 62
    30
370
    50
100
AcDbLine
 10
246.5419489585807
 20
228.6326759685925
 30
0.0
 11
246.5419489585807
 21
232.1326759685925
 31
0.0
  0
LINE
  5
122
330
1F
100
AcDbEntity
  8
NoLayerName_001
  6
Continuous
 62
    30
370
    50
100
AcDbLine
 10
293.3419489585806
 20
228.6326759685925
 30
0.0
 11
293.3419489585806
 21
232.1326759685925
 31
0.0
  0
LINE
  5
123
330
1F
100
AcDbEntity
  8
NoLayerName_001
  6
Continuous
 62
    30
370
    50
100
AcDbLine
 10
200.5419489585807
 20
228.6326759685925
 30
0.0
 11
200.5419489585807
 21
232.1326759685925
 31
0.0
  0
LINE
  5
124
330
1F
100
AcDbEntity
  8
NoLayerName_001
  6
Continuous
 62
    30
370
    50
100
AcDbLine
 10
274.9419489585807
 20
232.1326759685925
 30
0.0
 11
293.3419489585806
 21
232.1326759685925
 31
0.0
  0
LINE
  5
125
330
1F
100
AcDbEntity
  8
NoLayerName_001
  6
Continuous
 62
    30
370
    50
100
AcDbLine
 10
218.9419489585807
 20
232.1326759685925
 30
0.0
 11
200.5419489585807
 21
232.1326759685925
 31
0.0
  0
LINE
  5
126
330
1F
100
AcDbEntity
  8
NoLayerName_001
  6
Continuous
 62
     7
370
    50
100
AcDbLine
 10
242.9419489585806
 20
229.4326759685923
 30
0.0
 11
242.9419489585806
 21
228.6326759685923
 31
0.0
  0
LINE
  5
127
330
1F
100
AcDbEntity
  8
NoLayerName_001
  6
Continuous
 62
     7
370
    50
100
AcDbLine
 10
239.9419489585806
 20
229.4326759685923
 30
0.0
 11
239.9419489585806
 21
228.6326759685923
 31
0.0
  0
LINE
  5
128
330
1F
100
AcDbEntity
  8
NoLayerName_001
  6
Continuous
 62
     7
370
    50
100
AcDbLine
 10
243.7419489585805
 20
229.6326759685924
 30
0.0
 11
243.1419489585806
 21
229.6326759685924
 31
0.0
  0
LINE
  5
129
330
1F
100
AcDbEntity
  8
NoLayerName_001
  6
Continuous
 62
     7
370
    50
100
AcDbLine
 10
240.7419489585805
 20
229.6326759685924
 30
0.0
 11
240.1419489585806
 21
229.6326759685924
 31
0.0
  0
LINE
  5
12A
330
1F
100
AcDbEntity
  8
NoLayerName_001
  6
Continuous
 62
     7
370
    50
100
AcDbLine
 10
240.9419489585806
 20
229.4326759685923
 30
0.0
 11
240.9419489585806
 21
228.6326759685923
 31
0.0
  0
LINE
  5
12B
330
1F
100
AcDbEntity
  8
NoLayerName_001
  6
Continuous
 62
     7
370
    50
100
AcDbLine
 10
243.9419489585806
 20
229.4326759685923
 30
0.0
 11
243.9419489585806
 21
228.6326759685923
 31
0.0
  0
LINE
  5
12C
330
1F
100
AcDbEntity
  8
NoLayerName_001
  6
CENTER
 62
     3
370
    25
100
AcDbLine
 10
246.9419489585807
 20
339.4518980894253
 30
0.0
 11
246.9419489585807
 21
212.3258087987005
 31
0.0
  0
LINE
  5
12D
330
1F
100
AcDbEntity
  8
NoLayerName_001
  6
Continuous
 62
    30
370
    50
100
AcDbLine
 10
197.9419489585807
 20
228.6326759685925
 30
0.0
 11
295.9419489585807
 21
228.6326759685925
 31
0.0
  0
ARC
  5
12E
330
1F
100
AcDbEntity
  8
NoLayerName_001
  6
Continuous
 62
    30
370
    50
100
AcDbCircle
 10
222.7419489585807
 20
332.9326759685922
 30
0.0
 40
0.2
100
AcDbArc
 50
0.0
 51
90.0
  0
ARC
  5
12F
330
1F
100
AcDbEntity
  8
NoLayerName_001
  6
Continuous
 62
    30
370
    50
100
AcDbCircle
 10
222.7419489585807
 20
327.3326759685922
 30
0.0
 40
0.2
100
AcDbArc
 50
270.0
 51
0.0
  0
LINE
  5
130
330
1F
100
AcDbEntity
  8
NoLayerName_001
  6
Continuous
 62
    30
370
    50
100
AcDbLine
 10
222.9419489585808
 20
332.9326759685922
 30
0.0
 11
222.9419489585808
 21
327.3326759685922
 31
0.0
  0
LINE
  5
131
330
1F
100
AcDbEntity
  8
NoLayerName_001
  6
Continuous
 62
    30
370
    50
100
AcDbLine
 10
198.1419489585807
 20
333.1326759685923
 30
0.0
 11
222.7419489585807
 21
333.1326759685923
 31
0.0
  0
ARC
  5
132
330
1F
100
AcDbEntity
  8
NoLayerName_001
  6
Continuous
 62
    30
370
    50
100
AcDbCircle
 10
225.1419489585806
 20
327.3326759685922
 30
0.0
 40
0.2
100
AcDbArc
 50
180.0
 51
270.0
  0
LINE
  5
133
330
1F
100
AcDbEntity
  8
NoLayerName_001
  6
Continuous
 62
    30
370
    50
100
AcDbLine
 10
224.9419489585806
 20
332.9326759685922
 30
0.0
 11
224.9419489585806
 21
327.3326759685921
 31
0.0
  0
ARC
  5
134
330
1F
100
AcDbEntity
  8
NoLayerName_001
  6
Continuous
 62
    30
370
    50
100
AcDbCircle
 10
225.1419489585806
 20
327.3326759685923
 30
0.0
 40
0.2
100
AcDbArc
 50
180.0
 51
270.0
  0
ARC
  5
135
330
1F
100
AcDbEntity
  8
NoLayerName_001
  6
Continuous
 62
    30
370
    50
100
AcDbCircle
 10
225.1419489585806
 20
332.9326759685922
 30
0.0
 40
0.2
100
AcDbArc
 50
90.0
 51
180.0
  0
ARC
  5
136
330
1F
100
AcDbEntity
  8
NoLayerName_001
  6
Continuous
 62
    30
370
    50
100
AcDbCircle
 10
271.1419489585806
 20
332.9326759685922
 30
0.0
 40
0.2
100
AcDbArc
 50
90.0
 51
180.0
  0
ARC
  5
137
330
1F
100
AcDbEntity
  8
NoLayerName_001
  6
Continuous
 62
    30
370
    50
100
AcDbCircle
 10
271.1419489585806
 20
327.3326759685922
 30
0.0
 40
0.2
100
AcDbArc
 50
180.0
 51
270.0
  0
LINE
  5
138
330
1F
100
AcDbEntity
  8
NoLayerName_001
  6
Continuous
 62
    30
370
    50
100
AcDbLine
 10
270.9419489585806
 20
332.9326759685922
 30
0.0
 11
270.9419489585806
 21
327.3326759685922
 31
0.0
  0
LINE
  5
139
330
1F
100
AcDbEntity
  8
NoLayerName_001
  6
Continuous
 62
    30
370
    50
100
AcDbLine
 10
268.9419489585808
 20
332.9326759685922
 30
0.0
 11
268.9419489585808
 21
327.3326759685921
 31
0.0
  0
ARC
  5
13A
330
1F
100
AcDbEntity
  8
NoLayerName_001
  6
Continuous
 62
    30
370
    50
100
AcDbCircle
 10
268.7419489585807
 20
327.3326759685923
 30
0.0
 40
0.2
100
AcDbArc
 50
270.0
 51
0.0
  0
ARC
  5
13B
330
1F
100
AcDbEntity
  8
NoLayerName_001
  6
Continuous
 62
    30
370
    50
100
AcDbCircle
 10
268.7419489585807
 20
332.9326759685922
 30
0.0
 40
0.2
100
AcDbArc
 50
0.0000000000000127
 51
90.00000000000001
  0
LINE
  5
13C
330
1F
100
AcDbEntity
  8
NoLayerName_001
  6
Continuous
 62
    30
370
    50
100
AcDbLine
 10
295.7419489585806
 20
333.1326759685923
 30
0.0
 11
271.1419489585806
 21
333.1326759685923
 31
0.0
  0
LINE
  5
13D
330
1F
100
AcDbEntity
  8
NoLayerName_001
  6
Continuous
 62
    30
370
    50
100
AcDbLine
 10
225.1419489585806
 20
333.1326759685923
 30
0.0
 11
268.7419489585807
 21
333.1326759685923
 31
0.0
  0
LINE
  5
13E
330
1F
100
AcDbEntity
  8
NoLayerName_001
  6
Continuous
 62
    30
370
    50
100
AcDbLine
 10
189.4419489585807
 20
327.1326759685923
 30
0.0
 11
195.9035549378276
 21
334.9106993787499
 31
0.0
  0
LINE
  5
13F
330
1F
100
AcDbEntity
  8
NoLayerName_001
  6
Continuous
 62
    30
370
    50
100
AcDbLine
 10
189.4419489585807
 20
226.1326759685925
 30
0.0
 11
195.9035549378276
 21
218.3546525584348
 31
0.0
  0
LINE
  5
140
330
1F
100
AcDbEntity
  8
NoLayerName_001
  6
Continuous
 62
    30
370
    50
100
AcDbLine
 10
139.5569473070539
 20
324.6326759685923
 30
0.0
 11
139.5569473070539
 21
305.6326759685923
 31
0.0
  0
LINE
  5
141
330
1F
100
AcDbEntity
  8
NoLayerName_001
  6
Continuous
 62
    30
370
    50
100
AcDbLine
 10
141.5569473070539
 20
327.1326759685923
 30
0.0
 11
120.0569473070539
 21
327.1326759685923
 31
0.0
  0
LINE
  5
142
330
1F
100
AcDbEntity
  8
NoLayerName_001
  6
Continuous
 62
    30
370
    50
100
AcDbLine
 10
120.0569473070539
 20
327.1326759685923
 30
0.0
 11
120.0569473070539
 21
324.6326759685923
 31
0.0
  0
LINE
  5
143
330
1F
100
AcDbEntity
  8
NoLayerName_001
  6
Continuous
 62
    30
370
    50
100
AcDbLine
 10
141.5569473070539
 20
324.6326759685923
 30
0.0
 11
120.0569473070539
 21
324.6326759685923
 31
0.0
  0
ARC
  5
144
330
1F
100
AcDbEntity
  8
NoLayerName_001
  6
Continuous
 62
    30
370
    50
100
AcDbCircle
 10
119.5569473070539
 20
333.6326759685923
 30
0.0
 40
2.0
100
AcDbArc
 50
90.0
 51
180.0
  0
LINE
  5
145
330
1F
100
AcDbEntity
  8
NoLayerName_001
  6
Continuous
 62
    30
370
    50
100
AcDbLine
 10
118.5569473070539
 20
335.6326759685923
 30
0.0
 11
144.5569473070539
 21
335.6326759685923
 31
0.0
  0
LINE
  5
146
330
1F
100
AcDbEntity
  8
NoLayerName_001
  6
Continuous
 62
    30
370
    50
100
AcDbLine
 10
139.5569473070539
 20
327.1326759685923
 30
0.0
 11
139.5569473070539
 21
334.9106993787499
 31
0.0
  0
LINE
  5
147
330
1F
100
AcDbEntity
  8
NoLayerName_001
  6
Continuous
 62
    30
370
    50
100
AcDbLine
 10
141.5569473070539
 20
334.9106993787499
 30
0.0
 11
139.5569473070539
 21
334.9106993787499
 31
0.0
  0
LINE
  5
148
330
1F
100
AcDbEntity
  8
NoLayerName_001
  6
Continuous
 62
    30
370
    50
100
AcDbLine
 10
141.556947307054
 20
226.1326759685925
 30
0.0
 11
120.056947307054
 21
226.1326759685925
 31
0.0
  0
LINE
  5
149
330
1F
100
AcDbEntity
  8
NoLayerName_001
  6
Continuous
 62
    30
370
    50
100
AcDbLine
 10
120.056947307054
 20
226.1326759685924
 30
0.0
 11
120.056947307054
 21
228.6326759685924
 31
0.0
  0
LINE
  5
14A
330
1F
100
AcDbEntity
  8
NoLayerName_001
  6
Continuous
 62
    30
370
    50
100
AcDbLine
 10
139.5569473070539
 20
247.6326759685924
 30
0.0
 11
139.5569473070539
 21
228.6326759685925
 31
0.0
  0
LINE
  5
14B
330
1F
100
AcDbEntity
  8
NoLayerName_001
  6
Continuous
 62
    30
370
    50
100
AcDbLine
 10
141.5569473070539
 20
228.6326759685925
 30
0.0
 11
120.0569473070539
 21
228.6326759685925
 31
0.0
  0
ARC
  5
14C
330
1F
100
AcDbEntity
  8
NoLayerName_001
  6
Continuous
 62
    30
370
    50
100
AcDbCircle
 10
119.5569473070539
 20
219.6326759685924
 30
0.0
 40
2.0
100
AcDbArc
 50
180.0
 51
270.0
  0
LINE
  5
14D
330
1F
100
AcDbEntity
  8
NoLayerName_001
  6
Continuous
 62
    30
370
    50
100
AcDbLine
 10
118.5569473070539
 20
217.6326759685924
 30
0.0
 11
144.5569473070539
 21
217.6326759685924
 31
0.0
  0
LINE
  5
14E
330
1F
100
AcDbEntity
  8
NoLayerName_001
  6
Continuous
 62
    30
370
    50
100
AcDbLine
 10
144.5569473070539
 20
335.6326759685923
 30
0.0
 11
144.5569473070539
 21
217.6326759685925
 31
0.0
  0
LINE
  5
14F
330
1F
100
AcDbEntity
  8
NoLayerName_001
  6
Continuous
 62
    30
370
    50
100
AcDbLine
 10
117.5569473070539
 20
218.6326759685924
 30
0.0
 11
117.5569473070539
 21
334.6326759685921
 31
0.0
  0
ARC
  5
150
330
1F
100
AcDbEntity
  8
NoLayerName_001
  6
Continuous
 62
    30
370
    50
100
AcDbCircle
 10
208.9419489585804
 20
306.1326759685924
 30
0.0
 40
5.0
100
AcDbArc
 50
90.0
 51
180.0
  0
LINE
  5
151
330
1F
100
AcDbEntity
  8
NoLayerName_001
  6
Continuous
 62
    30
370
    50
100
AcDbLine
 10
222.9419489585804
 20
304.0825503396586
 30
0.0
 11
222.4419489585804
 21
302.4992762339332
 31
0.0
  0
LINE
  5
152
330
1F
100
AcDbEntity
  8
NoLayerName_001
  6
Continuous
 62
    30
370
    50
100
AcDbLine
 10
224.9419489585804
 20
304.0825503396586
 30
0.0
 11
225.4419489585804
 21
302.4992762339332
 31
0.0
  0
LINE
  5
153
330
1F
100
AcDbEntity
  8
NoLayerName_001
  6
Continuous
 62
    30
370
    50
100
AcDbLine
 10
233.0587929283875
 20
290.0237641868438
 30
0.0
 11
231.9376373316752
 21
291.2484139415987
 31
0.0
  0
LINE
  5
154
330
1F
100
AcDbEntity
  8
NoLayerName_001
  6
Continuous
 62
    30
370
    50
100
AcDbLine
 10
232.0587929283875
 20
288.2917133792748
 30
0.0
 11
230.4376373316752
 21
288.6503377302453
 31
0.0
  0
LINE
  5
155
330
1F
100
AcDbEntity
  8
NoLayerName_001
  6
Continuous
 62
    30
370
    50
100
AcDbLine
 10
215.8251049887735
 20
288.2917133792748
 30
0.0
 11
217.4462605854858
 21
288.6503377302453
 31
0.0
  0
LINE
  5
156
330
1F
100
AcDbEntity
  8
NoLayerName_001
  6
Continuous
 62
    30
370
    50
100
AcDbLine
 10
214.8251049887735
 20
290.0237641868438
 30
0.0
 11
215.9462605854858
 21
291.2484139415987
 31
0.0
  0
ARC
  5
157
330
1F
100
AcDbEntity
  8
NoLayerName_001
  6
Continuous
 62
    30
370
    50
100
AcDbCircle
 10
223.9419489585804
 20
294.1326759685924
 30
0.0
 40
8.5
100
AcDbArc
 50
220.1642486217235
 51
319.8357513782765
  0
ARC
  5
158
330
1F
100
AcDbEntity
  8
NoLayerName_001
  6
Continuous
 62
    30
370
    50
100
AcDbCircle
 10
223.9419489585804
 20
294.1326759685924
 30
0.0
 40
10.0
100
AcDbArc
 50
215.7391704772668
 51
324.2608295227332
  0
LINE
  5
159
330
1F
100
AcDbEntity
  8
NoLayerName_001
  6
Continuous
 62
    30
370
    50
100
AcDbLine
 10
222.9419489585804
 20
249.1828015975261
 30
0.0
 11
222.4419489585804
 21
250.7660757032515
 31
0.0
  0
LINE
  5
15A
330
1F
100
AcDbEntity
  8
NoLayerName_001
  6
Continuous
 62
    30
370
    50
100
AcDbLine
 10
224.9419489585804
 20
249.1828015975261
 30
0.0
 11
225.4419489585804
 21
250.7660757032515
 31
0.0
  0
LINE
  5
15B
330
1F
100
AcDbEntity
  8
NoLayerName_001
  6
Continuous
 62
    30
370
    50
100
AcDbLine
 10
233.0587929283875
 20
263.2415877503411
 30
0.0
 11
231.9376373316752
 21
262.0169379955861
 31
0.0
  0
LINE
  5
15C
330
1F
100
AcDbEntity
  8
NoLayerName_001
  6
Continuous
 62
    30
370
    50
100
AcDbLine
 10
232.0587929283875
 20
264.9736385579099
 30
0.0
 11
230.4376373316752
 21
264.6150142069394
 31
0.0
  0
LINE
  5
15D
330
1F
100
AcDbEntity
  8
NoLayerName_001
  6
Continuous
 62
    30
370
    50
100
AcDbLine
 10
215.8251049887735
 20
264.9736385579099
 30
0.0
 11
217.4462605854858
 21
264.6150142069394
 31
0.0
  0
ARC
  5
15E
330
1F
100
AcDbEntity
  8
NoLayerName_001
  6
Continuous
 62
    30
370
    50
100
AcDbCircle
 10
223.9419489585804
 20
259.1326759685924
 30
0.0
 40
8.5
100
AcDbArc
 50
280.1642486217236
 51
19.83575137827635
  0
ARC
  5
15F
330
1F
100
AcDbEntity
  8
NoLayerName_001
  6
Continuous
 62
    30
370
    50
100
AcDbCircle
 10
223.9419489585804
 20
259.1326759685924
 30
0.0
 40
10.0
100
AcDbArc
 50
275.7391704772669
 51
24.26082952273311
  0
ARC
  5
160
330
1F
100
AcDbEntity
  8
NoLayerName_001
  6
Continuous
 62
    30
370
    50
100
AcDbCircle
 10
223.9419489585804
 20
259.1326759685924
 30
0.0
 40
8.5
100
AcDbArc
 50
40.16424862172356
 51
139.8357513782765
  0
ARC
  5
161
330
1F
100
AcDbEntity
  8
NoLayerName_001
  6
Continuous
 62
    30
370
    50
100
AcDbCircle
 10
223.9419489585804
 20
259.1326759685924
 30
0.0
 40
10.0
100
AcDbArc
 50
35.73917047726683
 51
144.2608295227332
  0
LINE
  5
162
330
1F
100
AcDbEntity
  8
NoLayerName_001
  6
Continuous
 62
    30
370
    50
100
AcDbLine
 10
216.9419489585804
 20
308.6326759685923
 30
0.0
 11
216.9419489585804
 21
309.1326759685923
 31
0.0
  0
LINE
  5
163
330
1F
100
AcDbEntity
  8
NoLayerName_001
  6
Continuous
 62
    30
370
    50
100
AcDbLine
 10
230.9419489585804
 20
308.6326759685923
 30
0.0
 11
230.9419489585804
 21
309.1326759685923
 31
0.0
  0
ARC
  5
164
330
1F
100
AcDbEntity
  8
NoLayerName_001
  6
Continuous
 62
    30
370
    50
100
AcDbCircle
 10
228.4419489585804
 20
308.6326759685923
 30
0.0
 40
2.5
100
AcDbArc
 50
180.0
 51
0.0
  0
ARC
  5
165
330
1F
100
AcDbEntity
  8
NoLayerName_001
  6
Continuous
 62
    30
370
    50
100
AcDbCircle
 10
219.4419489585804
 20
308.6326759685923
 30
0.0
 40
2.5
100
AcDbArc
 50
180.0
 51
0.0
  0
LINE
  5
166
330
1F
100
AcDbEntity
  8
NoLayerName_001
  6
Continuous
 62
    30
370
    50
100
AcDbLine
 10
208.9419489585804
 20
309.1326759685923
 30
0.0
 11
216.9419489585804
 21
309.1326759685923
 31
0.0
  0
LINE
  5
167
330
1F
100
AcDbEntity
  8
NoLayerName_001
  6
Continuous
 62
    30
370
    50
100
AcDbLine
 10
230.9419489585804
 20
309.1326759685923
 30
0.0
 11
238.9419489585804
 21
309.1326759685923
 31
0.0
  0
LINE
  5
168
330
1F
100
AcDbEntity
  8
NoLayerName_001
  6
Continuous
 62
    30
370
    50
100
AcDbLine
 10
225.9419489585804
 20
311.1326759685923
 30
0.0
 11
225.9419489585804
 21
308.6326759685923
 31
0.0
  0
LINE
  5
169
330
1F
100
AcDbEntity
  8
NoLayerName_001
  6
Continuous
 62
    30
370
    50
100
AcDbLine
 10
238.9419489585804
 20
311.1326759685923
 30
0.0
 11
225.9419489585804
 21
311.1326759685923
 31
0.0
  0
LINE
  5
16A
330
1F
100
AcDbEntity
  8
NoLayerName_001
  6
Continuous
 62
    30
370
    50
100
AcDbLine
 10
221.9419489585804
 20
311.1326759685923
 30
0.0
 11
221.9419489585804
 21
308.6326759685923
 31
0.0
  0
LINE
  5
16B
330
1F
100
AcDbEntity
  8
NoLayerName_001
  6
Continuous
 62
    30
370
    50
100
AcDbLine
 10
221.9419489585804
 20
311.1326759685923
 30
0.0
 11
208.9419489585804
 21
311.1326759685923
 31
0.0
  0
LINE
  5
16C
330
1F
100
AcDbEntity
  8
NoLayerName_001
  6
Continuous
 62
    30
370
    50
100
AcDbLine
 10
216.9419489585804
 20
244.6326759685924
 30
0.0
 11
216.9419489585804
 21
244.1326759685924
 31
0.0
  0
LINE
  5
16D
330
1F
100
AcDbEntity
  8
NoLayerName_001
  6
Continuous
 62
    30
370
    50
100
AcDbLine
 10
230.9419489585804
 20
244.6326759685924
 30
0.0
 11
230.9419489585804
 21
244.1326759685924
 31
0.0
  0
ARC
  5
16E
330
1F
100
AcDbEntity
  8
NoLayerName_001
  6
Continuous
 62
    30
370
    50
100
AcDbCircle
 10
228.4419489585804
 20
244.6326759685924
 30
0.0
 40
2.5
100
AcDbArc
 50
0.0
 51
180.0
  0
ARC
  5
16F
330
1F
100
AcDbEntity
  8
NoLayerName_001
  6
Continuous
 62
    30
370
    50
100
AcDbCircle
 10
219.4419489585804
 20
244.6326759685924
 30
0.0
 40
2.5
100
AcDbArc
 50
360.0
 51
180.0
  0
LINE
  5
170
330
1F
100
AcDbEntity
  8
NoLayerName_001
  6
Continuous
 62
    30
370
    50
100
AcDbLine
 10
230.9419489585804
 20
244.1326759685924
 30
0.0
 11
238.9419489585804
 21
244.1326759685924
 31
0.0
  0
LINE
  5
171
330
1F
100
AcDbEntity
  8
NoLayerName_001
  6
Continuous
 62
    30
370
    50
100
AcDbLine
 10
225.9419489585804
 20
242.1326759685924
 30
0.0
 11
225.9419489585804
 21
244.6326759685924
 31
0.0
  0
LINE
  5
172
330
1F
100
AcDbEntity
  8
NoLayerName_001
  6
Continuous
 62
    30
370
    50
100
AcDbLine
 10
221.9419489585804
 20
242.1326759685924
 30
0.0
 11
221.9419489585804
 21
244.6326759685924
 31
0.0
  0
LINE
  5
173
330
1F
100
AcDbEntity
  8
NoLayerName_001
  6
Continuous
 62
    30
370
    50
100
AcDbLine
 10
238.9419489585804
 20
242.1326759685924
 30
0.0
 11
225.9419489585804
 21
242.1326759685924
 31
0.0
  0
LINE
  5
174
330
1F
100
AcDbEntity
  8
NoLayerName_001
  6
Continuous
 62
    30
370
    50
100
AcDbLine
 10
197.9419489585807
 20
256.6326759685923
 30
0.0
 11
197.9419489585807
 21
296.6326759685925
 31
0.0
  0
ARC
  5
175
330
1F
100
AcDbEntity
  8
NoLayerName_001
  6
Continuous
 62
    30
370
    50
100
AcDbCircle
 10
223.9419489585804
 20
294.1326759685924
 30
0.0
 40
10.0
100
AcDbArc
 50
335.7391704772669
 51
84.26082952273306
  0
ARC
  5
176
330
1F
100
AcDbEntity
  8
NoLayerName_001
  6
Continuous
 62
    30
370
    50
100
AcDbCircle
 10
223.9419489585804
 20
294.1326759685924
 30
0.0
 40
8.5
100
AcDbArc
 50
340.1642486217236
 51
79.83575137827633
  0
ARC
  5
177
330
1F
100
AcDbEntity
  8
NoLayerName_001
  6
Continuous
 62
    30
370
    50
100
AcDbCircle
 10
254.9419489585807
 20
247.1326759685924
 30
0.0
 40
5.0
100
AcDbArc
 50
180.0
 51
270.0
  0
ARC
  5
178
330
1F
100
AcDbEntity
  8
NoLayerName_001
  6
Continuous
 62
    30
370
    50
100
AcDbCircle
 10
254.9419489585807
 20
306.1326759685924
 30
0.0
 40
5.0
100
AcDbArc
 50
90.0
 51
180.0
  0
ARC
  5
179
330
1F
100
AcDbEntity
  8
NoLayerName_001
  6
Continuous
 62
    30
370
    50
100
AcDbCircle
 10
284.9419489585807
 20
247.1326759685924
 30
0.0
 40
5.0
100
AcDbArc
 50
270.0
 51
360.0
  0
LINE
  5
17A
330
1F
100
AcDbEntity
  8
NoLayerName_001
  6
Continuous
 62
    30
370
    50
100
AcDbLine
 10
195.4419489585807
 20
296.042506024843
 30
0.0
 11
195.4419489585807
 21
257.2228459123418
 31
0.0
  0
LINE
  5
17B
330
1F
100
AcDbEntity
  8
NoLayerName_001
  6
Continuous
 62
    30
370
    50
100
AcDbLine
 10
270.9419489585807
 20
304.0825503396586
 30
0.0
 11
271.4419489585807
 21
302.4992762339332
 31
0.0
  0
LINE
  5
17C
330
1F
100
AcDbEntity
  8
NoLayerName_001
  6
Continuous
 62
    30
370
    50
100
AcDbLine
 10
268.9419489585807
 20
304.0825503396586
 30
0.0
 11
268.4419489585807
 21
302.4992762339332
 31
0.0
  0
LINE
  5
17D
330
1F
100
AcDbEntity
  8
NoLayerName_001
  6
Continuous
 62
    30
370
    50
100
AcDbLine
 10
260.8251049887736
 20
290.0237641868438
 30
0.0
 11
261.9462605854859
 21
291.2484139415987
 31
0.0
  0
LINE
  5
17E
330
1F
100
AcDbEntity
  8
NoLayerName_001
  6
Continuous
 62
    30
370
    50
100
AcDbLine
 10
261.8251049887736
 20
288.2917133792748
 30
0.0
 11
263.4462605854859
 21
288.6503377302453
 31
0.0
  0
LINE
  5
17F
330
1F
100
AcDbEntity
  8
NoLayerName_001
  6
Continuous
 62
    30
370
    50
100
AcDbLine
 10
278.0587929283876
 20
288.2917133792748
 30
0.0
 11
276.4376373316753
 21
288.6503377302453
 31
0.0
  0
ARC
  5
180
330
1F
100
AcDbEntity
  8
NoLayerName_001
  6
Continuous
 62
    30
370
    50
100
AcDbCircle
 10
269.9419489585807
 20
294.1326759685924
 30
0.0
 40
8.5
100
AcDbArc
 50
220.1642486217235
 51
319.8357513782765
  0
ARC
  5
181
330
1F
100
AcDbEntity
  8
NoLayerName_001
  6
Continuous
 62
    30
370
    50
100
AcDbCircle
 10
269.9419489585807
 20
294.1326759685924
 30
0.0
 40
8.5
100
AcDbArc
 50
340.1642486217235
 51
79.83575137827643
  0
ARC
  5
182
330
1F
100
AcDbEntity
  8
NoLayerName_001
  6
Continuous
 62
    30
370
    50
100
AcDbCircle
 10
269.9419489585807
 20
294.1326759685924
 30
0.0
 40
10.0
100
AcDbArc
 50
215.7391704772668
 51
324.2608295227332
  0
LINE
  5
183
330
1F
100
AcDbEntity
  8
NoLayerName_001
  6
Continuous
 62
    30
370
    50
100
AcDbLine
 10
270.9419489585807
 20
249.1828015975261
 30
0.0
 11
271.4419489585807
 21
250.7660757032515
 31
0.0
  0
LINE
  5
184
330
1F
100
AcDbEntity
  8
NoLayerName_001
  6
Continuous
 62
    30
370
    50
100
AcDbLine
 10
268.9419489585807
 20
249.1828015975261
 30
0.0
 11
268.4419489585807
 21
250.7660757032515
 31
0.0
  0
LINE
  5
185
330
1F
100
AcDbEntity
  8
NoLayerName_001
  6
Continuous
 62
    30
370
    50
100
AcDbLine
 10
260.8251049887736
 20
263.2415877503411
 30
0.0
 11
261.9462605854859
 21
262.0169379955861
 31
0.0
  0
LINE
  5
186
330
1F
100
AcDbEntity
  8
NoLayerName_001
  6
Continuous
 62
    30
370
    50
100
AcDbLine
 10
261.8251049887736
 20
264.9736385579099
 30
0.0
 11
263.4462605854859
 21
264.6150142069394
 31
0.0
  0
LINE
  5
187
330
1F
100
AcDbEntity
  8
NoLayerName_001
  6
Continuous
 62
    30
370
    50
100
AcDbLine
 10
278.0587929283876
 20
264.9736385579099
 30
0.0
 11
276.4376373316753
 21
264.6150142069394
 31
0.0
  0
LINE
  5
188
330
1F
100
AcDbEntity
  8
NoLayerName_001
  6
Continuous
 62
    30
370
    50
100
AcDbLine
 10
279.0587929283876
 20
263.2415877503411
 30
0.0
 11
277.9376373316753
 21
262.0169379955861
 31
0.0
  0
ARC
  5
189
330
1F
100
AcDbEntity
  8
NoLayerName_001
  6
Continuous
 62
    30
370
    50
100
AcDbCircle
 10
269.9419489585807
 20
259.1326759685924
 30
0.0
 40
8.5
100
AcDbArc
 50
160.1642486217237
 51
259.8357513782764
  0
ARC
  5
18A
330
1F
100
AcDbEntity
  8
NoLayerName_001
  6
Continuous
 62
    30
370
    50
100
AcDbCircle
 10
269.9419489585807
 20
259.1326759685924
 30
0.0
 40
10.0
100
AcDbArc
 50
155.7391704772669
 51
264.2608295227331
  0
ARC
  5
18B
330
1F
100
AcDbEntity
  8
NoLayerName_001
  6
Continuous
 62
    30
370
    50
100
AcDbCircle
 10
269.9419489585807
 20
259.1326759685924
 30
0.0
 40
8.5
100
AcDbArc
 50
40.16424862172348
 51
139.8357513782764
  0
ARC
  5
18C
330
1F
100
AcDbEntity
  8
NoLayerName_001
  6
Continuous
 62
    30
370
    50
100
AcDbCircle
 10
269.9419489585807
 20
259.1326759685924
 30
0.0
 40
8.5
100
AcDbArc
 50
280.1642486217236
 51
19.83575137827656
  0
ARC
  5
18D
330
1F
100
AcDbEntity
  8
NoLayerName_001
  6
Continuous
 62
    30
370
    50
100
AcDbCircle
 10
269.9419489585807
 20
259.1326759685924
 30
0.0
 40
10.0
100
AcDbArc
 50
35.7391704772668
 51
144.2608295227332
  0
ARC
  5
18E
330
1F
100
AcDbEntity
  8
NoLayerName_001
  6
Continuous
 62
    30
370
    50
100
AcDbCircle
 10
269.9419489585807
 20
259.1326759685924
 30
0.0
 40
10.0
100
AcDbArc
 50
275.7391704772669
 51
24.26082952273329
  0
LINE
  5
18F
330
1F
100
AcDbEntity
  8
NoLayerName_001
  6
Continuous
 62
    30
370
    50
100
AcDbLine
 10
276.9419489585807
 20
308.6326759685923
 30
0.0
 11
276.9419489585807
 21
309.1326759685923
 31
0.0
  0
LINE
  5
190
330
1F
100
AcDbEntity
  8
NoLayerName_001
  6
Continuous
 62
    30
370
    50
100
AcDbLine
 10
262.9419489585807
 20
308.6326759685923
 30
0.0
 11
262.9419489585807
 21
309.1326759685923
 31
0.0
  0
ARC
  5
191
330
1F
100
AcDbEntity
  8
NoLayerName_001
  6
Continuous
 62
    30
370
    50
100
AcDbCircle
 10
265.4419489585807
 20
308.6326759685923
 30
0.0
 40
2.5
100
AcDbArc
 50
180.0
 51
0.0
  0
ARC
  5
192
330
1F
100
AcDbEntity
  8
NoLayerName_001
  6
Continuous
 62
    30
370
    50
100
AcDbCircle
 10
274.4419489585807
 20
308.6326759685923
 30
0.0
 40
2.5
100
AcDbArc
 50
180.0
 51
0.0
  0
LINE
  5
193
330
1F
100
AcDbEntity
  8
NoLayerName_001
  6
Continuous
 62
    30
370
    50
100
AcDbLine
 10
262.9419489585807
 20
309.1326759685923
 30
0.0
 11
254.9419489585807
 21
309.1326759685923
 31
0.0
  0
LINE
  5
194
330
1F
100
AcDbEntity
  8
NoLayerName_001
  6
Continuous
 62
    30
370
    50
100
AcDbLine
 10
267.9419489585807
 20
311.1326759685923
 30
0.0
 11
267.9419489585807
 21
308.6326759685923
 31
0.0
  0
LINE
  5
195
330
1F
100
AcDbEntity
  8
NoLayerName_001
  6
Continuous
 62
    30
370
    50
100
AcDbLine
 10
254.9419489585807
 20
311.1326759685923
 30
0.0
 11
267.9419489585807
 21
311.1326759685923
 31
0.0
  0
LINE
  5
196
330
1F
100
AcDbEntity
  8
NoLayerName_001
  6
Continuous
 62
    30
370
    50
100
AcDbLine
 10
271.9419489585807
 20
311.1326759685923
 30
0.0
 11
271.9419489585807
 21
308.6326759685923
 31
0.0
  0
LINE
  5
197
330
1F
100
AcDbEntity
  8
NoLayerName_001
  6
Continuous
 62
    30
370
    50
100
AcDbLine
 10
276.9419489585807
 20
244.6326759685924
 30
0.0
 11
276.9419489585807
 21
244.1326759685924
 31
0.0
  0
LINE
  5
198
330
1F
100
AcDbEntity
  8
NoLayerName_001
  6
Continuous
 62
    30
370
    50
100
AcDbLine
 10
262.9419489585807
 20
244.6326759685924
 30
0.0
 11
262.9419489585807
 21
244.1326759685924
 31
0.0
  0
ARC
  5
199
330
1F
100
AcDbEntity
  8
NoLayerName_001
  6
Continuous
 62
    30
370
    50
100
AcDbCircle
 10
265.4419489585807
 20
244.6326759685924
 30
0.0
 40
2.5
100
AcDbArc
 50
360.0
 51
180.0
  0
ARC
  5
19A
330
1F
100
AcDbEntity
  8
NoLayerName_001
  6
Continuous
 62
    30
370
    50
100
AcDbCircle
 10
274.4419489585807
 20
244.6326759685924
 30
0.0
 40
2.5
100
AcDbArc
 50
0.0
 51
180.0
  0
LINE
  5
19B
330
1F
100
AcDbEntity
  8
NoLayerName_001
  6
Continuous
 62
    30
370
    50
100
AcDbLine
 10
284.9419489585807
 20
244.1326759685924
 30
0.0
 11
276.9419489585807
 21
244.1326759685924
 31
0.0
  0
LINE
  5
19C
330
1F
100
AcDbEntity
  8
NoLayerName_001
  6
Continuous
 62
    30
370
    50
100
AcDbLine
 10
262.9419489585807
 20
244.1326759685924
 30
0.0
 11
254.9419489585807
 21
244.1326759685924
 31
0.0
  0
LINE
  5
19D
330
1F
100
AcDbEntity
  8
NoLayerName_001
  6
Continuous
 62
    30
370
    50
100
AcDbLine
 10
267.9419489585807
 20
242.1326759685924
 30
0.0
 11
267.9419489585807
 21
244.6326759685924
 31
0.0
  0
LINE
  5
19E
330
1F
100
AcDbEntity
  8
NoLayerName_001
  6
Continuous
 62
    30
370
    50
100
AcDbLine
 10
271.9419489585807
 20
242.1326759685924
 30
0.0
 11
271.9419489585807
 21
244.6326759685924
 31
0.0
  0
LINE
  5
19F
330
1F
100
AcDbEntity
  8
NoLayerName_001
  6
Continuous
 62
    30
370
    50
100
AcDbLine
 10
254.9419489585807
 20
242.1326759685924
 30
0.0
 11
267.9419489585807
 21
242.1326759685924
 31
0.0
  0
LINE
  5
1A0
330
1F
100
AcDbEntity
  8
NoLayerName_001
  6
Continuous
 62
    30
370
    50
100
AcDbLine
 10
271.9419489585807
 20
242.1326759685924
 30
0.0
 11
284.9419489585807
 21
242.1326759685924
 31
0.0
  0
ARC
  5
1A1
330
1F
100
AcDbEntity
  8
NoLayerName_001
  6
Continuous
 62
    30
370
    50
100
AcDbCircle
 10
269.9419489585807
 20
294.1326759685924
 30
0.0
 40
10.0
100
AcDbArc
 50
95.73917047726692
 51
204.2608295227331
  0
ARC
  5
1A2
330
1F
100
AcDbEntity
  8
NoLayerName_001
  6
Continuous
 62
    30
370
    50
100
AcDbCircle
 10
269.9419489585807
 20
294.1326759685924
 30
0.0
 40
8.5
100
AcDbArc
 50
100.1642486217236
 51
199.8357513782764
  0
CIRCLE
  5
1A3
330
1F
100
AcDbEntity
  8
NoLayerName_001
  6
Continuous
 62
    30
370
    50
100
AcDbCircle
 10
265.9419489585804
 20
276.6326759685924
 30
0.0
 40
2.25
  0
CIRCLE
  5
1A4
330
1F
100
AcDbEntity
  8
NoLayerName_001
  6
Continuous
 62
    30
370
    50
100
AcDbCircle
 10
227.9419489585804
 20
276.6326759685924
 30
0.0
 40
2.25
  0
LINE
  5
1A5
330
1F
100
AcDbEntity
  8
NoLayerName_001
  6
Continuous
 62
    30
370
    50
100
AcDbLine
 10
206.4419489585804
 20
283.6326759685924
 30
0.0
 11
205.9419489585804
 21
283.6326759685924
 31
0.0
  0
LINE
  5
1A6
330
1F
100
AcDbEntity
  8
NoLayerName_001
  6
Continuous
 62
    30
370
    50
100
AcDbLine
 10
206.4419489585804
 20
278.6326759685924
 30
0.0
 11
203.9419489585804
 21
278.6326759685924
 31
0.0
  0
ARC
  5
1A7
330
1F
100
AcDbEntity
  8
NoLayerName_001
  6
Continuous
 62
    30
370
    50
100
AcDbCircle
 10
206.4419489585804
 20
281.1326759685924
 30
0.0
 40
2.5
100
AcDbArc
 50
270.0
 51
90.00000000000001
  0
LINE
  5
1A8
330
1F
100
AcDbEntity
  8
NoLayerName_001
  6
Continuous
 62
    30
370
    50
100
AcDbLine
 10
298.4419489585807
 20
156.2113342005113
 30
0.0
 11
298.4419489585807
 21
131.2113342005113
 31
0.0
  0
LINE
  5
1A9
330
1F
100
AcDbEntity
  8
NoLayerName_001
  6
Continuous
 62
    30
370
    50
100
AcDbLine
 10
206.4419489585804
 20
274.6326759685924
 30
0.0
 11
203.9419489585804
 21
274.6326759685924
 31
0.0
  0
LINE
  5
1AA
330
1F
100
AcDbEntity
  8
NoLayerName_001
  6
Continuous
 62
    30
370
    50
100
AcDbLine
 10
193.9419489585807
 20
156.2113342005113
 30
0.0
 11
298.4419489585807
 21
156.2113342005113
 31
0.0
  0
LINE
  5
1AB
330
1F
100
AcDbEntity
  8
NoLayerName_001
  6
Continuous
 62
    30
370
    50
100
AcDbLine
 10
241.4419489585804
 20
283.6326759685924
 30
0.0
 11
241.9419489585804
 21
283.6326759685924
 31
0.0
  0
ARC
  5
1AC
330
1F
100
AcDbEntity
  8
NoLayerName_001
  6
Continuous
 62
    30
370
    50
100
AcDbCircle
 10
241.4419489585804
 20
281.1326759685924
 30
0.0
 40
2.5
100
AcDbArc
 50
90.0
 51
270.0
  0
ARC
  5
1AD
330
1F
100
AcDbEntity
  8
NoLayerName_001
  6
Continuous
 62
    30
370
    50
100
AcDbCircle
 10
241.4419489585804
 20
272.1326759685924
 30
0.0
 40
2.5
100
AcDbArc
 50
90.0
 51
270.0
  0
LINE
  5
1AE
330
1F
100
AcDbEntity
  8
NoLayerName_001
  6
Continuous
 62
    30
370
    50
100
AcDbLine
 10
241.4419489585804
 20
269.6326759685924
 30
0.0
 11
241.9419489585804
 21
269.6326759685924
 31
0.0
  0
LINE
  5
1AF
330
1F
100
AcDbEntity
  8
NoLayerName_001
  6
Continuous
 62
    30
370
    50
100
AcDbLine
 10
241.9419489585804
 20
306.1326759685924
 30
0.0
 11
241.9419489585804
 21
283.6326759685924
 31
0.0
  0
LINE
  5
1B0
330
1F
100
AcDbEntity
  8
NoLayerName_001
  6
Continuous
 62
    30
370
    50
100
AcDbLine
 10
241.9419489585804
 20
269.6326759685924
 30
0.0
 11
241.9419489585804
 21
247.1326759685924
 31
0.0
  0
LINE
  5
1B1
330
1F
100
AcDbEntity
  8
NoLayerName_001
  6
Continuous
 62
    30
370
    50
100
AcDbLine
 10
252.4419489585807
 20
284.6326759685924
 30
0.0
 11
251.9419489585807
 21
284.6326759685924
 31
0.0
  0
LINE
  5
1B2
330
1F
100
AcDbEntity
  8
NoLayerName_001
  6
Continuous
 62
    30
370
    50
100
AcDbLine
 10
252.4419489585807
 20
279.6326759685924
 30
0.0
 11
249.9419489585807
 21
279.6326759685924
 31
0.0
  0
ARC
  5
1B3
330
1F
100
AcDbEntity
  8
NoLayerName_001
  6
Continuous
 62
    30
370
    50
100
AcDbCircle
 10
252.4419489585807
 20
282.1326759685924
 30
0.0
 40
2.5
100
AcDbArc
 50
270.0
 51
90.00000000000001
  0
LINE
  5
1B4
330
1F
100
AcDbEntity
  8
NoLayerName_001
  6
Continuous
 62
    30
370
    50
100
AcDbLine
 10
252.4419489585807
 20
273.6326759685924
 30
0.0
 11
249.9419489585807
 21
273.6326759685924
 31
0.0
  0
ARC
  5
1B5
330
1F
100
AcDbEntity
  8
NoLayerName_001
  6
Continuous
 62
    30
370
    50
100
AcDbCircle
 10
252.4419489585807
 20
271.1326759685924
 30
0.0
 40
2.5
100
AcDbArc
 50
270.0
 51
89.99999999999999
  0
LINE
  5
1B6
330
1F
100
AcDbEntity
  8
NoLayerName_001
  6
Continuous
 62
    30
370
    50
100
AcDbLine
 10
252.4419489585807
 20
268.6326759685924
 30
0.0
 11
251.9419489585807
 21
268.6326759685924
 31
0.0
  0
LINE
  5
1B7
330
1F
100
AcDbEntity
  8
NoLayerName_001
  6
Continuous
 62
    30
370
    50
100
AcDbLine
 10
287.4419489585807
 20
274.6326759685924
 30
0.0
 11
289.9419489585807
 21
274.6326759685924
 31
0.0
  0
ARC
  5
1B8
330
1F
100
AcDbEntity
  8
NoLayerName_001
  6
Continuous
 62
    30
370
    50
100
AcDbCircle
 10
287.4419489585807
 20
272.1326759685924
 30
0.0
 40
2.5
100
AcDbArc
 50
90.0
 51
270.0
  0
LINE
  5
1B9
330
1F
100
AcDbEntity
  8
NoLayerName_001
  6
Continuous
 62
    30
370
    50
100
AcDbLine
 10
287.4419489585807
 20
269.6326759685924
 30
0.0
 11
287.9419489585807
 21
269.6326759685924
 31
0.0
  0
LINE
  5
1BA
330
1F
100
AcDbEntity
  8
NoLayerName_001
  6
Continuous
 62
    30
370
    50
100
AcDbLine
 10
287.9419489585807
 20
269.6326759685924
 30
0.0
 11
287.9419489585807
 21
247.1326759685924
 31
0.0
  0
LINE
  5
1BB
330
1F
100
AcDbEntity
  8
NoLayerName_001
  6
Continuous
 62
    30
370
    50
100
AcDbLine
 10
289.9419489585807
 20
274.6326759685924
 30
0.0
 11
289.9419489585807
 21
247.1326759685924
 31
0.0
  0
LINE
  5
1BC
330
1F
100
AcDbEntity
  8
NoLayerName_001
  6
Continuous
 62
    30
370
    50
100
AcDbLine
 10
287.4419489585807
 20
278.6326759685924
 30
0.0
 11
289.9419489585807
 21
278.6326759685924
 31
0.0
  0
CIRCLE
  5
1BD
330
1F
100
AcDbEntity
  8
NoLayerName_001
  6
Continuous
 62
    30
370
    50
100
AcDbCircle
 10
247.9419489585807
 20
276.6326759685924
 30
0.0
 40
1.9
  0
LINE
  5
1BE
330
1F
100
AcDbEntity
  8
NoLayerName_001
  6
Continuous
 62
    30
370
    50
100
AcDbLine
 10
134.556947307054
 20
253.6326759685923
 30
0.0
 11
117.556947307054
 21
253.6326759685923
 31
0.0
  0
LINE
  5
1BF
330
1F
100
AcDbEntity
  8
NoLayerName_001
  6
Continuous
 62
    30
370
    50
100
AcDbLine
 10
250.8591393877434
 20
275.9326759685924
 30
0.0
 11
249.708301131846
 21
275.9326759685924
 31
0.0
  0
LINE
  5
1C0
330
1F
100
AcDbEntity
  8
NoLayerName_001
  6
Continuous
 62
    30
370
    50
100
AcDbLine
 10
250.8591393877436
 20
277.3326759685924
 30
0.0
 11
249.7083011318462
 21
277.3326759685924
 31
0.0
  0
ARC
  5
1C1
330
1F
100
AcDbEntity
  8
NoLayerName_001
  6
Continuous
 62
    30
370
    50
100
AcDbCircle
 10
247.9419489585807
 20
276.6326759685924
 30
0.0
 40
3.0
100
AcDbArc
 50
350.4059317731396
 51
9.594068226860434
  0
LINE
  5
1C2
330
1F
100
AcDbEntity
  8
NoLayerName_001
  6
Continuous
 62
    30
370
    50
100
AcDbLine
 10
134.556947307054
 20
249.6326759685923
 30
0.0
 11
117.556947307054
 21
249.6326759685923
 31
0.0
  0
LINE
  5
1C3
330
1F
100
AcDbEntity
  8
NoLayerName_001
  6
Continuous
 62
    30
370
    50
100
AcDbLine
 10
250.8999888501305
 20
277.1326759685924
 30
0.0
 11
263.7482078617324
 21
277.1326759685924
 31
0.0
  0
LINE
  5
1C4
330
1F
100
AcDbEntity
  8
NoLayerName_001
  6
Continuous
 62
    30
370
    50
100
AcDbLine
 10
249.9419489585807
 20
306.1326759685924
 30
0.0
 11
249.9419489585807
 21
279.6326759685924
 31
0.0
  0
LINE
  5
1C5
330
1F
100
AcDbEntity
  8
NoLayerName_001
  6
Continuous
 62
    30
370
    50
100
AcDbLine
 10
251.9419489585807
 20
306.1326759685924
 30
0.0
 11
251.9419489585807
 21
284.6326759685924
 31
0.0
  0
LINE
  5
1C6
330
1F
100
AcDbEntity
  8
NoLayerName_001
  6
Continuous
 62
    30
370
    50
100
AcDbLine
 10
251.9419489585807
 20
268.6326759685924
 30
0.0
 11
251.9419489585807
 21
247.1326759685924
 31
0.0
  0
LINE
  5
1C7
330
1F
100
AcDbEntity
  8
NoLayerName_001
  6
Continuous
 62
    30
370
    50
100
AcDbLine
 10
249.9419489585807
 20
273.6326759685924
 30
0.0
 11
249.9419489585807
 21
247.1326759685924
 31
0.0
  0
ARC
  5
1C8
330
1F
100
AcDbEntity
  8
NoLayerName_001
  6
Continuous
 62
    30
370
    50
100
AcDbCircle
 10
208.9419489585804
 20
306.1326759685924
 30
0.0
 40
3.0
100
AcDbArc
 50
90.0
 51
180.0
  0
ARC
  5
1C9
330
1F
100
AcDbEntity
  8
NoLayerName_001
  6
Continuous
 62
    30
370
    50
100
AcDbCircle
 10
238.9419489585804
 20
247.1326759685924
 30
0.0
 40
3.0
100
AcDbArc
 50
270.0
 51
0.0
  0
ARC
  5
1CA
330
1F
100
AcDbEntity
  8
NoLayerName_001
  6
Continuous
 62
    30
370
    50
100
AcDbCircle
 10
254.9419489585807
 20
247.1326759685924
 30
0.0
 40
3.0
100
AcDbArc
 50
180.0
 51
270.0
  0
ARC
  5
1CB
330
1F
100
AcDbEntity
  8
NoLayerName_001
  6
Continuous
 62
    30
370
    50
100
AcDbCircle
 10
238.9419489585804
 20
306.1326759685924
 30
0.0
 40
3.0
100
AcDbArc
 50
0.0
 51
90.0
  0
ARC
  5
1CC
330
1F
100
AcDbEntity
  8
NoLayerName_001
  6
Continuous
 62
    30
370
    50
100
AcDbCircle
 10
254.9419489585807
 20
306.1326759685924
 30
0.0
 40
3.0
100
AcDbArc
 50
90.0
 51
180.0
  0
ARC
  5
1CD
330
1F
100
AcDbEntity
  8
NoLayerName_001
  6
Continuous
 62
    30
370
    50
100
AcDbCircle
 10
284.9419489585807
 20
247.1326759685924
 30
0.0
 40
3.0
100
AcDbArc
 50
270.0
 51
0.0
  0
LINE
  5
1CE
330
1F
100
AcDbEntity
  8
NoLayerName_001
  6
Continuous
 62
    21
370
    50
100
AcDbLine
 10
242.7419489585806
 20
234.8326759685923
 30
0.0
 11
242.7419489585806
 21
228.9326759685923
 31
0.0
  0
LINE
  5
1CF
330
1F
100
AcDbEntity
  8
NoLayerName_001
  6
Continuous
 62
    21
370
    50
100
AcDbLine
 10
243.5419489585806
 20
241.2326759685923
 30
0.0
 11
243.5419489585806
 21
312.0326759685923
 31
0.0
  0
LINE
  5
1D0
330
1F
100
AcDbEntity
  8
NoLayerName_001
  6
Continuous
 62
    21
370
    50
100
AcDbLine
 10
245.7419489585806
 20
241.9326759685923
 30
0.0
 11
245.7419489585806
 21
311.4326759685923
 31
0.0
  0
LINE
  5
1D1
330
1F
100
AcDbEntity
  8
NoLayerName_001
  6
Continuous
 62
    21
370
    50
100
AcDbLine
 10
242.7419489585806
 20
318.4326759685922
 30
0.0
 11
242.7419489585806
 21
324.3326759685922
 31
0.0
  0
LINE
  5
1D2
330
1F
100
AcDbEntity
  8
NoLayerName_001
  6
Continuous
 62
    21
370
    50
100
AcDbLine
 10
241.1419489585805
 20
235.3326759685923
 30
0.0
 11
241.1419489585805
 21
228.7326759685923
 31
0.0
  0
LINE
  5
1D3
330
1F
100
AcDbEntity
  8
NoLayerName_001
  6
Continuous
 62
    21
370
    50
100
AcDbLine
 10
241.1419489585805
 20
317.9326759685922
 30
0.0
 11
241.1419489585805
 21
324.5326759685922
 31
0.0
  0
LINE
  5
1D4
330
1F
100
AcDbEntity
  8
NoLayerName_001
  6
Continuous
 62
    30
370
    50
100
AcDbLine
 10
141.5569473070539
 20
218.3546525584347
 30
0.0
 11
139.5569473070539
 21
218.3546525584347
 31
0.0
  0
LINE
  5
1D5
330
1F
100
AcDbEntity
  8
NoLayerName_001
  6
Continuous
 62
    30
370
    50
100
AcDbLine
 10
139.5569473070539
 20
226.1326759685925
 30
0.0
 11
139.5569473070539
 21
218.3546525584348
 31
0.0
  0
LINE
  5
1D6
330
1F
100
AcDbEntity
  8
NoLayerName_001
  6
Continuous
 62
    30
370
    50
100
AcDbLine
 10
141.5569473070539
 20
334.9106993787499
 30
0.0
 11
141.5569473070539
 21
218.3546525584347
 31
0.0
  0
LINE
  5
1D7
330
1F
100
AcDbEntity
  8
NoLayerName_001
  6
DOTSX
 62
     7
370
    25
100
AcDbLine
 10
247.4419489585807
 20
333.6326759685923
 30
0.0
 11
247.4419489585807
 21
335.6326759685923
 31
0.0
  0
LINE
  5
1D8
330
1F
100
AcDbEntity
  8
NoLayerName_001
  6
DOTSX
 62
     7
370
    25
100
AcDbLine
 10
246.4419489585807
 20
333.6326759685923
 30
0.0
 11
246.4419489585807
 21
335.6326759685923
 31
0.0
  0
LINE
  5
1D9
330
1F
100
AcDbEntity
  8
NoLayerName_001
  6
DOTSX
 62
     7
370
    25
100
AcDbLine
 10
246.4419489585807
 20
333.6326759685923
 30
0.0
 11
247.4419489585807
 21
333.6326759685923
 31
0.0
  0
LINE
  5
1DA
330
1F
100
AcDbEntity
  8
NoLayerName_001
  6
DOTSX
 62
     7
370
    25
100
AcDbLine
 10
247.4419489585807
 20
219.6326759685925
 30
0.0
 11
247.4419489585807
 21
217.6326759685925
 31
0.0
  0
LINE
  5
1DB
330
1F
100
AcDbEntity
  8
NoLayerName_001
  6
DOTSX
 62
     7
370
    25
100
AcDbLine
 10
246.4419489585807
 20
219.6326759685925
 30
0.0
 11
246.4419489585807
 21
217.6326759685925
 31
0.0
  0
LINE
  5
1DC
330
1F
100
AcDbEntity
  8
NoLayerName_001
  6
DOTSX
 62
     7
370
    25
100
AcDbLine
 10
246.4419489585807
 20
219.6326759685925
 30
0.0
 11
247.4419489585807
 21
219.6326759685925
 31
0.0
  0
ARC
  5
1DD
330
1F
100
AcDbEntity
  8
NoLayerName_001
  6
Continuous
 62
    30
370
    50
100
AcDbCircle
 10
118.5569473070539
 20
334.6326759685923
 30
0.0
 40
1.0
100
AcDbArc
 50
90.00000000000001
 51
180.0
  0
ARC
  5
1DE
330
1F
100
AcDbEntity
  8
NoLayerName_001
  6
Continuous
 62
    30
370
    50
100
AcDbCircle
 10
118.5569473070539
 20
218.6326759685924
 30
0.0
 40
1.0
100
AcDbArc
 50
180.0
 51
270.0
  0
LINE
  5
1DF
330
1F
100
AcDbEntity
  8
NoLayerName_001
  6
Continuous
 62
    30
370
    50
100
AcDbLine
 10
296.4419489585807
 20
217.6326759685924
 30
0.0
 11
197.4419489585807
 21
217.6326759685924
 31
0.0
  0
ARC
  5
1E0
330
1F
100
AcDbEntity
  8
NoLayerName_001
  6
Continuous
 62
    30
370
    50
100
AcDbCircle
 10
222.7419489585807
 20
220.3326759685925
 30
0.0
 40
0.2
100
AcDbArc
 50
270.0
 51
0.0
  0
ARC
  5
1E1
330
1F
100
AcDbEntity
  8
NoLayerName_001
  6
Continuous
 62
    30
370
    50
100
AcDbCircle
 10
222.7419489585807
 20
225.9326759685925
 30
0.0
 40
0.2
100
AcDbArc
 50
0.0000000000000127
 51
90.00000000000001
  0
LINE
  5
1E2
330
1F
100
AcDbEntity
  8
NoLayerName_001
  6
Continuous
 62
    30
370
    50
100
AcDbLine
 10
222.9419489585808
 20
220.3326759685925
 30
0.0
 11
222.9419489585808
 21
225.9326759685925
 31
0.0
  0
ARC
  5
1E3
330
1F
100
AcDbEntity
  8
NoLayerName_001
  6
Continuous
 62
    30
370
    50
100
AcDbCircle
 10
225.1419489585806
 20
225.9326759685925
 30
0.0
 40
0.2
100
AcDbArc
 50
89.99999999999997
 51
180.0
  0
LINE
  5
1E4
330
1F
100
AcDbEntity
  8
NoLayerName_001
  6
Continuous
 62
    30
370
    50
100
AcDbLine
 10
224.9419489585806
 20
220.3326759685924
 30
0.0
 11
224.9419489585806
 21
225.9326759685925
 31
0.0
  0
ARC
  5
1E5
330
1F
100
AcDbEntity
  8
NoLayerName_001
  6
Continuous
 62
    30
370
    50
100
AcDbCircle
 10
225.1419489585806
 20
225.9326759685924
 30
0.0
 40
0.2
100
AcDbArc
 50
90.0
 51
180.0
  0
ARC
  5
1E6
330
1F
100
AcDbEntity
  8
NoLayerName_001
  6
Continuous
 62
    30
370
    50
100
AcDbCircle
 10
225.1419489585806
 20
220.3326759685924
 30
0.0
 40
0.2
100
AcDbArc
 50
180.0
 51
270.0
  0
ARC
  5
1E7
330
1F
100
AcDbEntity
  8
NoLayerName_001
  6
Continuous
 62
    30
370
    50
100
AcDbCircle
 10
271.1419489585806
 20
220.3326759685925
 30
0.0
 40
0.2
100
AcDbArc
 50
180.0
 51
270.0
  0
ARC
  5
1E8
330
1F
100
AcDbEntity
  8
NoLayerName_001
  6
Continuous
 62
    30
370
    50
100
AcDbCircle
 10
271.1419489585806
 20
225.9326759685925
 30
0.0
 40
0.2
100
AcDbArc
 50
89.99999999999999
 51
180.0
  0
LINE
  5
1E9
330
1F
100
AcDbEntity
  8
NoLayerName_001
  6
Continuous
 62
    30
370
    50
100
AcDbLine
 10
270.9419489585806
 20
220.3326759685925
 30
0.0
 11
270.9419489585806
 21
225.9326759685925
 31
0.0
  0
LINE
  5
1EA
330
1F
100
AcDbEntity
  8
NoLayerName_001
  6
Continuous
 62
    30
370
    50
100
AcDbLine
 10
268.9419489585808
 20
220.3326759685924
 30
0.0
 11
268.9419489585808
 21
225.9326759685925
 31
0.0
  0
ARC
  5
1EB
330
1F
100
AcDbEntity
  8
NoLayerName_001
  6
Continuous
 62
    30
370
    50
100
AcDbCircle
 10
268.7419489585807
 20
225.9326759685924
 30
0.0
 40
0.2
100
AcDbArc
 50
0.0
 51
90.0
  0
ARC
  5
1EC
330
1F
100
AcDbEntity
  8
NoLayerName_001
  6
Continuous
 62
    30
370
    50
100
AcDbCircle
 10
268.7419489585807
 20
220.3326759685924
 30
0.0
 40
0.2
100
AcDbArc
 50
270.0
 51
360.0
  0
LINE
  5
1ED
330
1F
100
AcDbEntity
  8
NoLayerName_001
  6
Continuous
 62
    30
370
    50
100
AcDbLine
 10
222.7419489585807
 20
220.1326759685925
 30
0.0
 11
198.1419489585807
 21
220.1326759685925
 31
0.0
  0
LINE
  5
1EE
330
1F
100
AcDbEntity
  8
NoLayerName_001
  6
Continuous
 62
    30
370
    50
100
AcDbLine
 10
271.1419489585806
 20
220.1326759685925
 30
0.0
 11
295.7419489585807
 21
220.1326759685925
 31
0.0
  0
LINE
  5
1EF
330
1F
100
AcDbEntity
  8
NoLayerName_001
  6
Continuous
 62
    30
370
    50
100
AcDbLine
 10
268.7419489585807
 20
220.1326759685925
 30
0.0
 11
225.1419489585806
 21
220.1326759685925
 31
0.0
  0
LINE
  5
1F0
330
1F
100
AcDbEntity
  8
NoLayerName_001
  6
Continuous
 62
    30
370
    50
100
AcDbLine
 10
250.8999888501305
 20
276.1326759685924
 30
0.0
 11
263.7482078617324
 21
276.1326759685924
 31
0.0
  0
LINE
  5
1F1
330
1F
100
AcDbEntity
  8
NoLayerName_001
  6
Continuous
 62
    30
370
    50
100
AcDbLine
 10
133.0569473070539
 20
305.6326759685923
 30
0.0
 11
133.0569473070539
 21
303.6326759685924
 31
0.0
  0
LINE
  5
1F2
330
1F
100
AcDbEntity
  8
NoLayerName_001
  6
Continuous
 62
    30
370
    50
100
AcDbLine
 10
132.0569473070539
 20
305.6326759685923
 30
0.0
 11
132.0569473070539
 21
303.6326759685924
 31
0.0
  0
LINE
  5
1F3
330
1F
100
AcDbEntity
  8
NoLayerName_001
  6
Continuous
 62
    30
370
    50
100
AcDbLine
 10
133.0569473070539
 20
297.6326759685925
 30
0.0
 11
133.0569473070539
 21
299.6326759685924
 31
0.0
  0
LINE
  5
1F4
330
1F
100
AcDbEntity
  8
NoLayerName_001
  6
Continuous
 62
    30
370
    50
100
AcDbLine
 10
132.0569473070539
 20
297.6326759685925
 30
0.0
 11
132.0569473070539
 21
299.6326759685924
 31
0.0
  0
LINE
  5
1F5
330
1F
100
AcDbEntity
  8
NoLayerName_001
  6
Continuous
 62
    30
370
    50
100
AcDbLine
 10
133.0569473070539
 20
280.6326759685923
 30
0.0
 11
133.0569473070539
 21
278.6326759685924
 31
0.0
  0
LINE
  5
1F6
330
1F
100
AcDbEntity
  8
NoLayerName_001
  6
Continuous
 62
    30
370
    50
100
AcDbLine
 10
132.0569473070539
 20
280.6326759685923
 30
0.0
 11
132.0569473070539
 21
278.6326759685924
 31
0.0
  0
LINE
  5
1F7
330
1F
100
AcDbEntity
  8
NoLayerName_001
  6
Continuous
 62
    30
370
    50
100
AcDbLine
 10
133.0569473070539
 20
272.6326759685925
 30
0.0
 11
133.0569473070539
 21
274.6326759685924
 31
0.0
  0
LINE
  5
1F8
330
1F
100
AcDbEntity
  8
NoLayerName_001
  6
Continuous
 62
    30
370
    50
100
AcDbLine
 10
132.0569473070539
 20
272.6326759685925
 30
0.0
 11
132.0569473070539
 21
274.6326759685924
 31
0.0
  0
LINE
  5
1F9
330
1F
100
AcDbEntity
  8
NoLayerName_001
  6
Continuous
 62
    30
370
    50
100
AcDbLine
 10
133.0569473070539
 20
255.6326759685921
 30
0.0
 11
133.0569473070539
 21
253.6326759685923
 31
0.0
  0
LINE
  5
1FA
330
1F
100
AcDbEntity
  8
NoLayerName_001
  6
Continuous
 62
    30
370
    50
100
AcDbLine
 10
132.0569473070539
 20
255.6326759685921
 30
0.0
 11
132.0569473070539
 21
253.6326759685923
 31
0.0
  0
LINE
  5
1FB
330
1F
100
AcDbEntity
  8
NoLayerName_001
  6
Continuous
 62
    30
370
    50
100
AcDbLine
 10
133.0569473070539
 20
247.6326759685924
 30
0.0
 11
133.0569473070539
 21
249.6326759685923
 31
0.0
  0
LINE
  5
1FC
330
1F
100
AcDbEntity
  8
NoLayerName_001
  6
Continuous
 62
    30
370
    50
100
AcDbLine
 10
132.0569473070539
 20
247.6326759685924
 30
0.0
 11
132.0569473070539
 21
249.6326759685923
 31
0.0
  0
LINE
  5
1FD
330
1F
100
AcDbEntity
  8
NoLayerName_001
  6
Continuous
 62
    30
370
    50
100
AcDbLine
 10
189.4419489585807
 20
131.7113342005114
 30
0.0
 11
189.4419489585807
 21
153.2113342005114
 31
0.0
  0
LINE
  5
1FE
330
1F
100
AcDbEntity
  8
NoLayerName_001
  6
DOTSX
 62
     7
370
    25
100
AcDbLine
 10
273.3419489585806
 20
151.7113342005114
 30
0.0
 11
273.3419489585806
 21
147.7113342005114
 31
0.0
  0
LINE
  5
1FF
330
1F
100
AcDbEntity
  8
NoLayerName_001
  6
Continuous
 62
    30
370
    50
100
AcDbLine
 10
189.4419489585807
 20
152.2113342005114
 30
0.0
 11
188.4419489585807
 21
152.7113342005114
 31
0.0
  0
LINE
  5
200
330
1F
100
AcDbEntity
  8
NoLayerName_001
  6
Continuous
 62
    30
370
    50
100
AcDbLine
 10
188.4419489585807
 20
152.7113342005114
 30
0.0
 11
189.4419489585807
 21
153.2113342005114
 31
0.0
  0
ARC
  5
201
330
1F
100
AcDbEntity
  8
NoLayerName_001
  6
Continuous
 62
    30
370
    50
100
AcDbCircle
 10
197.4419489585807
 20
131.2113342005114
 30
0.0
 40
2.0
100
AcDbArc
 50
180.0
 51
270.0
  0
ARC
  5
202
330
1F
100
AcDbEntity
  8
NoLayerName_001
  6
Continuous
 62
    30
370
    50
100
AcDbCircle
 10
296.4419489585807
 20
131.2113342005114
 30
0.0
 40
2.0
100
AcDbArc
 50
270.0
 51
0.0
  0
LINE
  5
203
330
1F
100
AcDbEntity
  8
NoLayerName_001
  6
DOTSX
 62
     4
370
    25
100
AcDbLine
 10
282.2419489585807
 20
134.6113342005114
 30
0.0
 11
282.4419489585807
 21
134.6113342005114
 31
0.0
  0
LINE
  5
204
330
1F
100
AcDbEntity
  8
NoLayerName_001
  6
Continuous
 62
    30
370
    50
100
AcDbLine
 10
189.4419489585807
 20
131.7113342005114
 30
0.0
 11
188.4419489585807
 21
132.2113342005114
 31
0.0
  0
LINE
  5
205
330
1F
100
AcDbEntity
  8
NoLayerName_001
  6
Continuous
 62
    30
370
    50
100
AcDbLine
 10
188.4419489585807
 20
132.2113342005114
 30
0.0
 11
189.4419489585807
 21
132.7113342005114
 31
0.0
  0
ARC
  5
206
330
1F
100
AcDbEntity
  8
NoLayerName_001
  6
Continuous
 62
    30
370
    50
100
AcDbCircle
 10
255.2419489585807
 20
143.0113342005114
 30
0.0
 40
11.30000000000001
100
AcDbArc
 50
180.0
 51
0.0
  0
ARC
  5
207
330
1F
100
AcDbEntity
  8
NoLayerName_001
  6
Continuous
 62
    30
370
    50
100
AcDbCircle
 10
267.3419489585808
 20
147.9113342005114
 30
0.0
 40
4.399999999999983
100
AcDbArc
 50
140.599431246263
 51
195.3243306927601
  0
ARC
  5
208
330
1F
100
AcDbEntity
  8
NoLayerName_001
  6
Continuous
 62
    30
370
    50
100
AcDbCircle
 10
243.1419489585807
 20
148.0113342005114
 30
0.0
 40
4.399999999999993
100
AcDbArc
 50
340.2997408184141
 51
39.4005687537373
  0
LINE
  5
209
330
1F
100
AcDbEntity
  8
NoLayerName_001
  6
Continuous
 62
    30
370
    50
100
AcDbLine
 10
189.4419489585807
 20
131.7113342005114
 30
0.0
 11
195.4419489585807
 21
131.7113342005114
 31
0.0
  0
CIRCLE
  5
20A
330
1F
100
AcDbEntity
  8
NoLayerName_001
  6
Continuous
 62
    30
370
    50
100
AcDbCircle
 10
255.2419489585807
 20
143.0113342005114
 30
0.0
 40
8.7
  0
ARC
  5
20B
330
1F
100
AcDbEntity
  8
NoLayerName_001
  6
Continuous
 62
    30
370
    50
100
AcDbCircle
 10
284.6419489585806
 20
143.0113342005114
 30
0.0
 40
11.30000000000001
100
AcDbArc
 50
180.0
 51
0.0
  0
ARC
  5
20C
330
1F
100
AcDbEntity
  8
NoLayerName_001
  6
Continuous
 62
    30
370
    50
100
AcDbCircle
 10
272.5419489585806
 20
147.9113342005114
 30
0.0
 40
4.399999999999983
100
AcDbArc
 50
344.6756693072398
 51
39.40056875373702
  0
ARC
  5
20D
330
1F
100
AcDbEntity
  8
NoLayerName_001
  6
Continuous
 62
    30
370
    50
100
AcDbCircle
 10
296.7419489585806
 20
148.0113342005114
 30
0.0
 40
4.399999999999993
100
AcDbArc
 50
140.5994312462627
 51
199.7002591815859
  0
CIRCLE
  5
20E
330
1F
100
AcDbEntity
  8
NoLayerName_001
  6
Continuous
 62
    30
370
    50
100
AcDbCircle
 10
284.6419489585806
 20
143.0113342005114
 30
0.0
 40
8.7
  0
ARC
  5
20F
330
1F
100
AcDbEntity
  8
NoLayerName_001
  6
Continuous
 62
    30
370
    50
100
AcDbCircle
 10
209.2419489585807
 20
143.0113342005114
 30
0.0
 40
11.30000000000001
100
AcDbArc
 50
180.0
 51
0.0
  0
ARC
  5
210
330
1F
100
AcDbEntity
  8
NoLayerName_001
  6
Continuous
 62
    30
370
    50
100
AcDbCircle
 10
221.3419489585808
 20
147.9113342005114
 30
0.0
 40
4.399999999999983
100
AcDbArc
 50
140.599431246263
 51
195.3243306927601
  0
ARC
  5
211
330
1F
100
AcDbEntity
  8
NoLayerName_001
  6
Continuous
 62
    30
370
    50
100
AcDbCircle
 10
197.1419489585807
 20
148.0113342005114
 30
0.0
 40
4.399999999999993
100
AcDbArc
 50
340.2997408184141
 51
39.4005687537373
  0
CIRCLE
  5
212
330
1F
100
AcDbEntity
  8
NoLayerName_001
  6
Continuous
 62
    30
370
    50
100
AcDbCircle
 10
209.2419489585807
 20
143.0113342005114
 30
0.0
 40
8.7
  0
LINE
  5
213
330
1F
100
AcDbEntity
  8
NoLayerName_001
  6
Continuous
 62
    30
370
    50
100
AcDbLine
 10
296.4419489585807
 20
129.2113342005114
 30
0.0
 11
197.4419489585807
 21
129.2113342005114
 31
0.0
  0
LINE
  5
214
330
1F
100
AcDbEntity
  8
NoLayerName_001
  6
CENTER
 62
     3
370
    25
100
AcDbLine
 10
246.9419489585807
 20
161.4442090679983
 30
0.0
 11
246.9419489585807
 21
122.2318193671317
 31
0.0
  0
LINE
  5
215
330
1F
100
AcDbEntity
  8
NoLayerName_001
  6
Continuous
 62
    30
370
    50
100
AcDbLine
 10
200.5419489585807
 20
154.2113342005113
 30
0.0
 11
200.5419489585807
 21
150.8041822092651
 31
0.0
  0
LINE
  5
216
330
1F
100
AcDbEntity
  8
NoLayerName_001
  6
Continuous
 62
    30
370
    50
100
AcDbLine
 10
197.9419489585807
 20
143.0113342005114
 30
0.0
 11
197.9419489585807
 21
156.2113342005114
 31
0.0
  0
LINE
  5
217
330
1F
100
AcDbEntity
  8
NoLayerName_001
  6
Continuous
 62
    30
370
    50
100
AcDbLine
 10
217.9419489585807
 20
154.2113342005113
 30
0.0
 11
217.9419489585807
 21
150.7041822092652
 31
0.0
  0
LINE
  5
218
330
1F
100
AcDbEntity
  8
NoLayerName_001
  6
Continuous
 62
    30
370
    50
100
AcDbLine
 10
220.5419489585807
 20
143.0113342005114
 30
0.0
 11
220.5419489585807
 21
156.2113342005114
 31
0.0
  0
LINE
  5
219
330
1F
100
AcDbEntity
  8
NoLayerName_001
  6
Continuous
 62
    30
370
    50
100
AcDbLine
 10
243.9419489585807
 20
143.0113342005114
 30
0.0
 11
243.9419489585807
 21
156.2113342005114
 31
0.0
  0
LINE
  5
21A
330
1F
100
AcDbEntity
  8
NoLayerName_001
  6
Continuous
 62
    30
370
    50
100
AcDbLine
 10
246.5419489585807
 20
154.2113342005113
 30
0.0
 11
246.5419489585807
 21
150.8041822092651
 31
0.0
  0
LINE
  5
21B
330
1F
100
AcDbEntity
  8
NoLayerName_001
  6
Continuous
 62
    30
370
    50
100
AcDbLine
 10
263.9419489585807
 20
154.2113342005113
 30
0.0
 11
263.9419489585807
 21
150.7041822092652
 31
0.0
  0
LINE
  5
21C
330
1F
100
AcDbEntity
  8
NoLayerName_001
  6
Continuous
 62
    30
370
    50
100
AcDbLine
 10
266.5419489585807
 20
143.0113342005114
 30
0.0
 11
266.5419489585807
 21
156.2113342005114
 31
0.0
  0
LINE
  5
21D
330
1F
100
AcDbEntity
  8
NoLayerName_001
  6
Continuous
 62
    30
370
    50
100
AcDbLine
 10
275.9419489585806
 20
154.2113342005113
 30
0.0
 11
275.9419489585806
 21
150.7041822092652
 31
0.0
  0
LINE
  5
21E
330
1F
100
AcDbEntity
  8
NoLayerName_001
  6
Continuous
 62
    30
370
    50
100
AcDbLine
 10
273.3419489585806
 20
143.0113342005114
 30
0.0
 11
273.3419489585806
 21
156.2113342005114
 31
0.0
  0
LINE
  5
21F
330
1F
100
AcDbEntity
  8
NoLayerName_001
  6
Continuous
 62
    30
370
    50
100
AcDbLine
 10
293.3419489585806
 20
154.2113342005113
 30
0.0
 11
293.3419489585806
 21
150.8041822092651
 31
0.0
  0
LINE
  5
220
330
1F
100
AcDbEntity
  8
NoLayerName_001
  6
Continuous
 62
    30
370
    50
100
AcDbLine
 10
295.9419489585807
 20
143.0113342005114
 30
0.0
 11
295.9419489585807
 21
156.2113342005114
 31
0.0
  0
LINE
  5
221
330
1F
100
AcDbEntity
  8
NoLayerName_001
  6
Continuous
 62
    30
370
    50
100
AcDbLine
 10
247.4419489585807
 20
129.2113342005114
 30
0.0
 11
247.4419489585807
 21
131.2113342005114
 31
0.0
  0
LINE
  5
222
330
1F
100
AcDbEntity
  8
NoLayerName_001
  6
Continuous
 62
    30
370
    50
100
AcDbLine
 10
246.4419489585807
 20
131.2113342005114
 30
0.0
 11
247.4419489585807
 21
131.2113342005114
 31
0.0
  0
LINE
  5
223
330
1F
100
AcDbEntity
  8
NoLayerName_001
  6
Continuous
 62
    30
370
    50
100
AcDbLine
 10
246.4419489585807
 20
129.2113342005114
 30
0.0
 11
246.4419489585807
 21
131.2113342005114
 31
0.0
  0
LINE
  5
224
330
1F
100
AcDbEntity
  8
NoLayerName_001
  6
Continuous
 62
    30
370
    50
100
AcDbLine
 10
195.9035549378276
 20
153.2113342005113
 30
0.0
 11
195.9035549378276
 21
151.2113342005113
 31
0.0
  0
LINE
  5
225
330
1F
100
AcDbEntity
  8
NoLayerName_001
  6
Continuous
 62
    30
370
    50
100
AcDbLine
 10
195.9035549378276
 20
151.2113342005114
 30
0.0
 11
189.4419489585807
 21
151.2113342005114
 31
0.0
  0
LINE
  5
226
330
1F
100
AcDbEntity
  8
NoLayerName_001
  6
Continuous
 62
    30
370
    50
100
AcDbLine
 10
195.4419489585807
 20
131.2113342005114
 30
0.0
 11
195.4419489585807
 21
151.2113342005114
 31
0.0
  0
LINE
  5
227
330
1F
100
AcDbEntity
  8
NoLayerName_001
  6
Continuous
 62
    30
370
    50
100
AcDbLine
 10
195.4419489585807
 20
153.2113342005113
 30
0.0
 11
195.4419489585807
 21
156.2113342005113
 31
0.0
  0
LINE
  5
228
330
1F
100
AcDbEntity
  8
NoLayerName_001
  6
Continuous
 62
    30
370
    50
100
AcDbLine
 10
189.4419489585807
 20
153.2113342005113
 30
0.0
 11
195.9035549378276
 21
153.2113342005113
 31
0.0
  0
ARC
  5
229
330
1F
100
AcDbEntity
  8
NoLayerName_001
  6
Continuous
 62
    30
370
    50
100
AcDbCircle
 10
137.5569473070539
 20
276.6326759685924
 30
0.0
 40
2.0
100
AcDbArc
 50
270.0
 51
90.00000000000001
  0
LINE
  5
22A
330
1F
100
AcDbEntity
  8
NoLayerName_001
  6
Continuous
 62
    30
370
    50
100
AcDbLine
 10
200.5419489585807
 20
329.1326759685923
 30
0.0
 11
217.9419489585807
 21
329.1326759685923
 31
0.0
  0
LINE
  5
22B
330
1F
100
AcDbEntity
  8
NoLayerName_001
  6
Continuous
 62
    30
370
    50
100
AcDbLine
 10
217.9419489585807
 20
327.1326759685923
 30
0.0
 11
217.9419489585807
 21
329.1326759685923
 31
0.0
  0
LINE
  5
22C
330
1F
100
AcDbEntity
  8
NoLayerName_001
  6
Continuous
 62
    30
370
    50
100
AcDbLine
 10
200.5419489585807
 20
327.1326759685923
 30
0.0
 11
200.5419489585807
 21
329.1326759685923
 31
0.0
  0
LINE
  5
22D
330
1F
100
AcDbEntity
  8
NoLayerName_001
  6
Continuous
 62
    30
370
    50
100
AcDbLine
 10
246.5419489585808
 20
329.1326759685923
 30
0.0
 11
263.9419489585808
 21
329.1326759685923
 31
0.0
  0
LINE
  5
22E
330
1F
100
AcDbEntity
  8
NoLayerName_001
  6
Continuous
 62
    30
370
    50
100
AcDbLine
 10
263.9419489585808
 20
327.1326759685923
 30
0.0
 11
263.9419489585808
 21
329.1326759685923
 31
0.0
  0
LINE
  5
22F
330
1F
100
AcDbEntity
  8
NoLayerName_001
  6
Continuous
 62
    30
370
    50
100
AcDbLine
 10
246.5419489585808
 20
327.1326759685923
 30
0.0
 11
246.5419489585808
 21
329.1326759685923
 31
0.0
  0
LINE
  5
230
330
1F
100
AcDbEntity
  8
NoLayerName_001
  6
Continuous
 62
    30
370
    50
100
AcDbLine
 10
275.9419489585807
 20
329.1326759685923
 30
0.0
 11
293.3419489585806
 21
329.1326759685923
 31
0.0
  0
LINE
  5
231
330
1F
100
AcDbEntity
  8
NoLayerName_001
  6
Continuous
 62
    30
370
    50
100
AcDbLine
 10
293.3419489585806
 20
327.1326759685923
 30
0.0
 11
293.3419489585806
 21
329.1326759685923
 31
0.0
  0
LINE
  5
232
330
1F
100
AcDbEntity
  8
NoLayerName_001
  6
Continuous
 62
    30
370
    50
100
AcDbLine
 10
275.9419489585807
 20
327.1326759685923
 30
0.0
 11
275.9419489585807
 21
329.1326759685923
 31
0.0
  0
LINE
  5
233
330
1F
100
AcDbEntity
  8
NoLayerName_001
  6
Continuous
 62
    30
370
    50
100
AcDbLine
 10
200.5419489585807
 20
224.1326759685925
 30
0.0
 11
217.9419489585807
 21
224.1326759685925
 31
0.0
  0
LINE
  5
234
330
1F
100
AcDbEntity
  8
NoLayerName_001
  6
Continuous
 62
    30
370
    50
100
AcDbLine
 10
217.9419489585807
 20
226.1326759685925
 30
0.0
 11
217.9419489585807
 21
224.1326759685925
 31
0.0
  0
LINE
  5
235
330
1F
100
AcDbEntity
  8
NoLayerName_001
  6
Continuous
 62
    30
370
    50
100
AcDbLine
 10
200.5419489585807
 20
226.1326759685925
 30
0.0
 11
200.5419489585807
 21
224.1326759685925
 31
0.0
  0
LINE
  5
236
330
1F
100
AcDbEntity
  8
NoLayerName_001
  6
Continuous
 62
    30
370
    50
100
AcDbLine
 10
246.5419489585808
 20
224.1326759685925
 30
0.0
 11
263.9419489585808
 21
224.1326759685925
 31
0.0
  0
LINE
  5
237
330
1F
100
AcDbEntity
  8
NoLayerName_001
  6
Continuous
 62
    30
370
    50
100
AcDbLine
 10
263.9419489585808
 20
226.1326759685925
 30
0.0
 11
263.9419489585808
 21
224.1326759685925
 31
0.0
  0
LINE
  5
238
330
1F
100
AcDbEntity
  8
NoLayerName_001
  6
Continuous
 62
    30
370
    50
100
AcDbLine
 10
246.5419489585808
 20
226.1326759685925
 30
0.0
 11
246.5419489585808
 21
224.1326759685925
 31
0.0
  0
LINE
  5
239
330
1F
100
AcDbEntity
  8
NoLayerName_001
  6
Continuous
 62
    30
370
    50
100
AcDbLine
 10
275.9419489585807
 20
224.1326759685925
 30
0.0
 11
293.3419489585806
 21
224.1326759685925
 31
0.0
  0
LINE
  5
23A
330
1F
100
AcDbEntity
  8
NoLayerName_001
  6
Continuous
 62
    30
370
    50
100
AcDbLine
 10
293.3419489585806
 20
226.1326759685925
 30
0.0
 11
293.3419489585806
 21
224.1326759685925
 31
0.0
  0
LINE
  5
23B
330
1F
100
AcDbEntity
  8
NoLayerName_001
  6
DOTSX
 62
     7
370
    25
100
AcDbLine
 10
143.5569473070539
 20
278.1326759685924
 30
0.0
 11
143.5569473070539
 21
275.1326759685924
 31
0.0
  0
LINE
  5
23C
330
1F
100
AcDbEntity
  8
NoLayerName_001
  6
Continuous
 62
    30
370
    50
100
AcDbLine
 10
144.5569473070539
 20
278.1326759685924
 30
0.0
 11
141.5569473070538
 21
278.1326759685924
 31
0.0
  0
LINE
  5
23D
330
1F
100
AcDbEntity
  8
NoLayerName_001
  6
Continuous
 62
    30
370
    50
100
AcDbLine
 10
144.5569473070539
 20
275.1326759685924
 30
0.0
 11
141.5569473070538
 21
275.1326759685924
 31
0.0
  0
LINE
  5
23E
330
1F
100
AcDbEntity
  8
NoLayerName_001
  6
CENTER
 62
     3
370
    25
100
AcDbLine
 10
144.5569473070539
 20
276.6326759685924
 30
0.0
 11
150.9662312576614
 21
276.6326759685924
 31
0.0
  0
LINE
  5
23F
330
1F
100
AcDbEntity
  8
NoLayerName_001
  6
Continuous
 62
    30
370
    50
100
AcDbLine
 10
144.5569473070539
 20
276.6326759685924
 30
0.0
 11
141.5569473070539
 21
276.6326759685924
 31
0.0
  0
LINE
  5
240
330
1F
100
AcDbEntity
  8
NoLayerName_001
  6
Continuous
 62
    30
370
    50
100
AcDbLine
 10
192.9419489585807
 20
278.1326759685924
 30
0.0
 11
195.4419489585807
 21
278.1326759685924
 31
0.0
  0
LINE
  5
241
330
1F
100
AcDbEntity
  8
NoLayerName_001
  6
Continuous
 62
    30
370
    50
100
AcDbLine
 10
192.9419489585807
 20
275.1326759685924
 30
0.0
 11
195.4419489585807
 21
275.1326759685924
 31
0.0
  0
LINE
  5
242
330
1F
100
AcDbEntity
  8
NoLayerName_001
  6
Continuous
 62
    30
370
    50
100
AcDbLine
 10
192.9419489585807
 20
155.2113342005113
 30
0.0
 11
193.9419489585806
 21
155.2113342005113
 31
0.0
  0
LINE
  5
243
330
1F
100
AcDbEntity
  8
NoLayerName_001
  6
Continuous
 62
    30
370
    50
100
AcDbLine
 10
190.4419489585807
 20
156.2113342005113
 30
0.0
 11
190.4419489585807
 21
153.2113342005113
 31
0.0
  0
LINE
  5
244
330
1F
100
AcDbEntity
  8
NoLayerName_001
  6
Continuous
 62
    30
370
    50
100
AcDbLine
 10
192.9419489585807
 20
156.2113342005113
 30
0.0
 11
190.4419489585806
 21
156.2113342005113
 31
0.0
  0
LINE
  5
245
330
1F
100
AcDbEntity
  8
NoLayerName_001
  6
Continuous
 62
    30
370
    50
100
AcDbLine
 10
192.9419489585807
 20
156.2113342005113
 30
0.0
 11
192.9419489585807
 21
153.2113342005113
 31
0.0
  0
LINE
  5
246
330
1F
100
AcDbEntity
  8
NoLayerName_001
  6
Continuous
 62
    30
370
    50
100
AcDbLine
 10
340.8816381420425
 20
335.6326759685923
 30
0.0
 11
340.8816381420425
 21
217.6326759685925
 31
0.0
  0
ARC
  5
247
330
1F
100
AcDbEntity
  8
NoLayerName_001
  6
Continuous
 62
     7
370
    50
100
AcDbCircle
 10
240.1419489585806
 20
323.8326759685923
 30
0.0
 40
0.2
100
AcDbArc
 50
180.0
 51
270.0
  0
ARC
  5
248
330
1F
100
AcDbEntity
  8
NoLayerName_001
  6
Continuous
 62
     7
370
    50
100
AcDbCircle
 10
240.7419489585805
 20
323.8326759685923
 30
0.0
 40
0.2
100
AcDbArc
 50
270.0
 51
0.0
  0
ARC
  5
249
330
1F
100
AcDbEntity
  8
NoLayerName_001
  6
Continuous
 62
     7
370
    50
100
AcDbCircle
 10
243.1419489585806
 20
323.8326759685923
 30
0.0
 40
0.2
100
AcDbArc
 50
180.0
 51
270.0
  0
ARC
  5
24A
330
1F
100
AcDbEntity
  8
NoLayerName_001
  6
Continuous
 62
     7
370
    50
100
AcDbCircle
 10
243.7419489585805
 20
323.8326759685923
 30
0.0
 40
0.2
100
AcDbArc
 50
270.0
 51
0.0
  0
ARC
  5
24B
330
1F
100
AcDbEntity
  8
NoLayerName_001
  6
Continuous
 62
     7
370
    50
100
AcDbCircle
 10
240.1419489585806
 20
229.4326759685923
 30
0.0
 40
0.2
100
AcDbArc
 50
90.0
 51
180.0
  0
ARC
  5
24C
330
1F
100
AcDbEntity
  8
NoLayerName_001
  6
Continuous
 62
     7
370
    50
100
AcDbCircle
 10
240.7419489585805
 20
229.4326759685923
 30
0.0
 40
0.2
100
AcDbArc
 50
0.0
 51
90.0
  0
ARC
  5
24D
330
1F
100
AcDbEntity
  8
NoLayerName_001
  6
Continuous
 62
     7
370
    50
100
AcDbCircle
 10
243.1419489585806
 20
229.4326759685923
 30
0.0
 40
0.2
100
AcDbArc
 50
90.0
 51
180.0
  0
ARC
  5
24E
330
1F
100
AcDbEntity
  8
NoLayerName_001
  6
Continuous
 62
     7
370
    50
100
AcDbCircle
 10
243.7419489585805
 20
229.4326759685923
 30
0.0
 40
0.2
100
AcDbArc
 50
0.0
 51
90.0
  0
LINE
  5
24F
330
1F
100
AcDbEntity
  8
NoLayerName_001
  6
Continuous
 62
    30
370
    50
100
AcDbLine
 10
275.9419489585807
 20
226.1326759685925
 30
0.0
 11
275.9419489585807
 21
224.1326759685925
 31
0.0
  0
LINE
  5
250
330
1F
100
AcDbEntity
  8
NoLayerName_001
  6
Continuous
 62
    30
370
    50
100
AcDbLine
 10
218.9419489585807
 20
227.1326759685925
 30
0.0
 11
197.9419489585807
 21
227.1326759685925
 31
0.0
  0
LINE
  5
251
330
1F
100
AcDbEntity
  8
NoLayerName_001
  6
Continuous
 62
    30
370
    50
100
AcDbLine
 10
228.9419489585807
 20
227.1326759685925
 30
0.0
 11
264.9419489585807
 21
227.1326759685925
 31
0.0
  0
LINE
  5
252
330
1F
100
AcDbEntity
  8
NoLayerName_001
  6
Continuous
 62
    30
370
    50
100
AcDbLine
 10
274.9419489585807
 20
227.1326759685925
 30
0.0
 11
295.9419489585807
 21
227.1326759685925
 31
0.0
  0
LINE
  5
253
330
1F
100
AcDbEntity
  8
NoLayerName_001
  6
Continuous
 62
    30
370
    50
100
AcDbLine
 10
274.9419489585807
 20
227.1326759685925
 30
0.0
 11
274.9419489585807
 21
234.8826759685924
 31
0.0
  0
LINE
  5
254
330
1F
100
AcDbEntity
  8
NoLayerName_001
  6
Continuous
 62
    30
370
    50
100
AcDbLine
 10
264.9419489585807
 20
227.1326759685925
 30
0.0
 11
264.9419489585807
 21
234.8826759685924
 31
0.0
  0
LINE
  5
255
330
1F
100
AcDbEntity
  8
NoLayerName_001
  6
Continuous
 62
    30
370
    50
100
AcDbLine
 10
228.9419489585807
 20
227.1326759685925
 30
0.0
 11
228.9419489585807
 21
234.8826759685924
 31
0.0
  0
LINE
  5
256
330
1F
100
AcDbEntity
  8
NoLayerName_001
  6
Continuous
 62
    30
370
    50
100
AcDbLine
 10
218.9419489585807
 20
227.1326759685925
 30
0.0
 11
218.9419489585807
 21
234.8826759685924
 31
0.0
  0
LINE
  5
257
330
1F
100
AcDbEntity
  8
NoLayerName_001
  6
Continuous
 62
    30
370
    50
100
AcDbLine
 10
218.9419489585807
 20
326.1326759685923
 30
0.0
 11
197.9419489585807
 21
326.1326759685923
 31
0.0
  0
LINE
  5
258
330
1F
100
AcDbEntity
  8
NoLayerName_001
  6
Continuous
 62
    30
370
    50
100
AcDbLine
 10
228.9419489585807
 20
326.1326759685923
 30
0.0
 11
264.9419489585807
 21
326.1326759685923
 31
0.0
  0
LINE
  5
259
330
1F
100
AcDbEntity
  8
NoLayerName_001
  6
Continuous
 62
    30
370
    50
100
AcDbLine
 10
274.9419489585807
 20
326.1326759685923
 30
0.0
 11
295.9419489585807
 21
326.1326759685923
 31
0.0
  0
LINE
  5
25A
330
1F
100
AcDbEntity
  8
NoLayerName_001
  6
Continuous
 62
    30
370
    50
100
AcDbLine
 10
228.9419489585807
 20
326.1326759685923
 30
0.0
 11
228.9419489585807
 21
318.3826759685924
 31
0.0
  0
LINE
  5
25B
330
1F
100
AcDbEntity
  8
NoLayerName_001
  6
Continuous
 62
    30
370
    50
100
AcDbLine
 10
264.9419489585807
 20
326.1326759685923
 30
0.0
 11
264.9419489585807
 21
318.3826759685924
 31
0.0
  0
LINE
  5
25C
330
1F
100
AcDbEntity
  8
NoLayerName_001
  6
Continuous
 62
    30
370
    50
100
AcDbLine
 10
274.9419489585807
 20
326.1326759685923
 30
0.0
 11
274.9419489585807
 21
318.3826759685924
 31
0.0
  0
LINE
  5
25D
330
1F
100
AcDbEntity
  8
NoLayerName_001
  6
Continuous
 62
    30
370
    50
100
AcDbLine
 10
197.9419489585807
 20
324.6326759685923
 30
0.0
 11
295.9419489585807
 21
324.6326759685923
 31
0.0
  0
LINE
  5
25E
330
1F
100
AcDbEntity
  8
NoLayerName_001
  6
Continuous
 62
    30
370
    50
100
AcDbLine
 10
218.9419489585807
 20
326.1326759685923
 30
0.0
 11
218.9419489585807
 21
318.3826759685924
 31
0.0
  0
LINE
  5
25F
330
1F
100
AcDbEntity
  8
NoLayerName_001
  6
Continuous
 62
    30
370
    50
100
AcDbLine
 10
193.9419489585807
 20
156.2113342005113
 30
0.0
 11
193.9419489585807
 21
153.2113342005113
 31
0.0
  0
LINE
  5
260
330
1F
100
AcDbEntity
  8
NoLayerName_001
  6
Continuous
 62
    30
370
    50
100
AcDbLine
 10
367.8816381420425
 20
334.6326759685923
 30
0.0
 11
367.8816381420425
 21
218.6326759685925
 31
0.0
  0
ARC
  5
261
330
1F
100
AcDbEntity
  8
NoLayerName_001
  6
Continuous
 62
    30
370
    50
100
AcDbCircle
 10
355.8816381420425
 20
276.6326759685924
 30
0.0
 40
11.3
100
AcDbArc
 50
90.0
 51
270.0
  0
ARC
  5
262
330
1F
100
AcDbEntity
  8
NoLayerName_001
  6
Continuous
 62
    30
370
    50
100
AcDbCircle
 10
355.8816381420425
 20
276.6326759685924
 30
0.0
 40
8.700000000000001
100
AcDbArc
 50
66.1573959366807
 51
295.4395264404013
  0
ARC
  5
263
330
1F
100
AcDbEntity
  8
NoLayerName_001
  6
Continuous
 62
    30
370
    50
100
AcDbCircle
 10
360.7816381420424
 20
264.5326759685922
 30
0.0
 40
4.400000000000002
100
AcDbArc
 50
46.6171097138815
 51
105.3243306927578
  0
LINE
  5
264
330
1F
100
AcDbEntity
  8
NoLayerName_001
  6
Continuous
 62
    30
370
    50
100
AcDbLine
 10
363.8038683853068
 20
267.7305071643714
 30
0.0
 11
367.8816381420424
 21
267.3326759685923
 31
0.0
  0
LINE
  5
265
330
1F
100
AcDbEntity
  8
NoLayerName_001
  6
Continuous
 62
    30
370
    50
100
AcDbLine
 10
355.8816381420425
 20
265.3326759685924
 30
0.0
 11
367.8816381420425
 21
265.3326759685924
 31
0.0
  0
ARC
  5
266
330
1F
100
AcDbEntity
  8
NoLayerName_001
  6
Continuous
 62
    30
370
    50
100
AcDbCircle
 10
360.8816381420425
 20
288.7326759685923
 30
0.0
 40
4.400000000000007
100
AcDbArc
 50
250.2997408184152
 51
311.4363062761688
  0
LINE
  5
267
330
1F
100
AcDbEntity
  8
NoLayerName_001
  6
Continuous
 62
    30
370
    50
100
AcDbLine
 10
363.793501166214
 20
285.4340317427834
 30
0.0
 11
367.8816381420424
 21
285.9012473971638
 31
0.0
  0
LINE
  5
268
330
1F
100
AcDbEntity
  8
NoLayerName_001
  6
Continuous
 62
    30
370
    50
100
AcDbLine
 10
355.8816381420425
 20
287.9326759685923
 30
0.0
 11
367.8816381420425
 21
287.9326759685923
 31
0.0
  0
ARC
  5
269
330
1F
100
AcDbEntity
  8
NoLayerName_001
  6
Continuous
 62
    30
370
    50
100
AcDbCircle
 10
360.7816381420424
 20
264.5326759685922
 30
0.0
 40
5.600000000000002
100
AcDbArc
 50
51.04696369556029
 51
106.5161918312715
  0
ARC
  5
26A
330
1F
100
AcDbEntity
  8
NoLayerName_001
  6
Continuous
 62
    30
370
    50
100
AcDbCircle
 10
360.8816381420425
 20
288.7326759685923
 30
0.0
 40
5.600000000000007
100
AcDbArc
 50
250.2997408184152
 51
307.3643811565787
  0
LINE
  5
26B
330
1F
100
AcDbEntity
  8
NoLayerName_001
  6
Continuous
 62
    30
370
    50
100
AcDbLine
 10
364.2801765678731
 20
284.2818404775691
 30
0.0
 11
367.8816381420425
 21
284.6934360860456
 31
0.0
  0
LINE
  5
26C
330
1F
100
AcDbEntity
  8
NoLayerName_001
  6
Continuous
 62
    30
370
    50
100
AcDbLine
 10
364.3022639254892
 20
268.8875805706392
 30
0.0
 11
367.8816381420426
 21
268.5383733299998
 31
0.0
  0
LINE
  5
26D
330
1F
100
AcDbEntity
  8
NoLayerName_001
  6
Continuous
 62
    30
370
    50
100
AcDbLine
 10
365.3816381420425
 20
284.4077218003312
 30
0.0
 11
365.3816381420425
 21
285.6155331114495
 31
0.0
  0
LINE
  5
26E
330
1F
100
AcDbEntity
  8
NoLayerName_001
  6
Continuous
 62
    30
370
    50
100
AcDbLine
 10
365.3816381420425
 20
268.7822757690243
 30
0.0
 11
365.3816381420425
 21
267.5315915664819
 31
0.0
  0
LINE
  5
26F
330
1F
100
AcDbEntity
  8
NoLayerName_001
  6
Continuous
 62
    30
370
    50
100
AcDbLine
 10
348.4782605344906
 20
277.8326759685923
 30
0.0
 11
347.2283150809289
 21
277.5326759685923
 31
0.0
  0
LINE
  5
270
330
1F
100
AcDbEntity
  8
NoLayerName_001
  6
Continuous
 62
    30
370
    50
100
AcDbLine
 10
348.4782605344906
 20
275.4326759685923
 30
0.0
 11
347.2283150809289
 21
275.7326759685923
 31
0.0
  0
LINE
  5
271
330
1F
100
AcDbEntity
  8
NoLayerName_001
  6
Continuous
 62
    30
370
    50
100
AcDbLine
 10
362.5789944968317
 20
284.6732448009461
 30
0.0
 11
363.0762794666523
 21
283.5806327373766
 31
0.0
  0
LINE
  5
272
330
1F
100
AcDbEntity
  8
NoLayerName_001
  6
Continuous
 62
    30
370
    50
100
AcDbLine
 10
360.8063405414096
 20
284.3606780811457
 30
0.0
 11
360.7127408594229
 21
283.163877110976
 31
0.0
  0
LINE
  5
273
330
1F
100
AcDbEntity
  8
NoLayerName_001
  6
Continuous
 62
    30
370
    50
100
AcDbLine
 10
365.8816381420425
 20
277.1326759685924
 30
0.0
 11
367.8816381420425
 21
277.1326759685924
 31
0.0
  0
LINE
  5
274
330
1F
100
AcDbEntity
  8
NoLayerName_001
  6
Continuous
 62
    30
370
    50
100
AcDbLine
 10
365.8816381420425
 20
276.1326759685924
 30
0.0
 11
367.8816381420425
 21
276.1326759685924
 31
0.0
  0
LINE
  5
275
330
1F
100
AcDbEntity
  8
NoLayerName_001
  6
Continuous
 62
    30
370
    50
100
AcDbLine
 10
365.8816381420425
 20
277.1326759685924
 30
0.0
 11
365.8816381420425
 21
276.1326759685924
 31
0.0
  0
ARC
  5
276
330
1F
100
AcDbEntity
  8
NoLayerName_001
  6
Continuous
 62
    30
370
    50
100
AcDbCircle
 10
355.8816381420425
 20
276.6326759685924
 30
0.0
 40
7.5
100
AcDbArc
 50
65.49550409591605
 51
296.17193073089
  0
LINE
  5
277
330
1F
100
AcDbEntity
  8
NoLayerName_001
  6
Continuous
 62
    30
370
    50
100
AcDbLine
 10
362.5789944968317
 20
268.5921071362386
 30
0.0
 11
363.0762794666524
 21
269.6847191998081
 31
0.0
  0
LINE
  5
278
330
1F
100
AcDbEntity
  8
NoLayerName_001
  6
Continuous
 62
    30
370
    50
100
AcDbLine
 10
360.8063405414096
 20
268.904673856039
 30
0.0
 11
360.7127408594229
 21
270.1014748262087
 31
0.0
  0
LINE
  5
279
330
1F
100
AcDbEntity
  8
NoLayerName_001
  6
Continuous
 62
    30
370
    50
100
AcDbLine
 10
359.8816381420425
 20
299.6326759685924
 30
0.0
 11
347.8816381420425
 21
299.6326759685924
 31
0.0
  0
LINE
  5
27A
330
1F
100
AcDbEntity
  8
NoLayerName_001
  6
Continuous
 62
    30
370
    50
100
AcDbLine
 10
359.309923827751
 20
300.2326759685924
 30
0.0
 11
346.4533524563338
 21
300.2326759685924
 31
0.0
  0
LINE
  5
27B
330
1F
100
AcDbEntity
  8
NoLayerName_001
  6
Continuous
 62
    30
370
    50
100
AcDbLine
 10
359.309923827751
 20
303.0326759685923
 30
0.0
 11
346.4533524563338
 21
303.0326759685923
 31
0.0
  0
LINE
  5
27C
330
1F
100
AcDbEntity
  8
NoLayerName_001
  6
Continuous
 62
    30
370
    50
100
AcDbLine
 10
359.8816381420425
 20
303.6326759685924
 30
0.0
 11
347.8816381420425
 21
303.6326759685924
 31
0.0
  0
ARC
  5
27D
330
1F
100
AcDbEntity
  8
NoLayerName_001
  6
Continuous
 62
    30
370
    50
100
AcDbCircle
 10
359.8816381420425
 20
301.6326759685924
 30
0.0
 40
2.0
100
AcDbArc
 50
270.0
 51
90.0
  0
ARC
  5
27E
330
1F
100
AcDbEntity
  8
NoLayerName_001
  6
Continuous
 62
    30
370
    50
100
AcDbCircle
 10
357.8816381420425
 20
301.6326759685924
 30
0.0
 40
2.0
100
AcDbArc
 50
270.0
 51
90.0
  0
ARC
  5
27F
330
1F
100
AcDbEntity
  8
NoLayerName_001
  6
Continuous
 62
    30
370
    50
100
AcDbCircle
 10
347.8816381420425
 20
301.6326759685924
 30
0.0
 40
2.0
100
AcDbArc
 50
90.0
 51
270.0
  0
LINE
  5
280
330
1F
100
AcDbEntity
  8
NoLayerName_001
  6
Continuous
 62
    30
370
    50
100
AcDbLine
 10
359.8816381420425
 20
249.6326759685924
 30
0.0
 11
347.8816381420425
 21
249.6326759685924
 31
0.0
  0
LINE
  5
281
330
1F
100
AcDbEntity
  8
NoLayerName_001
  6
Continuous
 62
    30
370
    50
100
AcDbLine
 10
359.309923827751
 20
250.2326759685925
 30
0.0
 11
346.4533524563338
 21
250.2326759685925
 31
0.0
  0
LINE
  5
282
330
1F
100
AcDbEntity
  8
NoLayerName_001
  6
Continuous
 62
    30
370
    50
100
AcDbLine
 10
359.8816381420425
 20
253.6326759685924
 30
0.0
 11
347.8816381420425
 21
253.6326759685924
 31
0.0
  0
LINE
  5
283
330
1F
100
AcDbEntity
  8
NoLayerName_001
  6
Continuous
 62
    30
370
    50
100
AcDbLine
 10
359.309923827751
 20
253.0326759685925
 30
0.0
 11
346.4533524563338
 21
253.0326759685925
 31
0.0
  0
ARC
  5
284
330
1F
100
AcDbEntity
  8
NoLayerName_001
  6
Continuous
 62
    30
370
    50
100
AcDbCircle
 10
359.8816381420425
 20
251.6326759685924
 30
0.0
 40
2.0
100
AcDbArc
 50
270.0
 51
90.0
  0
ARC
  5
285
330
1F
100
AcDbEntity
  8
NoLayerName_001
  6
Continuous
 62
    30
370
    50
100
AcDbCircle
 10
357.8816381420425
 20
251.6326759685924
 30
0.0
 40
2.0
100
AcDbArc
 50
270.0
 51
90.0
  0
ARC
  5
286
330
1F
100
AcDbEntity
  8
NoLayerName_001
  6
Continuous
 62
    30
370
    50
100
AcDbCircle
 10
347.8816381420425
 20
251.6326759685924
 30
0.0
 40
2.0
100
AcDbArc
 50
90.0
 51
270.0
  0
ARC
  5
287
330
1F
100
AcDbEntity
  8
NoLayerName_001
  6
DOTSX
 62
     4
370
    25
100
AcDbCircle
 10
211.4209489585807
 20
232.1546118259208
 30
0.0
 40
0.4
100
AcDbArc
 50
315.0
 51
0.0
  0
ARC
  5
288
330
1F
100
AcDbEntity
  8
NoLayerName_001
  6
Continuous
 62
    30
370
    50
100
AcDbCircle
 10
365.8816381420425
 20
333.6326759685923
 30
0.0
 40
2.0
100
AcDbArc
 50
0.0
 51
90.0
  0
LINE
  5
289
330
1F
100
AcDbEntity
  8
NoLayerName_001
  6
Continuous
 62
    30
370
    50
100
AcDbLine
 10
366.8816381420425
 20
335.6326759685923
 30
0.0
 11
340.8816381420425
 21
335.6326759685923
 31
0.0
  0
ARC
  5
28A
330
1F
100
AcDbEntity
  8
NoLayerName_001
  6
Continuous
 62
    30
370
    50
100
AcDbCircle
 10
365.8816381420425
 20
219.6326759685924
 30
0.0
 40
2.0
100
AcDbArc
 50
270.0
 51
0.0
  0
LINE
  5
28B
330
1F
100
AcDbEntity
  8
NoLayerName_001
  6
Continuous
 62
    30
370
    50
100
AcDbLine
 10
366.8816381420425
 20
217.6326759685924
 30
0.0
 11
340.8816381420425
 21
217.6326759685924
 31
0.0
  0
ARC
  5
28C
330
1F
100
AcDbEntity
  8
NoLayerName_001
  6
Continuous
 62
    30
370
    50
100
AcDbCircle
 10
366.8816381420425
 20
334.6326759685923
 30
0.0
 40
1.0
100
AcDbArc
 50
0.0000000000000127
 51
90.0
  0
ARC
  5
28D
330
1F
100
AcDbEntity
  8
NoLayerName_001
  6
Continuous
 62
    30
370
    50
100
AcDbCircle
 10
366.8816381420425
 20
218.6326759685924
 30
0.0
 40
1.0
100
AcDbArc
 50
270.0
 51
0.0
  0
LINE
  5
28E
330
1F
100
AcDbEntity
  8
NoLayerName_001
  6
CENTER
 62
     3
370
    25
100
AcDbLine
 10
371.3241604171486
 20
276.6326759685924
 30
0.0
 11
334.472354191435
 21
276.6326759685924
 31
0.0
  0
LINE
  5
28F
330
1F
100
AcDbEntity
  8
NoLayerName_001
  6
Continuous
 62
    30
370
    50
100
AcDbLine
 10
292.9419489585807
 20
288.1326759685924
 30
0.0
 11
295.9419489585807
 21
288.1326759685924
 31
0.0
  0
LINE
  5
290
330
1F
100
AcDbEntity
  8
NoLayerName_001
  6
Continuous
 62
    30
370
    50
100
AcDbLine
 10
292.9419489585807
 20
265.1326759685924
 30
0.0
 11
295.9419489585807
 21
265.1326759685924
 31
0.0
  0
LINE
  5
291
330
1F
100
AcDbEntity
  8
NoLayerName_001
  6
Continuous
 62
    30
370
    50
100
AcDbLine
 10
247.4419489585806
 20
313.3826759685923
 30
0.0
 11
247.4419489585806
 21
321.1326759685921
 31
0.0
  0
LINE
  5
292
330
1F
100
AcDbEntity
  8
NoLayerName_001
  6
Continuous
 62
    30
370
    50
100
AcDbLine
 10
247.4419489585806
 20
313.3826759685923
 30
0.0
 11
247.4419489585806
 21
279.590715860142
 31
0.0
  0
LINE
  5
293
330
1F
100
AcDbEntity
  8
NoLayerName_001
  6
Continuous
 62
    30
370
    50
100
AcDbLine
 10
246.4419489585806
 20
313.3826759685923
 30
0.0
 11
246.4419489585806
 21
321.1326759685923
 31
0.0
  0
LINE
  5
294
330
1F
100
AcDbEntity
  8
NoLayerName_001
  6
Continuous
 62
    30
370
    50
100
AcDbLine
 10
246.4419489585806
 20
313.3826759685923
 30
0.0
 11
246.4419489585806
 21
279.2307521799455
 31
0.0
  0
LINE
  5
295
330
1F
100
AcDbEntity
  8
NoLayerName_001
  6
Continuous
 62
    30
370
    50
100
AcDbLine
 10
278.4419489585807
 20
309.1326759685923
 30
0.0
 11
276.9419489585807
 21
309.1326759685923
 31
0.0
  0
LINE
  5
296
330
1F
100
AcDbEntity
  8
NoLayerName_001
  6
Continuous
 62
    30
370
    50
100
AcDbLine
 10
278.4419489585807
 20
311.1326759685923
 30
0.0
 11
271.9419489585807
 21
311.1326759685923
 31
0.0
  0
LINE
  5
297
330
1F
100
AcDbEntity
  8
NoLayerName_001
  6
DOTSX
 62
     7
370
    25
100
AcDbLine
 10
297.0419489585808
 20
267.4326759685923
 30
0.0
 11
295.9419489585808
 21
267.4326759685923
 31
0.0
  0
LINE
  5
298
330
1F
100
AcDbEntity
  8
NoLayerName_001
  6
Continuous
 62
    30
370
    50
100
AcDbLine
 10
282.4419489585807
 20
311.1326759685923
 30
0.0
 11
284.9419489585807
 21
311.1326759685923
 31
0.0
  0
LINE
  5
299
330
1F
100
AcDbEntity
  8
NoLayerName_001
  6
Continuous
 62
    30
370
    50
100
AcDbLine
 10
282.4419489585807
 20
309.1326759685923
 30
0.0
 11
284.9419489585807
 21
309.1326759685923
 31
0.0
  0
ARC
  5
29A
330
1F
100
AcDbEntity
  8
NoLayerName_001
  6
Continuous
 62
    30
370
    50
100
AcDbCircle
 10
284.9419489585807
 20
306.1326759685924
 30
0.0
 40
3.0
100
AcDbArc
 50
33.55730976192054
 51
90.00000000000001
  0
ARC
  5
29B
330
1F
100
AcDbEntity
  8
NoLayerName_001
  6
Continuous
 62
    30
370
    50
100
AcDbCircle
 10
284.9419489585807
 20
306.1326759685924
 30
0.0
 40
5.0
100
AcDbArc
 50
59.99999999999994
 51
90.00000000000001
  0
LINE
  5
29C
330
1F
100
AcDbEntity
  8
NoLayerName_001
  6
Continuous
 62
    30
370
    50
100
AcDbLine
 10
278.4419489585807
 20
290.6975491802572
 30
0.0
 11
277.9376373316754
 21
291.2484139415987
 31
0.0
  0
ARC
  5
29D
330
1F
100
AcDbEntity
  8
NoLayerName_001
  6
Continuous
 62
    30
370
    50
100
AcDbCircle
 10
269.9419489585807
 20
294.1326759685924
 30
0.0
 40
10.0
100
AcDbArc
 50
31.78833061705162
 51
84.26082952273313
  0
LINE
  5
29E
330
1F
100
AcDbEntity
  8
NoLayerName_001
  6
DOTSX
 62
     7
370
    25
100
AcDbLine
 10
297.8419489585808
 20
265.3326759685923
 30
0.0
 11
297.0419489585807
 21
267.4326759685923
 31
0.0
  0
LINE
  5
29F
330
1F
100
AcDbEntity
  8
NoLayerName_001
  6
DOTSX
 62
     7
370
    25
100
AcDbLine
 10
297.8419489585808
 20
287.9326759685923
 30
0.0
 11
298.441948958581
 21
287.9326759685923
 31
0.0
  0
LINE
  5
2A0
330
1F
100
AcDbEntity
  8
NoLayerName_001
  6
Continuous
 62
    30
370
    50
100
AcDbLine
 10
298.4419489585807
 20
226.1326759685924
 30
0.0
 11
195.4419489585807
 21
226.1326759685924
 31
0.0
  0
LINE
  5
2A1
330
1F
100
AcDbEntity
  8
NoLayerName_001
  6
Continuous
 62
    30
370
    50
100
AcDbLine
 10
195.4419489585807
 20
327.1326759685923
 30
0.0
 11
298.4419489585807
 21
327.1326759685923
 31
0.0
  0
LINE
  5
2A2
330
1F
100
AcDbEntity
  8
NoLayerName_001
  6
Continuous
 62
    21
370
    50
100
AcDbLine
 10
242.9927964162076
 20
313.3826759685923
 30
0.0
 11
241.1419489585805
 21
317.9326759685922
 31
0.0
  0
LINE
  5
2A3
330
1F
100
AcDbEntity
  8
NoLayerName_001
  6
Continuous
 62
    21
370
    50
100
AcDbLine
 10
242.9927964162076
 20
313.3826759685923
 30
0.0
 11
243.5419489585805
 21
312.0326759685922
 31
0.0
  0
LINE
  5
2A4
330
1F
100
AcDbEntity
  8
NoLayerName_001
  6
Continuous
 62
    21
370
    50
100
AcDbLine
 10
244.9062346728663
 20
313.3826759685923
 30
0.0
 11
242.7419489585807
 21
318.4326759685922
 31
0.0
  0
LINE
  5
2A5
330
1F
100
AcDbEntity
  8
NoLayerName_001
  6
Continuous
 62
    21
370
    50
100
AcDbLine
 10
244.9062346728663
 20
313.3826759685923
 30
0.0
 11
245.7419489585806
 21
311.4326759685922
 31
0.0
  0
LINE
  5
2A6
330
1F
100
AcDbEntity
  8
NoLayerName_001
  6
Continuous
 62
    21
370
    50
100
AcDbLine
 10
242.9927964162077
 20
239.8826759685924
 30
0.0
 11
243.5419489585806
 21
241.2326759685924
 31
0.0
  0
LINE
  5
2A7
330
1F
100
AcDbEntity
  8
NoLayerName_001
  6
Continuous
 62
    21
370
    50
100
AcDbLine
 10
242.9927964162077
 20
239.8826759685924
 30
0.0
 11
241.1419489585805
 21
235.3326759685923
 31
0.0
  0
LINE
  5
2A8
330
1F
100
AcDbEntity
  8
NoLayerName_001
  6
Continuous
 62
    21
370
    50
100
AcDbLine
 10
244.875751775482
 20
239.8826759685924
 30
0.0
 11
245.7419489585806
 21
241.9326759685923
 31
0.0
  0
LINE
  5
2A9
330
1F
100
AcDbEntity
  8
NoLayerName_001
  6
Continuous
 62
    21
370
    50
100
AcDbLine
 10
244.875751775482
 20
239.8826759685924
 30
0.0
 11
242.7419489585806
 21
234.8326759685923
 31
0.0
  0
LINE
  5
2AA
330
1F
100
AcDbEntity
  8
NoLayerName_001
  6
DOTSX
 62
     7
370
    25
100
AcDbLine
 10
297.0419489585808
 20
285.8326759685922
 30
0.0
 11
295.9419489585808
 21
285.8326759685922
 31
0.0
  0
LINE
  5
2AB
330
1F
100
AcDbEntity
  8
NoLayerName_001
  6
DOTSX
 62
     7
370
    25
100
AcDbLine
 10
297.8419489585808
 20
287.9326759685922
 30
0.0
 11
297.0419489585807
 21
285.8326759685922
 31
0.0
  0
LINE
  5
2AC
330
1F
100
AcDbEntity
  8
NoLayerName_001
  6
DOTSX
 62
     7
370
    25
100
AcDbLine
 10
297.8419489585808
 20
265.3326759685923
 30
0.0
 11
298.4419489585807
 21
265.3326759685923
 31
0.0
  0
LINE
  5
2AD
330
1F
100
AcDbEntity
  8
NoLayerName_001
  6
Continuous
 62
    30
370
    50
100
AcDbLine
 10
144.5569473070539
 20
307.2228459123418
 30
0.0
 11
141.5569473070539
 21
307.2228459123418
 31
0.0
  0
LINE
  5
2AE
330
1F
100
AcDbEntity
  8
NoLayerName_001
  6
DOTSX
 62
     7
370
    25
100
AcDbLine
 10
297.0419489585808
 20
284.3326759685921
 30
0.0
 11
295.9419489585806
 21
284.3326759685921
 31
0.0
  0
LINE
  5
2AF
330
1F
100
AcDbEntity
  8
NoLayerName_001
  6
Continuous
 62
    30
370
    50
100
AcDbLine
 10
144.5569473070539
 20
304.2228459123418
 30
0.0
 11
141.5569473070539
 21
304.2228459123418
 31
0.0
  0
LINE
  5
2B0
330
1F
100
AcDbEntity
  8
NoLayerName_001
  6
DOTSX
 62
     7
370
    25
100
AcDbLine
 10
297.0419489585808
 20
268.9326759685925
 30
0.0
 11
295.9419489585806
 21
268.9326759685925
 31
0.0
  0
ARC
  5
2B1
330
1F
100
AcDbEntity
  8
NoLayerName_001
  6
DOTSX
 62
     7
370
    25
100
AcDbCircle
 10
297.9419489585807
 20
284.1934360860454
 30
0.0
 40
0.5
100
AcDbArc
 50
0.0000000000000127
 51
90.00000000000001
  0
ARC
  5
2B2
330
1F
100
AcDbEntity
  8
NoLayerName_001
  6
DOTSX
 62
     7
370
    25
100
AcDbCircle
 10
297.9419489585807
 20
269.0719158511392
 30
0.0
 40
0.5
100
AcDbArc
 50
270.0
 51
360.0
  0
LINE
  5
2B3
330
1F
100
AcDbEntity
  8
NoLayerName_001
  6
DOTSX
 62
     7
370
    25
100
AcDbLine
 10
297.8419489585808
 20
287.9326759685923
 30
0.0
 11
297.0419489585808
 21
284.3326759685922
 31
0.0
  0
LINE
  5
2B4
330
1F
100
AcDbEntity
  8
NoLayerName_001
  6
DOTSX
 62
     7
370
    25
100
AcDbLine
 10
297.8419489585808
 20
265.3326759685923
 30
0.0
 11
297.0419489585807
 21
268.9326759685925
 31
0.0
  0
LINE
  5
2B5
330
1F
100
AcDbEntity
  8
NoLayerName_001
  6
DOTSX
 62
     7
370
    25
100
AcDbLine
 10
297.0419489585808
 20
285.7824729021609
 30
0.0
 11
297.0419489585808
 21
267.4326759685922
 31
0.0
  0
LINE
  5
2B6
330
1F
100
AcDbEntity
  8
NoLayerName_001
  6
DOTSX
 62
     7
370
    25
100
AcDbLine
 10
297.8419489585808
 20
287.9326759685923
 30
0.0
 11
297.8419489585808
 21
265.3326759685923
 31
0.0
  0
LINE
  5
2B7
330
1F
100
AcDbEntity
  8
NoLayerName_001
  6
Continuous
 62
    30
370
    50
100
AcDbLine
 10
144.5569473070539
 20
299.0425060248429
 30
0.0
 11
141.5569473070539
 21
299.0425060248429
 31
0.0
  0
LINE
  5
2B8
330
1F
100
AcDbEntity
  8
NoLayerName_001
  6
Continuous
 62
    30
370
    50
100
AcDbLine
 10
144.5569473070539
 20
296.042506024843
 30
0.0
 11
141.5569473070539
 21
296.042506024843
 31
0.0
  0
LINE
  5
2B9
330
1F
100
AcDbEntity
  8
NoLayerName_001
  6
Continuous
 62
    30
370
    50
100
AcDbLine
 10
139.5569473070539
 20
307.2228459123418
 30
0.0
 11
120.0569473070539
 21
307.2228459123418
 31
0.0
  0
LINE
  5
2BA
330
1F
100
AcDbEntity
  8
NoLayerName_001
  6
Continuous
 62
    30
370
    50
100
AcDbLine
 10
139.5569473070539
 20
296.042506024843
 30
0.0
 11
120.0569473070539
 21
296.042506024843
 31
0.0
  0
LINE
  5
2BB
330
1F
100
AcDbEntity
  8
NoLayerName_001
  6
Continuous
 62
    30
370
    50
100
AcDbLine
 10
144.5569473070539
 20
257.2228459123417
 30
0.0
 11
141.5569473070539
 21
257.2228459123417
 31
0.0
  0
LINE
  5
2BC
330
1F
100
AcDbEntity
  8
NoLayerName_001
  6
Continuous
 62
    30
370
    50
100
AcDbLine
 10
144.5569473070539
 20
254.2228459123417
 30
0.0
 11
141.5569473070539
 21
254.2228459123417
 31
0.0
  0
LINE
  5
2BD
330
1F
100
AcDbEntity
  8
NoLayerName_001
  6
Continuous
 62
    30
370
    50
100
AcDbLine
 10
144.5569473070539
 20
249.0425060248427
 30
0.0
 11
141.5569473070539
 21
249.0425060248427
 31
0.0
  0
LINE
  5
2BE
330
1F
100
AcDbEntity
  8
NoLayerName_001
  6
Continuous
 62
    30
370
    50
100
AcDbLine
 10
144.5569473070539
 20
246.0425060248429
 30
0.0
 11
141.5569473070539
 21
246.0425060248429
 31
0.0
  0
LINE
  5
2BF
330
1F
100
AcDbEntity
  8
NoLayerName_001
  6
Continuous
 62
    30
370
    50
100
AcDbLine
 10
139.5569473070539
 20
257.2228459123417
 30
0.0
 11
120.0569473070539
 21
257.2228459123417
 31
0.0
  0
LINE
  5
2C0
330
1F
100
AcDbEntity
  8
NoLayerName_001
  6
Continuous
 62
    30
370
    50
100
AcDbLine
 10
139.5569473070539
 20
246.0425060248429
 30
0.0
 11
120.0569473070539
 21
246.0425060248429
 31
0.0
  0
LINE
  5
2C1
330
1F
100
AcDbEntity
  8
NoLayerName_001
  6
DOTSX
 62
     7
370
    25
100
AcDbLine
 10
297.9419489585807
 20
268.5719158511392
 30
0.0
 11
295.9419489585807
 21
268.5719158511392
 31
0.0
  0
LINE
  5
2C2
330
1F
100
AcDbEntity
  8
NoLayerName_001
  6
Continuous
 62
    30
370
    50
100
AcDbLine
 10
215.4419489585807
 20
242.1326759685924
 30
0.0
 11
221.9419489585804
 21
242.1326759685924
 31
0.0
  0
LINE
  5
2C3
330
1F
100
AcDbEntity
  8
NoLayerName_001
  6
DOTSX
 62
     7
370
    25
100
AcDbLine
 10
297.9419489585807
 20
284.6934360860454
 30
0.0
 11
295.9419489585807
 21
284.6934360860454
 31
0.0
  0
LINE
  5
2C4
330
1F
100
AcDbEntity
  8
NoLayerName_001
  6
Continuous
 62
    30
370
    50
100
AcDbLine
 10
120.056947307054
 20
272.6326759685923
 30
0.0
 11
120.056947307054
 21
280.6326759685923
 31
0.0
  0
LINE
  5
2C5
330
1F
100
AcDbEntity
  8
NoLayerName_001
  6
Continuous
 62
    30
370
    50
100
AcDbLine
 10
215.4419489585807
 20
244.1326759685924
 30
0.0
 11
216.9419489585804
 21
244.1326759685924
 31
0.0
  0
LINE
  5
2C6
330
1F
100
AcDbEntity
  8
NoLayerName_001
  6
Continuous
 62
    30
370
    50
100
AcDbLine
 10
211.4419489585807
 20
244.1326759685924
 30
0.0
 11
208.9419489585804
 21
244.1326759685924
 31
0.0
  0
LINE
  5
2C7
330
1F
100
AcDbEntity
  8
NoLayerName_001
  6
Continuous
 62
    30
370
    50
100
AcDbLine
 10
211.4419489585807
 20
242.1326759685924
 30
0.0
 11
208.9419489585804
 21
242.1326759685924
 31
0.0
  0
ARC
  5
2C8
330
1F
100
AcDbEntity
  8
NoLayerName_001
  6
Continuous
 62
    30
370
    50
100
AcDbCircle
 10
208.9419489585804
 20
247.1326759685924
 30
0.0
 40
3.0
100
AcDbArc
 50
213.5573097619286
 51
270.0
  0
ARC
  5
2C9
330
1F
100
AcDbEntity
  8
NoLayerName_001
  6
Continuous
 62
    30
370
    50
100
AcDbCircle
 10
208.9419489585804
 20
247.1326759685924
 30
0.0
 40
5.0
100
AcDbArc
 50
240.000000000003
 51
270.0
  0
LINE
  5
2CA
330
1F
100
AcDbEntity
  8
NoLayerName_001
  6
Continuous
 62
    30
370
    50
100
AcDbLine
 10
215.4419489585807
 20
262.5678027569274
 30
0.0
 11
215.9462605854858
 21
262.0169379955861
 31
0.0
  0
LINE
  5
2CB
330
1F
100
AcDbEntity
  8
NoLayerName_001
  6
Continuous
 62
    30
370
    50
100
AcDbLine
 10
298.4419489585807
 20
333.6326759685923
 30
0.0
 11
298.4419489585807
 21
219.6326759685925
 31
0.0
  0
LINE
  5
2CC
330
1F
100
AcDbEntity
  8
NoLayerName_001
  6
Continuous
 62
    30
370
    50
100
AcDbLine
 10
268.1356900554285
 20
277.1326759685924
 30
0.0
 11
292.9419489585807
 21
277.1326759685924
 31
0.0
  0
LINE
  5
2CD
330
1F
100
AcDbEntity
  8
NoLayerName_001
  6
Continuous
 62
    30
370
    50
100
AcDbLine
 10
268.1356900554285
 20
276.1326759685924
 30
0.0
 11
292.9419489585807
 21
276.1326759685924
 31
0.0
  0
LINE
  5
2CE
330
1F
100
AcDbEntity
  8
NoLayerName_001
  6
Continuous
 62
    30
370
    50
100
AcDbLine
 10
120.056947307054
 20
246.0425060248429
 30
0.0
 11
120.056947307054
 21
257.2228459123417
 31
0.0
  0
ARC
  5
2CF
330
1F
100
AcDbEntity
  8
NoLayerName_001
  6
Continuous
 62
    30
370
    50
100
AcDbCircle
 10
238.9419489585804
 20
247.1326759685924
 30
0.0
 40
5.0
100
AcDbArc
 50
270.0
 51
336.9260819343731
  0
LINE
  5
2D0
330
1F
100
AcDbEntity
  8
NoLayerName_001
  6
Continuous
 62
    30
370
    50
100
AcDbLine
 10
243.5419489585806
 20
274.6326759685924
 30
0.0
 11
241.4419489585804
 21
274.6326759685924
 31
0.0
  0
LINE
  5
2D1
330
1F
100
AcDbEntity
  8
NoLayerName_001
  6
Continuous
 62
    30
370
    50
100
AcDbLine
 10
243.5419489585806
 20
278.6326759685924
 30
0.0
 11
241.4419489585804
 21
278.6326759685924
 31
0.0
  0
LINE
  5
2D2
330
1F
100
AcDbEntity
  8
NoLayerName_001
  6
Continuous
 62
    30
370
    50
100
AcDbLine
 10
243.5419489585806
 20
277.1326759685924
 30
0.0
 11
230.1356900554285
 21
277.1326759685924
 31
0.0
  0
LINE
  5
2D3
330
1F
100
AcDbEntity
  8
NoLayerName_001
  6
Continuous
 62
    30
370
    50
100
AcDbLine
 10
243.5419489585806
 20
276.1326759685924
 30
0.0
 11
230.1356900554285
 21
276.1326759685924
 31
0.0
  0
ARC
  5
2D4
330
1F
100
AcDbEntity
  8
NoLayerName_001
  6
Continuous
 62
    30
370
    50
100
AcDbCircle
 10
247.9419489585807
 20
276.6326759685924
 30
0.0
 40
2.5
100
AcDbArc
 50
208.3576365763263
 51
343.7397952916883
  0
LINE
  5
2D5
330
1F
100
AcDbEntity
  8
NoLayerName_001
  6
Continuous
 62
    30
370
    50
100
AcDbLine
 10
120.0569473070539
 20
296.042506024843
 30
0.0
 11
120.0569473070539
 21
307.2228459123418
 31
0.0
  0
ARC
  5
2D6
330
1F
100
AcDbEntity
  8
NoLayerName_001
  6
Continuous
 62
    30
370
    50
100
AcDbCircle
 10
247.9419489585807
 20
276.6326759685924
 30
0.0
 40
3.0
100
AcDbArc
 50
222.8334280660661
 51
346.5066011784485
  0
ARC
  5
2D7
330
1F
100
AcDbEntity
  8
NoLayerName_001
  6
Continuous
 62
    30
370
    50
100
AcDbCircle
 10
247.9419489585807
 20
276.6326759685924
 30
0.0
 40
3.0
100
AcDbArc
 50
13.49339882155257
 51
137.1665719339339
  0
ARC
  5
2D8
330
1F
100
AcDbEntity
  8
NoLayerName_001
  6
Continuous
 62
    30
370
    50
100
AcDbCircle
 10
238.9419489585804
 20
306.1326759685924
 30
0.0
 40
5.0
100
AcDbArc
 50
23.07391806562659
 51
90.00000000000001
  0
ARC
  5
2D9
330
1F
100
AcDbEntity
  8
NoLayerName_001
  6
Continuous
 62
    30
370
    50
100
AcDbCircle
 10
247.9419489585807
 20
276.6326759685924
 30
0.0
 40
2.5
100
AcDbArc
 50
16.26020470831146
 51
151.6423634236743
  0
LINE
  5
2DA
330
1F
100
AcDbEntity
  8
NoLayerName_001
  6
Continuous
 62
    30
370
    50
100
AcDbLine
 10
276.9419489585807
 20
320.1326759685921
 30
0.0
 11
283.9419489585807
 21
320.1326759685921
 31
0.0
  0
LINE
  5
2DB
330
1F
100
AcDbEntity
  8
NoLayerName_001
  6
Continuous
 62
    30
370
    50
100
AcDbLine
 10
276.9419489585807
 20
320.1326759685921
 30
0.0
 11
276.9419489585807
 21
315.1326759685921
 31
0.0
  0
LINE
  5
2DC
330
1F
100
AcDbEntity
  8
NoLayerName_001
  6
Continuous
 62
    30
370
    50
100
AcDbLine
 10
283.9419489585807
 20
320.1326759685921
 30
0.0
 11
283.9419489585807
 21
315.1326759685921
 31
0.0
  0
LINE
  5
2DD
330
1F
100
AcDbEntity
  8
NoLayerName_001
  6
Continuous
 62
    30
370
    50
100
AcDbLine
 10
292.9419489585807
 20
320.1326759685921
 30
0.0
 11
285.9419489585807
 21
320.1326759685921
 31
0.0
  0
LINE
  5
2DE
330
1F
100
AcDbEntity
  8
NoLayerName_001
  6
Continuous
 62
    30
370
    50
100
AcDbLine
 10
285.9419489585807
 20
320.1326759685921
 30
0.0
 11
285.9419489585807
 21
315.1326759685921
 31
0.0
  0
LINE
  5
2DF
330
1F
100
AcDbEntity
  8
NoLayerName_001
  6
Continuous
 62
    30
370
    50
100
AcDbLine
 10
292.9419489585807
 20
320.1326759685921
 30
0.0
 11
292.9419489585807
 21
315.1326759685921
 31
0.0
  0
LINE
  5
2E0
330
1F
100
AcDbEntity
  8
NoLayerName_001
  6
Continuous
 62
    30
370
    50
100
AcDbLine
 10
287.6919489585807
 20
319.1326759685921
 30
0.0
 11
287.6919489585807
 21
315.1326759685921
 31
0.0
  0
LINE
  5
2E1
330
1F
100
AcDbEntity
  8
NoLayerName_001
  6
Continuous
 62
    30
370
    50
100
AcDbLine
 10
291.1919489585807
 20
319.1326759685921
 30
0.0
 11
291.1919489585807
 21
315.1326759685921
 31
0.0
  0
LINE
  5
2E2
330
1F
100
AcDbEntity
  8
NoLayerName_001
  6
Continuous
 62
    30
370
    50
100
AcDbLine
 10
282.1919489585807
 20
319.1326759685921
 30
0.0
 11
282.1919489585807
 21
315.1326759685921
 31
0.0
  0
LINE
  5
2E3
330
1F
100
AcDbEntity
  8
NoLayerName_001
  6
Continuous
 62
    30
370
    50
100
AcDbLine
 10
278.6919489585807
 20
319.1326759685921
 30
0.0
 11
278.6919489585807
 21
315.1326759685921
 31
0.0
  0
LINE
  5
2E4
330
1F
100
AcDbEntity
  8
NoLayerName_001
  6
Continuous
 62
    30
370
    50
100
AcDbLine
 10
200.9419489585807
 20
233.1326759685925
 30
0.0
 11
207.9419489585807
 21
233.1326759685925
 31
0.0
  0
LINE
  5
2E5
330
1F
100
AcDbEntity
  8
NoLayerName_001
  6
Continuous
 62
    30
370
    50
100
AcDbLine
 10
200.9419489585807
 20
233.1326759685925
 30
0.0
 11
200.9419489585807
 21
238.1326759685925
 31
0.0
  0
LINE
  5
2E6
330
1F
100
AcDbEntity
  8
NoLayerName_001
  6
Continuous
 62
    30
370
    50
100
AcDbLine
 10
207.9419489585807
 20
233.1326759685925
 30
0.0
 11
207.9419489585807
 21
238.1326759685925
 31
0.0
  0
LINE
  5
2E7
330
1F
100
AcDbEntity
  8
NoLayerName_001
  6
Continuous
 62
    30
370
    50
100
AcDbLine
 10
216.9419489585807
 20
233.1326759685925
 30
0.0
 11
209.9419489585807
 21
233.1326759685925
 31
0.0
  0
LINE
  5
2E8
330
1F
100
AcDbEntity
  8
NoLayerName_001
  6
Continuous
 62
    30
370
    50
100
AcDbLine
 10
209.9419489585807
 20
233.1326759685925
 30
0.0
 11
209.9419489585807
 21
238.1326759685925
 31
0.0
  0
LINE
  5
2E9
330
1F
100
AcDbEntity
  8
NoLayerName_001
  6
Continuous
 62
    30
370
    50
100
AcDbLine
 10
216.9419489585807
 20
233.1326759685925
 30
0.0
 11
216.9419489585807
 21
238.1326759685925
 31
0.0
  0
LINE
  5
2EA
330
1F
100
AcDbEntity
  8
NoLayerName_001
  6
Continuous
 62
    30
370
    50
100
AcDbLine
 10
211.6919489585807
 20
234.1326759685925
 30
0.0
 11
211.6919489585807
 21
238.1326759685925
 31
0.0
  0
LINE
  5
2EB
330
1F
100
AcDbEntity
  8
NoLayerName_001
  6
Continuous
 62
    30
370
    50
100
AcDbLine
 10
215.1919489585807
 20
234.1326759685925
 30
0.0
 11
215.1919489585807
 21
238.1326759685925
 31
0.0
  0
LINE
  5
2EC
330
1F
100
AcDbEntity
  8
NoLayerName_001
  6
Continuous
 62
    30
370
    50
100
AcDbLine
 10
206.1919489585807
 20
234.1326759685925
 30
0.0
 11
206.1919489585807
 21
238.1326759685925
 31
0.0
  0
LINE
  5
2ED
330
1F
100
AcDbEntity
  8
NoLayerName_001
  6
Continuous
 62
    30
370
    50
100
AcDbLine
 10
202.6919489585807
 20
234.1326759685925
 30
0.0
 11
202.6919489585807
 21
238.1326759685925
 31
0.0
  0
LINE
  5
2EE
330
1F
100
AcDbEntity
  8
NoLayerName_002
  6
Continuous
 62
     4
370
    50
100
AcDbLine
 10
208.4419489585807
 20
274.1326759685925
 30
0.0
 11
200.4419489585807
 21
274.1326759685925
 31
0.0
  0
LINE
  5
2EF
330
1F
100
AcDbEntity
  8
NoLayerName_001
  6
Continuous
 62
    30
370
    50
100
AcDbLine
 10
203.9419489585804
 20
274.1326759685925
 30
0.0
 11
203.9419489585804
 21
274.6326759685924
 31
0.0
  0
ARC
  5
2F0
330
1F
100
AcDbEntity
  8
NoLayerName_001
  6
Continuous
 62
    30
370
    50
100
AcDbCircle
 10
206.4419489585804
 20
272.1326759685924
 30
0.0
 40
2.5
100
AcDbArc
 50
53.13010235416067
 51
90.0
  0
ARC
  5
2F1
330
1F
100
AcDbEntity
  8
NoLayerName_001
  6
Continuous
 62
    30
370
    50
100
AcDbCircle
 10
206.4419489585804
 20
272.1326759685924
 30
0.0
 40
2.5
100
AcDbArc
 50
270.0
 51
40.13243885928828
  0
ARC
  5
2F2
330
1F
100
AcDbEntity
  8
NoLayerName_001
  6
DOTSX
 62
     7
370
    25
100
AcDbCircle
 10
206.4419489585804
 20
272.1326759685924
 30
0.0
 40
2.5
100
AcDbArc
 50
40.13243885928828
 51
53.13010235416065
  0
LINE
  5
2F3
330
1F
100
AcDbEntity
  8
NoLayerName_001
  6
Continuous
 62
    30
370
    50
100
AcDbLine
 10
289.9419489585807
 20
279.1326759685921
 30
0.0
 11
289.9419489585807
 21
278.6326759685924
 31
0.0
  0
ARC
  5
2F4
330
1F
100
AcDbEntity
  8
NoLayerName_001
  6
Continuous
 62
    30
370
    50
100
AcDbCircle
 10
287.4419489585807
 20
281.1326759685924
 30
0.0
 40
2.5
100
AcDbArc
 50
90.0
 51
220.1324388592965
  0
ARC
  5
2F5
330
1F
100
AcDbEntity
  8
NoLayerName_001
  6
DOTSX
 62
     7
370
    25
100
AcDbCircle
 10
287.4419489585807
 20
281.1326759685924
 30
0.0
 40
2.5
100
AcDbArc
 50
220.1324388592965
 51
233.1301023541643
  0
ARC
  5
2F6
330
1F
100
AcDbEntity
  8
NoLayerName_001
  6
Continuous
 62
    30
370
    50
100
AcDbCircle
 10
287.4419489585807
 20
281.1326759685924
 30
0.0
 40
2.5
100
AcDbArc
 50
233.1301023541643
 51
270.0
  0
LINE
  5
2F7
330
1F
100
AcDbEntity
  8
NoLayerName_001
  6
Continuous
 62
    30
370
    50
100
AcDbLine
 10
292.9419489585807
 20
279.9326759685922
 30
0.0
 11
292.9419489585807
 21
288.1326759685924
 31
0.0
  0
LINE
  5
2F8
330
1F
100
AcDbEntity
  8
NoLayerName_001
  6
Continuous
 62
    30
370
    50
100
AcDbLine
 10
292.9419489585807
 20
279.1326759685921
 30
0.0
 11
292.9419489585807
 21
265.1326759685924
 31
0.0
  0
LINE
  5
2F9
330
1F
100
AcDbEntity
  8
NoLayerName_002
  6
Continuous
 62
     4
370
    25
100
AcDbLine
 10
287.8209489585809
 20
313.3826759685924
 30
0.0
 11
287.8209489585809
 21
282.7326759685921
 31
0.0
  0
LINE
  5
2FA
330
1F
100
AcDbEntity
  8
NoLayerName_002
  6
Continuous
 62
     4
370
    25
100
AcDbLine
 10
291.0629489585809
 20
313.3826759685924
 30
0.0
 11
291.0629489585809
 21
282.7326759685921
 31
0.0
  0
LINE
  5
2FB
330
1F
100
AcDbEntity
  8
NoLayerName_002
  6
Continuous
 62
     4
370
    50
100
AcDbLine
 10
293.4419489585808
 20
279.1326759685921
 30
0.0
 11
293.4419489585808
 21
279.4326759685922
 31
0.0
  0
LINE
  5
2FC
330
1F
100
AcDbEntity
  8
NoLayerName_002
  6
Continuous
 62
     4
370
    50
100
AcDbLine
 10
293.4419489585808
 20
279.4326759685922
 30
0.0
 11
291.1801062461062
 21
281.6945186810668
 31
0.0
  0
LINE
  5
2FD
330
1F
100
AcDbEntity
  8
NoLayerName_002
  6
Continuous
 62
     4
370
    50
100
AcDbLine
 10
285.4419489585808
 20
279.4326759685922
 30
0.0
 11
287.7037916710554
 21
281.6945186810668
 31
0.0
  0
LINE
  5
2FE
330
1F
100
AcDbEntity
  8
NoLayerName_002
  6
Continuous
 62
     4
370
    50
100
AcDbLine
 10
287.7850208470307
 20
281.8116759685922
 30
0.0
 11
291.0988770701312
 21
281.8116759685922
 31
0.0
  0
ARC
  5
2FF
330
1F
100
AcDbEntity
  8
NoLayerName_002
  6
Continuous
 62
     4
370
    50
100
AcDbCircle
 10
291.462948958581
 20
281.9773613935414
 30
0.0
 40
0.4
100
AcDbArc
 50
180.0
 51
225.0
  0
ARC
  5
300
330
1F
100
AcDbEntity
  8
NoLayerName_002
  6
Continuous
 62
     4
370
    50
100
AcDbCircle
 10
287.4209489585808
 20
281.9773613935414
 30
0.0
 40
0.4
100
AcDbArc
 50
315.0
 51
0.0
  0
LINE
  5
301
330
1F
100
AcDbEntity
  8
NoLayerName_002
  6
Continuous
 62
     4
370
    50
100
AcDbLine
 10
287.4419489585808
 20
284.1326759685921
 30
0.0
 11
287.8209489585808
 21
282.7326759685922
 31
0.0
  0
LINE
  5
302
330
1F
100
AcDbEntity
  8
NoLayerName_002
  6
Continuous
 62
     4
370
    50
100
AcDbLine
 10
287.4419489585808
 20
284.1326759685921
 30
0.0
 11
291.4419489585808
 21
284.1326759685921
 31
0.0
  0
LINE
  5
303
330
1F
100
AcDbEntity
  8
NoLayerName_002
  6
Continuous
 62
     4
370
    50
100
AcDbLine
 10
291.4419489585808
 20
284.1326759685921
 30
0.0
 11
291.0629489585808
 21
282.7326759685922
 31
0.0
  0
LINE
  5
304
330
1F
100
AcDbEntity
  8
NoLayerName_002
  6
Continuous
 62
     4
370
    50
100
AcDbLine
 10
291.0629489585809
 20
282.7326759685922
 30
0.0
 11
291.0629489585809
 21
281.9773613935414
 31
0.0
  0
LINE
  5
305
330
1F
100
AcDbEntity
  8
NoLayerName_002
  6
Continuous
 62
     4
370
    50
100
AcDbLine
 10
287.8209489585809
 20
282.7326759685922
 30
0.0
 11
287.8209489585809
 21
281.9773613935414
 31
0.0
  0
LINE
  5
306
330
1F
100
AcDbEntity
  8
NoLayerName_002
  6
Continuous
 62
     4
370
    50
100
AcDbLine
 10
293.4419489585808
 20
279.1326759685921
 30
0.0
 11
285.4419489585808
 21
279.1326759685921
 31
0.0
  0
LINE
  5
307
330
1F
100
AcDbEntity
  8
NoLayerName_002
  6
Continuous
 62
     4
370
    50
100
AcDbLine
 10
293.4419489585808
 20
279.4326759685922
 30
0.0
 11
285.4419489585808
 21
279.4326759685922
 31
0.0
  0
LINE
  5
308
330
1F
100
AcDbEntity
  8
NoLayerName_002
  6
Continuous
 62
     4
370
    50
100
AcDbLine
 10
285.4419489585808
 20
279.1326759685921
 30
0.0
 11
285.4419489585808
 21
279.4326759685922
 31
0.0
  0
LINE
  5
309
330
1F
100
AcDbEntity
  8
NoLayerName_002
  6
Continuous
 62
     4
370
    50
100
AcDbLine
 10
284.4419489585808
 20
279.1326759685921
 30
0.0
 11
284.4419489585808
 21
279.4326759685922
 31
0.0
  0
LINE
  5
30A
330
1F
100
AcDbEntity
  8
NoLayerName_002
  6
Continuous
 62
     4
370
    50
100
AcDbLine
 10
284.4419489585808
 20
279.4326759685922
 30
0.0
 11
282.1801062461062
 21
281.6945186810668
 31
0.0
  0
LINE
  5
30B
330
1F
100
AcDbEntity
  8
NoLayerName_002
  6
Continuous
 62
     4
370
    50
100
AcDbLine
 10
276.4419489585808
 20
279.4326759685922
 30
0.0
 11
278.7037916710555
 21
281.6945186810668
 31
0.0
  0
LINE
  5
30C
330
1F
100
AcDbEntity
  8
NoLayerName_002
  6
Continuous
 62
     4
370
    50
100
AcDbLine
 10
278.7850208470308
 20
281.8116759685922
 30
0.0
 11
282.0988770701312
 21
281.8116759685922
 31
0.0
  0
ARC
  5
30D
330
1F
100
AcDbEntity
  8
NoLayerName_002
  6
Continuous
 62
     4
370
    50
100
AcDbCircle
 10
282.462948958581
 20
281.9773613935414
 30
0.0
 40
0.4
100
AcDbArc
 50
180.0
 51
225.0
  0
ARC
  5
30E
330
1F
100
AcDbEntity
  8
NoLayerName_002
  6
Continuous
 62
     4
370
    50
100
AcDbCircle
 10
278.4209489585809
 20
281.9773613935414
 30
0.0
 40
0.4
100
AcDbArc
 50
315.0
 51
0.0
  0
LINE
  5
30F
330
1F
100
AcDbEntity
  8
NoLayerName_002
  6
Continuous
 62
     4
370
    50
100
AcDbLine
 10
278.4419489585808
 20
284.1326759685921
 30
0.0
 11
278.8209489585809
 21
282.7326759685922
 31
0.0
  0
LINE
  5
310
330
1F
100
AcDbEntity
  8
NoLayerName_002
  6
Continuous
 62
     4
370
    50
100
AcDbLine
 10
278.4419489585808
 20
284.1326759685921
 30
0.0
 11
282.4419489585808
 21
284.1326759685921
 31
0.0
  0
LINE
  5
311
330
1F
100
AcDbEntity
  8
NoLayerName_002
  6
Continuous
 62
     4
370
    50
100
AcDbLine
 10
282.4419489585808
 20
284.1326759685921
 30
0.0
 11
282.0629489585808
 21
282.7326759685922
 31
0.0
  0
LINE
  5
312
330
1F
100
AcDbEntity
  8
NoLayerName_002
  6
Continuous
 62
     4
370
    50
100
AcDbLine
 10
282.0629489585809
 20
282.7326759685922
 30
0.0
 11
282.0629489585809
 21
281.9773613935414
 31
0.0
  0
LINE
  5
313
330
1F
100
AcDbEntity
  8
NoLayerName_002
  6
Continuous
 62
     4
370
    50
100
AcDbLine
 10
278.820948958581
 20
282.7326759685922
 30
0.0
 11
278.820948958581
 21
281.9773613935414
 31
0.0
  0
LINE
  5
314
330
1F
100
AcDbEntity
  8
NoLayerName_002
  6
Continuous
 62
     4
370
    50
100
AcDbLine
 10
284.4419489585808
 20
279.1326759685921
 30
0.0
 11
276.4419489585808
 21
279.1326759685921
 31
0.0
  0
LINE
  5
315
330
1F
100
AcDbEntity
  8
NoLayerName_002
  6
Continuous
 62
     4
370
    50
100
AcDbLine
 10
284.4419489585808
 20
279.4326759685922
 30
0.0
 11
276.4419489585808
 21
279.4326759685922
 31
0.0
  0
LINE
  5
316
330
1F
100
AcDbEntity
  8
NoLayerName_002
  6
Continuous
 62
     4
370
    50
100
AcDbLine
 10
276.4419489585811
 20
279.1326759685921
 30
0.0
 11
276.4419489585811
 21
279.4326759685922
 31
0.0
  0
LINE
  5
317
330
1F
100
AcDbEntity
  8
NoLayerName_001
  6
Continuous
 62
    30
370
    50
100
AcDbLine
 10
287.5773061014378
 20
283.6326759685924
 30
0.0
 11
287.4419489585807
 21
283.6326759685924
 31
0.0
  0
LINE
  5
318
330
1F
100
AcDbEntity
  8
NoLayerName_002
  6
Continuous
 62
     4
370
    50
100
AcDbLine
 10
217.4419489585808
 20
274.1326759685925
 30
0.0
 11
217.4419489585808
 21
273.8326759685925
 31
0.0
  0
LINE
  5
319
330
1F
100
AcDbEntity
  8
NoLayerName_002
  6
Continuous
 62
     4
370
    50
100
AcDbLine
 10
217.4419489585808
 20
273.8326759685924
 30
0.0
 11
215.1801062461062
 21
271.5708332561178
 31
0.0
  0
LINE
  5
31A
330
1F
100
AcDbEntity
  8
NoLayerName_002
  6
Continuous
 62
     4
370
    50
100
AcDbLine
 10
209.4419489585808
 20
273.8326759685924
 30
0.0
 11
211.7037916710554
 21
271.5708332561178
 31
0.0
  0
LINE
  5
31B
330
1F
100
AcDbEntity
  8
NoLayerName_002
  6
Continuous
 62
     4
370
    50
100
AcDbLine
 10
211.7850208470307
 20
271.4536759685924
 30
0.0
 11
215.0988770701312
 21
271.4536759685924
 31
0.0
  0
ARC
  5
31C
330
1F
100
AcDbEntity
  8
NoLayerName_002
  6
Continuous
 62
     4
370
    50
100
AcDbCircle
 10
215.462948958581
 20
271.2879905436432
 30
0.0
 40
0.4
100
AcDbArc
 50
134.9999999999999
 51
179.9999999999999
  0
ARC
  5
31D
330
1F
100
AcDbEntity
  8
NoLayerName_002
  6
Continuous
 62
     4
370
    50
100
AcDbCircle
 10
211.4209489585809
 20
271.2879905436432
 30
0.0
 40
0.4
100
AcDbArc
 50
0.0
 51
45.0
  0
LINE
  5
31E
330
1F
100
AcDbEntity
  8
NoLayerName_002
  6
Continuous
 62
     4
370
    50
100
AcDbLine
 10
211.4419489585808
 20
269.1326759685925
 30
0.0
 11
211.8209489585808
 21
270.5326759685925
 31
0.0
  0
LINE
  5
31F
330
1F
100
AcDbEntity
  8
NoLayerName_002
  6
Continuous
 62
     4
370
    50
100
AcDbLine
 10
211.4419489585808
 20
269.1326759685925
 30
0.0
 11
215.4419489585808
 21
269.1326759685925
 31
0.0
  0
LINE
  5
320
330
1F
100
AcDbEntity
  8
NoLayerName_002
  6
Continuous
 62
     4
370
    50
100
AcDbLine
 10
215.4419489585808
 20
269.1326759685925
 30
0.0
 11
215.0629489585808
 21
270.5326759685925
 31
0.0
  0
LINE
  5
321
330
1F
100
AcDbEntity
  8
NoLayerName_002
  6
Continuous
 62
     4
370
    50
100
AcDbLine
 10
215.0629489585809
 20
270.5326759685925
 30
0.0
 11
215.0629489585809
 21
271.2879905436432
 31
0.0
  0
LINE
  5
322
330
1F
100
AcDbEntity
  8
NoLayerName_002
  6
Continuous
 62
     4
370
    50
100
AcDbLine
 10
211.8209489585809
 20
270.5326759685925
 30
0.0
 11
211.8209489585809
 21
271.2879905436432
 31
0.0
  0
LINE
  5
323
330
1F
100
AcDbEntity
  8
NoLayerName_002
  6
Continuous
 62
     4
370
    50
100
AcDbLine
 10
217.4419489585808
 20
274.1326759685925
 30
0.0
 11
209.4419489585808
 21
274.1326759685925
 31
0.0
  0
LINE
  5
324
330
1F
100
AcDbEntity
  8
NoLayerName_002
  6
Continuous
 62
     4
370
    50
100
AcDbLine
 10
217.4419489585808
 20
273.8326759685924
 30
0.0
 11
209.4419489585808
 21
273.8326759685924
 31
0.0
  0
LINE
  5
325
330
1F
100
AcDbEntity
  8
NoLayerName_002
  6
Continuous
 62
     4
370
    50
100
AcDbLine
 10
209.4419489585808
 20
274.1326759685925
 30
0.0
 11
209.4419489585808
 21
273.8326759685925
 31
0.0
  0
LINE
  5
326
330
1F
100
AcDbEntity
  8
NoLayerName_002
  6
Continuous
 62
     4
370
    50
100
AcDbLine
 10
208.4419489585808
 20
274.1326759685925
 30
0.0
 11
208.4419489585808
 21
273.8326759685925
 31
0.0
  0
LINE
  5
327
330
1F
100
AcDbEntity
  8
NoLayerName_002
  6
Continuous
 62
     4
370
    50
100
AcDbLine
 10
208.4419489585808
 20
273.8326759685924
 30
0.0
 11
206.1801062461062
 21
271.5708332561178
 31
0.0
  0
LINE
  5
328
330
1F
100
AcDbEntity
  8
NoLayerName_002
  6
Continuous
 62
     4
370
    50
100
AcDbLine
 10
200.4419489585808
 20
273.8326759685924
 30
0.0
 11
202.7037916710555
 21
271.5708332561178
 31
0.0
  0
LINE
  5
329
330
1F
100
AcDbEntity
  8
NoLayerName_002
  6
Continuous
 62
     4
370
    50
100
AcDbLine
 10
202.7850208470308
 20
271.4536759685924
 30
0.0
 11
206.0988770701312
 21
271.4536759685924
 31
0.0
  0
ARC
  5
32A
330
1F
100
AcDbEntity
  8
NoLayerName_002
  6
Continuous
 62
     4
370
    50
100
AcDbCircle
 10
206.462948958581
 20
271.2879905436432
 30
0.0
 40
0.4
100
AcDbArc
 50
134.9999999999999
 51
179.9999999999999
  0
ARC
  5
32B
330
1F
100
AcDbEntity
  8
NoLayerName_002
  6
Continuous
 62
     4
370
    50
100
AcDbCircle
 10
202.4209489585809
 20
271.2879905436432
 30
0.0
 40
0.4
100
AcDbArc
 50
0.0
 51
45.0
  0
LINE
  5
32C
330
1F
100
AcDbEntity
  8
NoLayerName_002
  6
Continuous
 62
     4
370
    50
100
AcDbLine
 10
202.4419489585808
 20
269.1326759685925
 30
0.0
 11
202.8209489585808
 21
270.5326759685925
 31
0.0
  0
LINE
  5
32D
330
1F
100
AcDbEntity
  8
NoLayerName_002
  6
Continuous
 62
     4
370
    50
100
AcDbLine
 10
202.4419489585808
 20
269.1326759685925
 30
0.0
 11
206.4419489585808
 21
269.1326759685925
 31
0.0
  0
LINE
  5
32E
330
1F
100
AcDbEntity
  8
NoLayerName_002
  6
Continuous
 62
     4
370
    50
100
AcDbLine
 10
206.4419489585808
 20
269.1326759685925
 30
0.0
 11
206.0629489585808
 21
270.5326759685925
 31
0.0
  0
LINE
  5
32F
330
1F
100
AcDbEntity
  8
NoLayerName_002
  6
Continuous
 62
     4
370
    50
100
AcDbLine
 10
206.0629489585809
 20
270.5326759685925
 30
0.0
 11
206.0629489585809
 21
271.2879905436432
 31
0.0
  0
LINE
  5
330
330
1F
100
AcDbEntity
  8
NoLayerName_002
  6
Continuous
 62
     4
370
    50
100
AcDbLine
 10
202.820948958581
 20
270.5326759685925
 30
0.0
 11
202.820948958581
 21
271.2879905436432
 31
0.0
  0
LINE
  5
331
330
1F
100
AcDbEntity
  8
NoLayerName_002
  6
Continuous
 62
     4
370
    50
100
AcDbLine
 10
208.4419489585808
 20
273.8326759685924
 30
0.0
 11
200.4419489585808
 21
273.8326759685924
 31
0.0
  0
LINE
  5
332
330
1F
100
AcDbEntity
  8
NoLayerName_002
  6
Continuous
 62
     4
370
    50
100
AcDbLine
 10
200.4419489585811
 20
274.1326759685925
 30
0.0
 11
200.4419489585811
 21
273.8326759685925
 31
0.0
  0
LINE
  5
333
330
1F
100
AcDbEntity
  8
NoLayerName_001
  6
Continuous
 62
    30
370
    50
100
AcDbLine
 10
206.3065918157237
 20
269.6326759685924
 30
0.0
 11
206.4419489585804
 21
269.6326759685924
 31
0.0
  0
LINE
  5
334
330
1F
100
AcDbEntity
  8
NoLayerName_002
  6
Continuous
 62
     7
370
    25
100
AcDbLine
 10
202.6899520114228
 20
300.4326759685923
 30
0.0
 11
196.4419489585806
 21
300.4326759685923
 31
0.0
  0
LINE
  5
335
330
1F
100
AcDbEntity
  8
NoLayerName_002
  6
Continuous
 62
     7
370
    50
100
AcDbLine
 10
202.4833483442506
 20
300.8773913815876
 30
0.0
 11
202.9132828080389
 21
299.9519553269359
 31
0.0
  0
ELLIPSE
  5
336
330
1F
100
AcDbEntity
  8
NoLayerName_002
  6
Continuous
 62
     7
370
    50
100
AcDbEllipse
 10
204.1977839142457
 20
301.6326759685924
 30
0.0
 11
1.714505518806307E-16
 21
2.80000000000002
 31
0.0
210
0.0
220
0.0
230
1.0
 40
0.5735764363510407
 41
0.0
 42
3.141592653589793
  0
ELLIPSE
  5
337
330
1F
100
AcDbEntity
  8
NoLayerName_002
  6
Continuous
 62
     7
370
    50
100
AcDbEllipse
 10
203.0182049704696
 20
301.6326759685924
 30
0.0
 11
7.347880794883997E-17
 21
1.19999999999998
 31
0.0
210
0.0
220
0.0
230
1.0
 40
0.5735764363511086
 41
0.8900105576281478
 42
2.251582095961671
  0
LINE
  5
338
330
1F
100
AcDbEntity
  8
NoLayerName_002
  6
Continuous
 62
     7
370
    25
100
AcDbLine
 10
202.6899520114228
 20
302.8326759685924
 30
0.0
 11
196.4419489585806
 21
302.8326759685924
 31
0.0
  0
LINE
  5
339
330
1F
100
AcDbEntity
  8
NoLayerName_002
  6
Continuous
 62
     7
370
    50
100
AcDbLine
 10
202.4833483442506
 20
302.3879605555974
 30
0.0
 11
202.9132828080389
 21
303.313396610249
 31
0.0
  0
ELLIPSE
  5
33A
330
1F
100
AcDbEntity
  8
NoLayerName_002
  6
Continuous
 62
     7
370
    50
100
AcDbEllipse
 10
204.5254447319612
 20
301.6326759685924
 30
0.0
 11
1.714505518806307E-16
 21
2.80000000000002
 31
0.0
210
0.0
220
0.0
230
1.0
 40
0.5735764363510407
 41
0.0
 42
6.283185307179586
  0
LINE
  5
33B
330
1F
100
AcDbEntity
  8
NoLayerName_002
  6
Continuous
 62
     7
370
    50
100
AcDbLine
 10
204.2854447319613
 20
302.0326759685925
 30
0.0
 11
204.2854447319613
 21
303.2326759685924
 31
0.0
  0
LINE
  5
33C
330
1F
100
AcDbEntity
  8
NoLayerName_002
  6
Continuous
 62
     7
370
    50
100
AcDbLine
 10
204.7654447319613
 20
303.2326759685925
 30
0.0
 11
204.2854447319613
 21
303.2326759685925
 31
0.0
  0
LINE
  5
33D
330
1F
100
AcDbEntity
  8
NoLayerName_002
  6
Continuous
 62
     7
370
    50
100
AcDbLine
 10
204.7654447319613
 20
302.0326759685925
 30
0.0
 11
204.7654447319613
 21
303.2326759685924
 31
0.0
  0
LINE
  5
33E
330
1F
100
AcDbEntity
  8
NoLayerName_002
  6
Continuous
 62
     7
370
    50
100
AcDbLine
 10
205.3254447319612
 20
302.0326759685925
 30
0.0
 11
204.7654447319612
 21
302.0326759685925
 31
0.0
  0
LINE
  5
33F
330
1F
100
AcDbEntity
  8
NoLayerName_002
  6
Continuous
 62
     7
370
    50
100
AcDbLine
 10
205.3254447319612
 20
302.0326759685925
 30
0.0
 11
205.3254447319612
 21
301.2326759685924
 31
0.0
  0
LINE
  5
340
330
1F
100
AcDbEntity
  8
NoLayerName_002
  6
Continuous
 62
     7
370
    50
100
AcDbLine
 10
205.3254447319612
 20
301.2326759685925
 30
0.0
 11
204.7654447319612
 21
301.2326759685925
 31
0.0
  0
LINE
  5
341
330
1F
100
AcDbEntity
  8
NoLayerName_002
  6
Continuous
 62
     7
370
    50
100
AcDbLine
 10
204.7654447319613
 20
300.0326759685925
 30
0.0
 11
204.2854447319613
 21
300.0326759685925
 31
0.0
  0
LINE
  5
342
330
1F
100
AcDbEntity
  8
NoLayerName_002
  6
Continuous
 62
     7
370
    50
100
AcDbLine
 10
204.2854447319613
 20
300.0326759685925
 30
0.0
 11
204.2854447319613
 21
301.2326759685924
 31
0.0
  0
LINE
  5
343
330
1F
100
AcDbEntity
  8
NoLayerName_002
  6
Continuous
 62
     7
370
    50
100
AcDbLine
 10
204.2854447319613
 20
301.2326759685925
 30
0.0
 11
203.7254447319613
 21
301.2326759685925
 31
0.0
  0
LINE
  5
344
330
1F
100
AcDbEntity
  8
NoLayerName_002
  6
Continuous
 62
     7
370
    50
100
AcDbLine
 10
203.7254447319613
 20
302.0326759685925
 30
0.0
 11
203.7254447319613
 21
301.2326759685924
 31
0.0
  0
LINE
  5
345
330
1F
100
AcDbEntity
  8
NoLayerName_002
  6
Continuous
 62
     7
370
    50
100
AcDbLine
 10
204.2854447319613
 20
302.0326759685925
 30
0.0
 11
203.7254447319613
 21
302.0326759685925
 31
0.0
  0
LINE
  5
346
330
1F
100
AcDbEntity
  8
NoLayerName_002
  6
Continuous
 62
     7
370
    50
100
AcDbLine
 10
196.4419489585807
 20
300.2726759685925
 30
0.0
 11
202.7642840129268
 21
300.2726759685925
 31
0.0
  0
LINE
  5
347
330
1F
100
AcDbEntity
  8
NoLayerName_002
  6
Continuous
 62
     7
370
    50
100
AcDbLine
 10
196.4419489585807
 20
302.9926759685925
 30
0.0
 11
202.7642840129268
 21
302.9926759685925
 31
0.0
  0
ELLIPSE
  5
348
330
1F
100
AcDbEntity
  8
NoLayerName_002
  6
Continuous
 62
     7
370
    50
100
AcDbEllipse
 10
200.0182049704696
 20
301.6326759685924
 30
0.0
 11
7.347880794883997E-17
 21
1.19999999999998
 31
0.0
210
0.0
220
0.0
230
1.0
 40
0.5735764363511086
 41
0.1110181595405173
 42
3.141592653589793
  0
ELLIPSE
  5
349
330
1F
100
AcDbEntity
  8
NoLayerName_002
  6
Continuous
 62
     7
370
    50
100
AcDbEllipse
 10
199.0182049704696
 20
301.6326759685924
 30
0.0
 11
7.347880794883997E-17
 21
1.19999999999998
 31
0.0
210
0.0
220
0.0
230
1.0
 40
0.5735764363511086
 41
0.1110181595405173
 42
3.141592653589793
  0
ELLIPSE
  5
34A
330
1F
100
AcDbEntity
  8
NoLayerName_002
  6
Continuous
 62
     7
370
    50
100
AcDbEllipse
 10
198.0182049704696
 20
301.6326759685924
 30
0.0
 11
7.347880794883997E-17
 21
1.19999999999998
 31
0.0
210
0.0
220
0.0
230
1.0
 40
0.5735764363511086
 41
0.1110181595405173
 42
3.141592653589793
  0
LINE
  5
34B
330
1F
100
AcDbEntity
  8
NoLayerName_002
  6
Continuous
 62
     7
370
    50
100
AcDbLine
 10
204.7654447319613
 20
301.2326759685923
 30
0.0
 11
204.7654447319613
 21
300.0326759685923
 31
0.0
  0
LINE
  5
34C
330
1F
100
AcDbEntity
  8
NoLayerName_001
  6
Continuous
 62
    30
370
    50
100
AcDbLine
 10
203.9419489585804
 20
304.3960066021934
 30
0.0
 11
203.9419489585804
 21
306.1326759685924
 31
0.0
  0
LINE
  5
34D
330
1F
100
AcDbEntity
  8
NoLayerName_001
  6
Continuous
 62
    30
370
    50
100
AcDbLine
 10
203.9419489585804
 20
298.8693453349913
 30
0.0
 11
203.9419489585804
 21
278.6326759685923
 31
0.0
  0
LINE
  5
34E
330
1F
100
AcDbEntity
  8
NoLayerName_001
  6
Continuous
 62
    30
370
    50
100
AcDbLine
 10
205.9419489585804
 20
300.3134260762411
 30
0.0
 11
205.9419489585804
 21
283.6326759685924
 31
0.0
  0
LINE
  5
34F
330
1F
100
AcDbEntity
  8
NoLayerName_001
  6
Continuous
 62
    30
370
    50
100
AcDbLine
 10
205.9419489585804
 20
302.9519258609437
 30
0.0
 11
205.9419489585804
 21
306.1326759685923
 31
0.0
  0
LINE
  5
350
330
1F
100
AcDbEntity
  8
NoLayerName_001
  6
Continuous
 62
    30
370
    50
100
AcDbLine
 10
200.4419489585807
 20
300.2726759685925
 30
0.0
 11
200.4419489585807
 21
296.6326759685925
 31
0.0
  0
LINE
  5
351
330
1F
100
AcDbEntity
  8
NoLayerName_001
  6
Continuous
 62
    30
370
    50
100
AcDbLine
 10
200.4419489585807
 20
302.9926759685925
 30
0.0
 11
200.4419489585807
 21
306.6326759685924
 31
0.0
  0
LINE
  5
352
330
1F
100
AcDbEntity
  8
NoLayerName_002
  6
Continuous
 62
     7
370
    25
100
AcDbLine
 10
202.6899520114228
 20
250.4326759685922
 30
0.0
 11
196.4419489585806
 21
250.4326759685922
 31
0.0
  0
LINE
  5
353
330
1F
100
AcDbEntity
  8
NoLayerName_002
  6
Continuous
 62
     7
370
    50
100
AcDbLine
 10
202.4833483442506
 20
250.8773913815875
 30
0.0
 11
202.9132828080389
 21
249.9519553269358
 31
0.0
  0
ELLIPSE
  5
354
330
1F
100
AcDbEntity
  8
NoLayerName_002
  6
Continuous
 62
     7
370
    50
100
AcDbEllipse
 10
204.1977839142457
 20
251.6326759685923
 30
0.0
 11
1.714505518806307E-16
 21
2.80000000000002
 31
0.0
210
0.0
220
0.0
230
1.0
 40
0.5735764363510407
 41
0.0
 42
3.141592653589793
  0
ELLIPSE
  5
355
330
1F
100
AcDbEntity
  8
NoLayerName_002
  6
Continuous
 62
     7
370
    50
100
AcDbEllipse
 10
203.0182049704696
 20
251.6326759685923
 30
0.0
 11
7.347880794883997E-17
 21
1.19999999999998
 31
0.0
210
0.0
220
0.0
230
1.0
 40
0.5735764363511086
 41
0.8900105576281478
 42
2.251582095961671
  0
LINE
  5
356
330
1F
100
AcDbEntity
  8
NoLayerName_002
  6
Continuous
 62
     7
370
    25
100
AcDbLine
 10
202.6899520114228
 20
252.8326759685923
 30
0.0
 11
196.4419489585806
 21
252.8326759685923
 31
0.0
  0
LINE
  5
357
330
1F
100
AcDbEntity
  8
NoLayerName_002
  6
Continuous
 62
     7
370
    50
100
AcDbLine
 10
202.4833483442506
 20
252.3879605555973
 30
0.0
 11
202.9132828080389
 21
253.3133966102489
 31
0.0
  0
ELLIPSE
  5
358
330
1F
100
AcDbEntity
  8
NoLayerName_002
  6
Continuous
 62
     7
370
    50
100
AcDbEllipse
 10
204.5254447319612
 20
251.6326759685923
 30
0.0
 11
1.714505518806307E-16
 21
2.80000000000002
 31
0.0
210
0.0
220
0.0
230
1.0
 40
0.5735764363510407
 41
0.0
 42
6.283185307179586
  0
LINE
  5
359
330
1F
100
AcDbEntity
  8
NoLayerName_002
  6
Continuous
 62
     7
370
    50
100
AcDbLine
 10
204.2854447319613
 20
252.0326759685923
 30
0.0
 11
204.2854447319613
 21
253.2326759685923
 31
0.0
  0
LINE
  5
35A
330
1F
100
AcDbEntity
  8
NoLayerName_002
  6
Continuous
 62
     7
370
    50
100
AcDbLine
 10
204.7654447319613
 20
253.2326759685924
 30
0.0
 11
204.2854447319613
 21
253.2326759685924
 31
0.0
  0
LINE
  5
35B
330
1F
100
AcDbEntity
  8
NoLayerName_002
  6
Continuous
 62
     7
370
    50
100
AcDbLine
 10
204.7654447319613
 20
252.0326759685923
 30
0.0
 11
204.7654447319613
 21
253.2326759685923
 31
0.0
  0
LINE
  5
35C
330
1F
100
AcDbEntity
  8
NoLayerName_002
  6
Continuous
 62
     7
370
    50
100
AcDbLine
 10
205.3254447319612
 20
252.0326759685923
 30
0.0
 11
204.7654447319612
 21
252.0326759685923
 31
0.0
  0
LINE
  5
35D
330
1F
100
AcDbEntity
  8
NoLayerName_002
  6
Continuous
 62
     7
370
    50
100
AcDbLine
 10
205.3254447319612
 20
252.0326759685923
 30
0.0
 11
205.3254447319612
 21
251.2326759685923
 31
0.0
  0
LINE
  5
35E
330
1F
100
AcDbEntity
  8
NoLayerName_002
  6
Continuous
 62
     7
370
    50
100
AcDbLine
 10
205.3254447319612
 20
251.2326759685924
 30
0.0
 11
204.7654447319612
 21
251.2326759685924
 31
0.0
  0
LINE
  5
35F
330
1F
100
AcDbEntity
  8
NoLayerName_002
  6
Continuous
 62
     7
370
    50
100
AcDbLine
 10
204.7654447319613
 20
250.0326759685923
 30
0.0
 11
204.2854447319613
 21
250.0326759685923
 31
0.0
  0
LINE
  5
360
330
1F
100
AcDbEntity
  8
NoLayerName_002
  6
Continuous
 62
     7
370
    50
100
AcDbLine
 10
204.2854447319613
 20
250.0326759685923
 30
0.0
 11
204.2854447319613
 21
251.2326759685923
 31
0.0
  0
LINE
  5
361
330
1F
100
AcDbEntity
  8
NoLayerName_002
  6
Continuous
 62
     7
370
    50
100
AcDbLine
 10
204.2854447319613
 20
251.2326759685924
 30
0.0
 11
203.7254447319613
 21
251.2326759685924
 31
0.0
  0
LINE
  5
362
330
1F
100
AcDbEntity
  8
NoLayerName_002
  6
Continuous
 62
     7
370
    50
100
AcDbLine
 10
203.7254447319613
 20
252.0326759685923
 30
0.0
 11
203.7254447319613
 21
251.2326759685923
 31
0.0
  0
LINE
  5
363
330
1F
100
AcDbEntity
  8
NoLayerName_002
  6
Continuous
 62
     7
370
    50
100
AcDbLine
 10
204.2854447319613
 20
252.0326759685923
 30
0.0
 11
203.7254447319613
 21
252.0326759685923
 31
0.0
  0
LINE
  5
364
330
1F
100
AcDbEntity
  8
NoLayerName_002
  6
Continuous
 62
     7
370
    50
100
AcDbLine
 10
196.4419489585807
 20
250.2726759685924
 30
0.0
 11
202.7642840129268
 21
250.2726759685924
 31
0.0
  0
LINE
  5
365
330
1F
100
AcDbEntity
  8
NoLayerName_002
  6
Continuous
 62
     7
370
    50
100
AcDbLine
 10
196.4419489585807
 20
252.9926759685924
 30
0.0
 11
202.7642840129268
 21
252.9926759685924
 31
0.0
  0
ELLIPSE
  5
366
330
1F
100
AcDbEntity
  8
NoLayerName_002
  6
Continuous
 62
     7
370
    50
100
AcDbEllipse
 10
200.0182049704696
 20
251.6326759685923
 30
0.0
 11
7.347880794883997E-17
 21
1.19999999999998
 31
0.0
210
0.0
220
0.0
230
1.0
 40
0.5735764363511086
 41
0.1110181595405173
 42
3.141592653589793
  0
ELLIPSE
  5
367
330
1F
100
AcDbEntity
  8
NoLayerName_002
  6
Continuous
 62
     7
370
    50
100
AcDbEllipse
 10
199.0182049704696
 20
251.6326759685923
 30
0.0
 11
7.347880794883997E-17
 21
1.19999999999998
 31
0.0
210
0.0
220
0.0
230
1.0
 40
0.5735764363511086
 41
0.1110181595405173
 42
3.141592653589793
  0
ELLIPSE
  5
368
330
1F
100
AcDbEntity
  8
NoLayerName_002
  6
Continuous
 62
     7
370
    50
100
AcDbEllipse
 10
198.0182049704696
 20
251.6326759685923
 30
0.0
 11
7.347880794883997E-17
 21
1.19999999999998
 31
0.0
210
0.0
220
0.0
230
1.0
 40
0.5735764363511086
 41
0.1110181595405173
 42
3.141592653589793
  0
LINE
  5
369
330
1F
100
AcDbEntity
  8
NoLayerName_002
  6
Continuous
 62
     7
370
    50
100
AcDbLine
 10
204.7654447319613
 20
251.2326759685922
 30
0.0
 11
204.7654447319613
 21
250.0326759685922
 31
0.0
  0
LINE
  5
36A
330
1F
100
AcDbEntity
  8
NoLayerName_002
  6
Continuous
 62
     4
370
    25
100
AcDbLine
 10
206.062948958581
 20
252.4425083922237
 30
0.0
 11
206.062948958581
 21
270.5326759685925
 31
0.0
  0
LINE
  5
36B
330
1F
100
AcDbEntity
  8
NoLayerName_002
  6
Continuous
 62
     4
370
    25
100
AcDbLine
 10
202.820948958581
 20
253.1146475437046
 30
0.0
 11
202.820948958581
 21
270.5326759685925
 31
0.0
  0
LINE
  5
36C
330
1F
100
AcDbEntity
  8
NoLayerName_002
  6
Continuous
 62
     4
370
    50
100
AcDbLine
 10
202.4419489585807
 20
252.9926759685924
 30
0.0
 11
202.4419489585807
 21
269.1326759685925
 31
0.0
  0
ARC
  5
36D
330
1F
100
AcDbEntity
  8
NoLayerName_001
  6
Continuous
 62
    30
370
    50
100
AcDbCircle
 10
223.9419489585804
 20
259.1326759685924
 30
0.0
 40
10.0
100
AcDbArc
 50
211.7883306170576
 51
264.260829522733
  0
ARC
  5
36E
330
1F
100
AcDbEntity
  8
NoLayerName_001
  6
Continuous
 62
    30
370
    50
100
AcDbCircle
 10
223.9419489585804
 20
259.1326759685924
 30
0.0
 40
8.5
100
AcDbArc
 50
160.1642486217235
 51
259.8357513782764
  0
LINE
  5
36F
330
1F
100
AcDbEntity
  8
NoLayerName_001
  6
Continuous
 62
     7
370
    50
100
AcDbLine
 10
136.0233715294403
 20
302.9926759685925
 30
0.0
 11
130.0569473070539
 21
301.6326759685924
 31
0.0
  0
LINE
  5
370
330
1F
100
AcDbEntity
  8
NoLayerName_001
  6
Continuous
 62
     7
370
    50
100
AcDbLine
 10
136.0233715294399
 20
300.2726759685925
 30
0.0
 11
130.0569473070539
 21
301.6326759685924
 31
0.0
  0
LINE
  5
371
330
1F
100
AcDbEntity
  8
NoLayerName_002
  6
Continuous
 62
     7
370
    25
100
AcDbLine
 10
136.1569473070539
 20
300.4326759685923
 30
0.0
 11
135.3214392679833
 21
300.4326759685923
 31
0.0
  0
LINE
  5
372
330
1F
100
AcDbEntity
  8
NoLayerName_002
  6
Continuous
 62
     7
370
    25
100
AcDbLine
 10
136.1569473070539
 20
302.8326759685924
 30
0.0
 11
135.3214392679827
 21
302.8326759685924
 31
0.0
  0
ARC
  5
373
330
1F
100
AcDbEntity
  8
NoLayerName_002
  6
Continuous
 62
     7
370
    50
100
AcDbCircle
 10
129.4202580870115
 20
300.3366797679347
 30
0.0
 40
4.148799746929965
100
AcDbArc
 50
6.955279387823006
 51
28.532407376275
  0
ARC
  5
374
330
1F
100
AcDbEntity
  8
NoLayerName_002
  6
Continuous
 62
     7
370
    50
100
AcDbCircle
 10
129.4202580870115
 20
300.3366797679347
 30
0.0
 40
5.148799746929965
100
AcDbArc
 50
2.995903386776288
 51
25.42831438099864
  0
ARC
  5
375
330
1F
100
AcDbEntity
  8
NoLayerName_002
  6
Continuous
 62
     7
370
    50
100
AcDbCircle
 10
129.4202580870115
 20
300.3366797679347
 30
0.0
 40
6.148799746929965
100
AcDbArc
 50
0.3688405612162228
 51
23.35548922219357
  0
LINE
  5
376
330
1F
100
AcDbEntity
  8
NoLayerName_001
  6
Continuous
 62
     7
370
    50
100
AcDbLine
 10
136.0233715294404
 20
252.9926759685924
 30
0.0
 11
130.056947307054
 21
251.6326759685923
 31
0.0
  0
LINE
  5
377
330
1F
100
AcDbEntity
  8
NoLayerName_001
  6
Continuous
 62
     7
370
    50
100
AcDbLine
 10
136.02337152944
 20
250.2726759685924
 30
0.0
 11
130.056947307054
 21
251.6326759685923
 31
0.0
  0
LINE
  5
378
330
1F
100
AcDbEntity
  8
NoLayerName_002
  6
Continuous
 62
     7
370
    25
100
AcDbLine
 10
136.156947307054
 20
250.4326759685922
 30
0.0
 11
135.3214392679834
 21
250.4326759685922
 31
0.0
  0
LINE
  5
379
330
1F
100
AcDbEntity
  8
NoLayerName_002
  6
Continuous
 62
     7
370
    25
100
AcDbLine
 10
136.156947307054
 20
252.8326759685923
 30
0.0
 11
135.3214392679828
 21
252.8326759685923
 31
0.0
  0
ARC
  5
37A
330
1F
100
AcDbEntity
  8
NoLayerName_002
  6
Continuous
 62
     7
370
    50
100
AcDbCircle
 10
129.4202580870116
 20
250.3366797679346
 30
0.0
 40
4.148799746929965
100
AcDbArc
 50
6.955279387823006
 51
28.532407376275
  0
ARC
  5
37B
330
1F
100
AcDbEntity
  8
NoLayerName_002
  6
Continuous
 62
     7
370
    50
100
AcDbCircle
 10
129.4202580870116
 20
250.3366797679346
 30
0.0
 40
5.148799746929965
100
AcDbArc
 50
2.995903386776288
 51
25.42831438099864
  0
ARC
  5
37C
330
1F
100
AcDbEntity
  8
NoLayerName_002
  6
Continuous
 62
     7
370
    50
100
AcDbCircle
 10
129.4202580870116
 20
250.3366797679346
 30
0.0
 40
6.148799746929965
100
AcDbArc
 50
0.3688405612162228
 51
23.35548922219357
  0
LINE
  5
37D
330
1F
100
AcDbEntity
  8
NoLayerName_001
  6
Continuous
 62
    30
370
    50
100
AcDbLine
 10
200.4419489585807
 20
250.2726759685924
 30
0.0
 11
200.4419489585807
 21
246.6326759685924
 31
0.0
  0
LINE
  5
37E
330
1F
100
AcDbEntity
  8
NoLayerName_001
  6
Continuous
 62
    30
370
    50
100
AcDbLine
 10
200.4419489585807
 20
252.9926759685924
 30
0.0
 11
200.4419489585807
 21
256.6326759685923
 31
0.0
  0
ARC
  5
37F
330
1F
100
AcDbEntity
  8
NoLayerName_001
  6
Continuous
 62
    30
370
    50
100
AcDbCircle
 10
223.9419489585804
 20
294.1326759685924
 30
0.0
 40
10.0
100
AcDbArc
 50
95.73917047726692
 51
204.2608295227333
  0
ARC
  5
380
330
1F
100
AcDbEntity
  8
NoLayerName_001
  6
Continuous
 62
    30
370
    50
100
AcDbCircle
 10
223.9419489585804
 20
294.1326759685924
 30
0.0
 40
8.5
100
AcDbArc
 50
100.1642486217236
 51
199.8357513782766
  0
ARC
  5
381
330
1F
100
AcDbEntity
  8
NoLayerName_001
  6
Continuous
 62
    30
370
    50
100
AcDbCircle
 10
198.5419489585807
 20
154.2113342005113
 30
0.0
 40
2.0
100
AcDbArc
 50
0.0
 51
90.0
  0
ARC
  5
382
330
1F
100
AcDbEntity
  8
NoLayerName_001
  6
Continuous
 62
    30
370
    50
100
AcDbCircle
 10
219.9419489585807
 20
154.2113342005113
 30
0.0
 40
2.0
100
AcDbArc
 50
90.0
 51
180.0
  0
ARC
  5
383
330
1F
100
AcDbEntity
  8
NoLayerName_001
  6
Continuous
 62
    30
370
    50
100
AcDbCircle
 10
244.5419489585807
 20
154.2113342005113
 30
0.0
 40
2.0
100
AcDbArc
 50
0.0
 51
90.0
  0
ARC
  5
384
330
1F
100
AcDbEntity
  8
NoLayerName_001
  6
Continuous
 62
    30
370
    50
100
AcDbCircle
 10
265.9419489585807
 20
154.2113342005113
 30
0.0
 40
2.0
100
AcDbArc
 50
90.0
 51
180.0
  0
ARC
  5
385
330
1F
100
AcDbEntity
  8
NoLayerName_001
  6
Continuous
 62
    30
370
    50
100
AcDbCircle
 10
273.9419489585806
 20
154.2113342005113
 30
0.0
 40
2.0
100
AcDbArc
 50
0.0
 51
90.0
  0
ARC
  5
386
330
1F
100
AcDbEntity
  8
NoLayerName_001
  6
Continuous
 62
    30
370
    50
100
AcDbCircle
 10
295.3419489585806
 20
154.2113342005113
 30
0.0
 40
2.0
100
AcDbArc
 50
90.0
 51
180.0
  0
ELLIPSE
  5
387
330
1F
100
AcDbEntity
  8
NoLayerName_002
  6
Continuous
 62
     7
370
    50
100
AcDbEllipse
 10
197.0182049704696
 20
301.6326759685924
 30
0.0
 11
7.347880794883997E-17
 21
1.19999999999998
 31
0.0
210
0.0
220
0.0
230
1.0
 40
0.5735764363511086
 41
0.1110181595405173
 42
0.9912529339474494
  0
ELLIPSE
  5
388
330
1F
100
AcDbEntity
  8
NoLayerName_002
  6
Continuous
 62
     7
370
    50
100
AcDbEllipse
 10
197.0182049704696
 20
301.6326759685924
 30
0.0
 11
7.347880794883997E-17
 21
1.19999999999998
 31
0.0
210
0.0
220
0.0
230
1.0
 40
0.5735764363511086
 41
2.15020971203703
 42
3.141592653589793
  0
LINE
  5
389
330
1F
100
AcDbEntity
  8
NoLayerName_001
  6
Continuous
 62
    30
370
    50
100
AcDbLine
 10
197.9419489585807
 20
326.1326759685921
 30
0.0
 11
197.9419489585807
 21
306.6326759685924
 31
0.0
  0
LINE
  5
38A
330
1F
100
AcDbEntity
  8
NoLayerName_001
  6
Continuous
 62
    30
370
    50
100
AcDbLine
 10
295.9419489585807
 20
227.1326759685925
 30
0.0
 11
295.9419489585807
 21
326.1326759685921
 31
0.0
  0
LINE
  5
38B
330
1F
100
AcDbEntity
  8
NoLayerName_001
  6
Continuous
 62
    30
370
    50
100
AcDbLine
 10
247.4419489585806
 20
232.1326759685927
 30
0.0
 11
247.4419489585806
 21
273.6746360770426
 31
0.0
  0
LINE
  5
38C
330
1F
100
AcDbEntity
  8
NoLayerName_001
  6
Continuous
 62
    30
370
    50
100
AcDbLine
 10
246.4419489585806
 20
232.1326759685925
 30
0.0
 11
246.4419489585806
 21
274.0345997572391
 31
0.0
  0
LINE
  5
38D
330
1F
100
AcDbEntity
  8
NoLayerName_001
  6
Continuous
 62
    30
370
    50
100
AcDbLine
 10
197.9419489585807
 20
227.1326759685925
 30
0.0
 11
197.9419489585807
 21
246.6326759685922
 31
0.0
  0
ARC
  5
38E
330
1F
100
AcDbEntity
  8
NoLayerName_001
  6
Continuous
 62
    21
370
    50
100
AcDbCircle
 10
241.4419489585806
 20
324.5326759685922
 30
0.0
 40
0.3000000000000114
100
AcDbArc
 50
160.5287793655061
 51
180.0
  0
ARC
  5
38F
330
1F
100
AcDbEntity
  8
NoLayerName_001
  6
Continuous
 62
    21
370
    50
100
AcDbCircle
 10
242.2419489585806
 20
324.3326759685923
 30
0.0
 40
0.5
100
AcDbArc
 50
0.0
 51
36.86989764583751
  0
ARC
  5
390
330
1F
100
AcDbEntity
  8
NoLayerName_001
  6
Continuous
 62
    21
370
    50
100
AcDbCircle
 10
241.4419489585806
 20
228.7326759685923
 30
0.0
 40
0.2999999999999972
100
AcDbArc
 50
180.0
 51
199.4712206344494
  0
ARC
  5
391
330
1F
100
AcDbEntity
  8
NoLayerName_001
  6
Continuous
 62
    21
370
    50
100
AcDbCircle
 10
242.2419489585806
 20
228.9326759685923
 30
0.0
 40
0.5
100
AcDbArc
 50
323.1301023541788
 51
0.0
  0
LINE
  5
392
330
1F
100
AcDbEntity
  8
NoLayerName_001
  6
Continuous
 62
     7
370
    50
100
AcDbLine
 10
204.5254447319612
 20
248.8326759685923
 30
0.0
 11
204.1977839142457
 21
248.8326759685922
 31
0.0
  0
LINE
  5
393
330
1F
100
AcDbEntity
  8
NoLayerName_001
  6
Continuous
 62
     7
370
    50
100
AcDbLine
 10
204.1977839142457
 20
254.4326759685922
 30
0.0
 11
204.5254447319612
 21
254.4326759685923
 31
0.0
  0
LINE
  5
394
330
1F
100
AcDbEntity
  8
NoLayerName_001
  6
Continuous
 62
     7
370
    50
100
AcDbLine
 10
204.1977839142457
 20
304.4326759685923
 30
0.0
 11
204.5254447319612
 21
304.4326759685923
 31
0.0
  0
LINE
  5
395
330
1F
100
AcDbEntity
  8
NoLayerName_001
  6
Continuous
 62
     7
370
    50
100
AcDbLine
 10
204.1977839142457
 20
298.8326759685923
 30
0.0
 11
204.5254447319612
 21
298.8326759685924
 31
0.0
  0
LINE
  5
396
330
1F
100
AcDbEntity
  8
NoLayerName_002
  6
Continuous
 62
     4
370
    50
100
AcDbLine
 10
215.441948958581
 20
238.1326759685925
 30
0.0
 11
215.441948958581
 21
269.1326759685925
 31
0.0
  0
LINE
  5
397
330
1F
100
AcDbEntity
  8
NoLayerName_002
  6
Continuous
 62
     4
370
    25
100
AcDbLine
 10
211.8209489585809
 20
235.6326759685924
 30
0.0
 11
211.8209489585809
 21
270.5326759685926
 31
0.0
  0
LINE
  5
398
330
1F
100
AcDbEntity
  8
NoLayerName_002
  6
Continuous
 62
     4
370
    25
100
AcDbLine
 10
215.0629489585809
 20
235.6326759685924
 30
0.0
 11
215.0629489585809
 21
270.5326759685925
 31
0.0
  0
LINE
  5
399
330
1F
100
AcDbEntity
  8
NoLayerName_002
  6
Continuous
 62
     4
370
    50
100
AcDbLine
 10
211.441948958581
 20
238.1326759685925
 30
0.0
 11
211.441948958581
 21
269.1326759685925
 31
0.0
  0
LINE
  5
39A
330
1F
100
AcDbEntity
  8
NoLayerName_002
  6
Continuous
 62
     4
370
    50
100
AcDbLine
 10
213.4419489585808
 20
234.1326759685924
 30
0.0
 11
211.6919489585807
 21
235.4451759685926
 31
0.0
  0
LINE
  5
39B
330
1F
100
AcDbEntity
  8
NoLayerName_002
  6
Continuous
 62
     4
370
    50
100
AcDbLine
 10
211.6919489585807
 20
235.6326759685924
 30
0.0
 11
215.1919489585807
 21
235.6326759685924
 31
0.0
  0
LINE
  5
39C
330
1F
100
AcDbEntity
  8
NoLayerName_002
  6
Continuous
 62
     4
370
    50
100
AcDbLine
 10
215.1919489585807
 20
235.4451759685922
 30
0.0
 11
213.4419489585808
 21
234.1326759685925
 31
0.0
  0
LINE
  5
39D
330
1F
100
AcDbEntity
  8
NoLayerName_001
  6
Continuous
 62
    30
370
    50
100
AcDbLine
 10
211.6919489585807
 20
234.1326759685925
 30
0.0
 11
215.1919489585807
 21
234.1326759685925
 31
0.0
  0
LINE
  5
39E
330
1F
100
AcDbEntity
  8
NoLayerName_001
  6
Continuous
 62
    30
370
    50
100
AcDbLine
 10
211.6919489585807
 20
238.1326759685925
 30
0.0
 11
209.9419489585807
 21
238.1326759685925
 31
0.0
  0
LINE
  5
39F
330
1F
100
AcDbEntity
  8
NoLayerName_001
  6
Continuous
 62
    30
370
    50
100
AcDbLine
 10
215.1919489585807
 20
238.1326759685925
 30
0.0
 11
216.9419489585807
 21
238.1326759685925
 31
0.0
  0
LINE
  5
3A0
330
1F
100
AcDbEntity
  8
NoLayerName_001
  6
Continuous
 62
    30
370
    50
100
AcDbLine
 10
202.6919489585807
 20
234.1326759685925
 30
0.0
 11
206.1919489585807
 21
234.1326759685925
 31
0.0
  0
LINE
  5
3A1
330
1F
100
AcDbEntity
  8
NoLayerName_002
  6
Continuous
 62
     4
370
    50
100
AcDbLine
 10
202.4419489585807
 20
250.2726759685924
 30
0.0
 11
202.4419489585807
 21
238.1326759685925
 31
0.0
  0
LINE
  5
3A2
330
1F
100
AcDbEntity
  8
NoLayerName_002
  6
Continuous
 62
     4
370
    25
100
AcDbLine
 10
202.820948958581
 20
250.1507043934801
 30
0.0
 11
202.820948958581
 21
235.6326759685924
 31
0.0
  0
LINE
  5
3A3
330
1F
100
AcDbEntity
  8
NoLayerName_002
  6
Continuous
 62
     4
370
    25
100
AcDbLine
 10
206.062948958581
 20
250.8228435449607
 30
0.0
 11
206.062948958581
 21
235.6326759685924
 31
0.0
  0
LINE
  5
3A4
330
1F
100
AcDbEntity
  8
NoLayerName_002
  6
Continuous
 62
     4
370
    50
100
AcDbLine
 10
206.4419489585807
 20
238.1326759685925
 30
0.0
 11
206.4419489585807
 21
269.1326759685925
 31
0.0
  0
LINE
  5
3A5
330
1F
100
AcDbEntity
  8
NoLayerName_001
  6
Continuous
 62
    30
370
    50
100
AcDbLine
 10
202.6919489585807
 20
238.1326759685925
 30
0.0
 11
200.9419489585807
 21
238.1326759685925
 31
0.0
  0
LINE
  5
3A6
330
1F
100
AcDbEntity
  8
NoLayerName_001
  6
Continuous
 62
    30
370
    50
100
AcDbLine
 10
206.1919489585807
 20
238.1326759685925
 30
0.0
 11
207.9419489585807
 21
238.1326759685925
 31
0.0
  0
LINE
  5
3A7
330
1F
100
AcDbEntity
  8
NoLayerName_002
  6
Continuous
 62
     4
370
    50
100
AcDbLine
 10
204.4419489585808
 20
234.1326759685924
 30
0.0
 11
206.1919489585807
 21
235.4451759685924
 31
0.0
  0
LINE
  5
3A8
330
1F
100
AcDbEntity
  8
NoLayerName_002
  6
Continuous
 62
     4
370
    50
100
AcDbLine
 10
206.1919489585807
 20
235.6326759685924
 30
0.0
 11
202.6919489585807
 21
235.6326759685924
 31
0.0
  0
LINE
  5
3A9
330
1F
100
AcDbEntity
  8
NoLayerName_002
  6
Continuous
 62
     4
370
    50
100
AcDbLine
 10
202.6919489585807
 20
235.4451759685925
 30
0.0
 11
204.4419489585808
 21
234.1326759685925
 31
0.0
  0
ELLIPSE
  5
3AA
330
1F
100
AcDbEntity
  8
NoLayerName_002
  6
Continuous
 62
     7
370
    50
100
AcDbEllipse
 10
197.0182049704696
 20
251.6326759685923
 30
0.0
 11
7.347880794883997E-17
 21
1.19999999999998
 31
0.0
210
0.0
220
0.0
230
1.0
 40
0.5735764363511086
 41
0.11101815954052
 42
0.9912529339475943
  0
ELLIPSE
  5
3AB
330
1F
100
AcDbEntity
  8
NoLayerName_002
  6
Continuous
 62
     7
370
    50
100
AcDbEllipse
 10
197.0182049704696
 20
251.6326759685923
 30
0.0
 11
7.347880794883997E-17
 21
1.19999999999998
 31
0.0
210
0.0
220
0.0
230
1.0
 40
0.5735764363511086
 41
2.150209712039085
 42
3.141592653589793
  0
LINE
  5
3AC
330
1F
100
AcDbEntity
  8
NoLayerName_001
  6
Continuous
 62
    30
370
    50
100
AcDbLine
 10
278.6919489585807
 20
319.1326759685921
 30
0.0
 11
282.1919489585807
 21
319.1326759685921
 31
0.0
  0
LINE
  5
3AD
330
1F
100
AcDbEntity
  8
NoLayerName_001
  6
Continuous
 62
    30
370
    50
100
AcDbLine
 10
282.1919489585807
 20
315.1326759685921
 30
0.0
 11
283.9419489585807
 21
315.1326759685921
 31
0.0
  0
LINE
  5
3AE
330
1F
100
AcDbEntity
  8
NoLayerName_001
  6
Continuous
 62
    30
370
    50
100
AcDbLine
 10
278.6919489585807
 20
315.1326759685921
 30
0.0
 11
276.9419489585807
 21
315.1326759685921
 31
0.0
  0
LINE
  5
3AF
330
1F
100
AcDbEntity
  8
NoLayerName_001
  6
Continuous
 62
    30
370
    50
100
AcDbLine
 10
287.6919489585807
 20
315.1326759685921
 30
0.0
 11
285.9419489585807
 21
315.1326759685921
 31
0.0
  0
LINE
  5
3B0
330
1F
100
AcDbEntity
  8
NoLayerName_001
  6
Continuous
 62
    30
370
    50
100
AcDbLine
 10
291.1919489585807
 20
315.1326759685921
 30
0.0
 11
292.9419489585807
 21
315.1326759685921
 31
0.0
  0
LINE
  5
3B1
330
1F
100
AcDbEntity
  8
NoLayerName_001
  6
Continuous
 62
    30
370
    50
100
AcDbLine
 10
287.6919489585807
 20
319.1326759685921
 30
0.0
 11
291.1919489585807
 21
319.1326759685921
 31
0.0
  0
LINE
  5
3B2
330
1F
100
AcDbEntity
  8
NoLayerName_002
  6
Continuous
 62
     4
370
    50
100
AcDbLine
 10
287.441948958581
 20
315.1326759685921
 30
0.0
 11
287.441948958581
 21
284.1326759685921
 31
0.0
  0
LINE
  5
3B3
330
1F
100
AcDbEntity
  8
NoLayerName_002
  6
Continuous
 62
     4
370
    50
100
AcDbLine
 10
291.441948958581
 20
315.1326759685921
 30
0.0
 11
291.441948958581
 21
284.1326759685921
 31
0.0
  0
LINE
  5
3B4
330
1F
100
AcDbEntity
  8
NoLayerName_002
  6
Continuous
 62
     4
370
    25
100
AcDbLine
 10
287.8209489585809
 20
317.6326759685922
 30
0.0
 11
287.8209489585809
 21
282.7326759685921
 31
0.0
  0
LINE
  5
3B5
330
1F
100
AcDbEntity
  8
NoLayerName_002
  6
Continuous
 62
     4
370
    25
100
AcDbLine
 10
291.0629489585809
 20
317.6326759685922
 30
0.0
 11
291.0629489585809
 21
282.732675968592
 31
0.0
  0
LINE
  5
3B6
330
1F
100
AcDbEntity
  8
NoLayerName_002
  6
Continuous
 62
     4
370
    50
100
AcDbLine
 10
289.4419489585808
 20
319.1326759685922
 30
0.0
 11
287.6919489585807
 21
317.820175968592
 31
0.0
  0
LINE
  5
3B7
330
1F
100
AcDbEntity
  8
NoLayerName_002
  6
Continuous
 62
     4
370
    50
100
AcDbLine
 10
287.6919489585807
 20
317.6326759685922
 30
0.0
 11
291.1919489585807
 21
317.6326759685922
 31
0.0
  0
LINE
  5
3B8
330
1F
100
AcDbEntity
  8
NoLayerName_002
  6
Continuous
 62
     4
370
    50
100
AcDbLine
 10
291.1919489585807
 20
317.8201759685924
 30
0.0
 11
289.4419489585808
 21
319.1326759685921
 31
0.0
  0
LINE
  5
3B9
330
1F
100
AcDbEntity
  8
NoLayerName_002
  6
Continuous
 62
     4
370
    25
100
AcDbLine
 10
278.820948958581
 20
317.6326759685922
 30
0.0
 11
278.820948958581
 21
282.7326759685921
 31
0.0
  0
LINE
  5
3BA
330
1F
100
AcDbEntity
  8
NoLayerName_002
  6
Continuous
 62
     4
370
    25
100
AcDbLine
 10
282.062948958581
 20
317.6326759685922
 30
0.0
 11
282.062948958581
 21
282.7326759685921
 31
0.0
  0
LINE
  5
3BB
330
1F
100
AcDbEntity
  8
NoLayerName_002
  6
Continuous
 62
     4
370
    50
100
AcDbLine
 10
278.4419489585807
 20
315.1326759685921
 30
0.0
 11
278.4419489585807
 21
284.1326759685921
 31
0.0
  0
LINE
  5
3BC
330
1F
100
AcDbEntity
  8
NoLayerName_002
  6
Continuous
 62
     4
370
    50
100
AcDbLine
 10
282.4419489585807
 20
315.1326759685921
 30
0.0
 11
282.4419489585807
 21
284.1326759685921
 31
0.0
  0
LINE
  5
3BD
330
1F
100
AcDbEntity
  8
NoLayerName_002
  6
Continuous
 62
     4
370
    50
100
AcDbLine
 10
280.4419489585808
 20
319.1326759685922
 30
0.0
 11
282.1919489585807
 21
317.8201759685923
 31
0.0
  0
LINE
  5
3BE
330
1F
100
AcDbEntity
  8
NoLayerName_002
  6
Continuous
 62
     4
370
    50
100
AcDbLine
 10
278.6919489585807
 20
317.8201759685922
 30
0.0
 11
280.4419489585808
 21
319.1326759685922
 31
0.0
  0
LINE
  5
3BF
330
1F
100
AcDbEntity
  8
NoLayerName_002
  6
Continuous
 62
     4
370
    50
100
AcDbLine
 10
282.1919489585807
 20
317.6326759685922
 30
0.0
 11
278.6919489585807
 21
317.6326759685922
 31
0.0
  0
LINE
  5
3C0
330
1F
100
AcDbEntity
  8
NoLayerName_003
  6
Continuous
 62
     7
370
   100
100
AcDbLine
 10
372.0
 20
80.0
 30
0.0
 11
372.0
 21
40.0
 31
0.0
  0
LINE
  5
3C1
330
1F
100
AcDbEntity
  8
NoLayerName_003
  6
Continuous
 62
     7
370
    25
100
AcDbLine
 10
253.0
 20
54.0
 30
0.0
 11
372.0
 21
54.0
 31
0.0
  0
LINE
  5
3C2
330
1F
100
AcDbEntity
  8
NoLayerName_003
  6
Continuous
 62
     7
370
    25
100
AcDbLine
 10
275.0
 20
80.0
 30
0.0
 11
275.0
 21
40.0
 31
0.0
  0
LINE
  5
3C3
330
1F
100
AcDbEntity
  8
NoLayerName_003
  6
Continuous
 62
     7
370
   100
100
AcDbLine
 10
253.0
 20
80.0
 30
0.0
 11
253.0
 21
40.0
 31
0.0
  0
LINE
  5
3C4
330
1F
100
AcDbEntity
  8
NoLayerName_003
  6
Continuous
 62
     7
370
   100
100
AcDbLine
 10
253.0
 20
40.0
 30
0.0
 11
372.0
 21
40.0
 31
0.0
  0
LINE
  5
3C5
330
1F
100
AcDbEntity
  8
NoLayerName_003
  6
Continuous
 62
     7
370
   100
100
AcDbLine
 10
372.0
 20
80.0
 30
0.0
 11
253.0
 21
80.0
 31
0.0
  0
MTEXT
  5
3C6
330
1F
100
AcDbEntity
  8
NoLayerName_003
 62
     7
370
    50
100
AcDbMText
 10
255.2960004806519
 20
63.79999995231628
 30
0.0
 40
4.413793169218918
 41
0.0
 71
     7
 72
     5
  1
\fＭＳ Ｐゴシック|b0|c128|p50;\A1;品　名
 73
     1
 44
1.299389002163688
1001
ACAD
1000
ACAD_MTEXT_DEFINED_HEIGHT_BEGIN
1070
    46
1040
3.200000047683716
1000
ACAD_MTEXT_DEFINED_HEIGHT_END
  0
MTEXT
  5
3C7
330
1F
100
AcDbEntity
  8
NoLayerName_001
 62
     7
370
    50
100
AcDbMText
 10
323.5000005733241
 20
67.00000004768371
 30
0.0
 40
4.413793169218918
 41
0.0
 71
     5
 72
     5
  1
\fＭＳ Ｐゴシック|b0|c128|p50;\A1;配ボックス　薄型　２個用\P［Ｃシリーズ］
 73
     1
 44
0.9745417371009623
1001
ACAD
1000
ACAD_MTEXT_DEFINED_HEIGHT_BEGIN
1070
    46
1040
6.400000095367432
1000
ACAD_MTEXT_DEFINED_HEIGHT_END
  0
MTEXT
  5
3C8
330
1F
100
AcDbEntity
  8
NoLayerName_003
 62
     7
370
    50
100
AcDbMText
 10
255.2960004806519
 20
43.79999995231628
 30
0.0
 40
4.413793169218918
 41
0.0
 71
     7
 72
     5
  1
\fＭＳ Ｐゴシック|b0|c128|p50;\A1;品　番
 73
     1
 44
1.299389002163688
1001
ACAD
1000
ACAD_MTEXT_DEFINED_HEIGHT_BEGIN
1070
    46
1040
3.200000047683716
1000
ACAD_MTEXT_DEFINED_HEIGHT_END
  0
MTEXT
  5
3C9
330
1F
100
AcDbEntity
  8
NoLayerName_001
 62
     7
370
    50
100
AcDbMText
 10
323.4999996202232
 20
47.00000004768371
 30
0.0
 40
4.413793169218918
 41
0.0
 71
     5
 72
     5
  1
\fＭＳ Ｐゴシック|b0|c128|p50;\A1;ＳＭ２７Ｃ２
 73
     1
 44
1.299389002163688
1001
ACAD
1000
ACAD_MTEXT_DEFINED_HEIGHT_BEGIN
1070
    46
1040
3.200000047683716
1000
ACAD_MTEXT_DEFINED_HEIGHT_END
  0
ENDSEC
  0
SECTION
  2
OBJECTS
  0
DICTIONARY
  5
C
330
0
100
AcDbDictionary
281
     1
  3
ACAD_GROUP
350
D
  3
ACAD_LAYOUT
350
1A
  3
ACAD_MATERIAL
350
3B
  3
ACAD_MLEADERSTYLE
350
3EE
  3
ACAD_MLINESTYLE
350
17
  3
ACAD_PLOTSETTINGS
350
19
  3
ACAD_PLOTSTYLENAME
350
E
  3
ACAD_SCALELIST
350
3CA
  3
ACAD_VISUALSTYLE
350
2A
  3
AcDbVariableDictionary
350
3EC
  3
DWGPROPS
350
3F4
  0
DICTIONARY
  5
D
102
{ACAD_REACTORS
330
C
102
}
330
C
100
AcDbDictionary
281
     1
  0
DICTIONARY
  5
1A
102
{ACAD_REACTORS
330
C
102
}
330
C
100
AcDbDictionary
281
     1
  3
Layout1
350
1E
  3
Model
350
22
  0
DICTIONARY
  5
3B
102
{ACAD_REACTORS
330
C
102
}
330
C
100
AcDbDictionary
281
     1
  3
ByBlock
350
3D
  3
ByLayer
350
3C
  3
Global
350
3E
  0
DICTIONARY
  5
3EE
102
{ACAD_REACTORS
330
C
102
}
330
C
100
AcDbDictionary
281
     1
  0
DICTIONARY
  5
17
102
{ACAD_REACTORS
330
C
102
}
330
C
100
AcDbDictionary
281
     1
  3
Standard
350
18
  0
DICTIONARY
  5
19
102
{ACAD_REACTORS
330
C
102
}
330
C
100
AcDbDictionary
281
     1
  0
ACDBDICTIONARYWDFLT
  5
E
102
{ACAD_REACTORS
330
C
102
}
330
C
100
AcDbDictionary
281
     1
  3
Normal
350
F
100
AcDbDictionaryWithDefault
340
F
  0
DICTIONARY
  5
3CA
102
{ACAD_REACTORS
330
C
102
}
330
C
100
AcDbDictionary
281
     1
  3
A0
350
3CB
  3
A1
350
3CC
  3
A2
350
3CD
  3
A3
350
3CE
  3
A4
350
3CF
  3
A5
350
3D0
  3
A6
350
3D1
  3
A7
350
3D2
  3
A8
350
3D3
  3
A9
350
3D4
  3
B0
350
3D5
  3
B1
350
3D6
  3
B2
350
3D7
  3
B3
350
3D8
  3
B4
350
3D9
  3
B5
350
3DA
  3
B6
350
3DB
  3
B7
350
3DC
  3
B8
350
3DD
  3
B9
350
3DE
  3
C0
350
3DF
  3
C1
350
3E0
  3
C2
350
3E1
  3
C3
350
3E2
  3
C4
350
3E3
  3
C5
350
3E4
  3
C6
350
3E5
  3
C7
350
3E6
  3
C8
350
3E7
  3
C9
350
3E8
  3
D0
350
3E9
  3
D1
350
3EA
  3
D2
350
3EB
  0
DICTIONARY
  5
2A
102
{ACAD_REACTORS
330
C
102
}
330
C
100
AcDbDictionary
281
     1
  3
2dWireframe
350
2F
  3
3D Hidden
350
31
  3
3dWireframe
350
30
  3
Basic
350
32
  3
Brighten
350
36
  3
ColorChange
350
3A
  3
Conceptual
350
34
  3
Dim
350
35
  3
Facepattern
350
39
  3
Flat
350
2B
  3
FlatWithEdges
350
2C
  3
Gouraud
350
2D
  3
GouraudWithEdges
350
2E
  3
Linepattern
350
38
  3
Realistic
350
33
  3
Thicken
350
37
  0
DICTIONARY
  5
3EC
102
{ACAD_REACTORS
330
C
102
}
330
C
100
AcDbDictionary
281
     1
  3
CANNOSCALE
350
3F1
  3
DIMASSOC
350
3F2
  3
HIDETEXT
350
3F3
  3
PSOLHEIGHT
350
3F0
  3
PSOLWIDTH
350
3EF
  0
XRECORD
  5
3F4
102
{ACAD_REACTORS
330
C
102
}
330
C
100
AcDbXrecord
280
     1
  1
DWGPROPS COOKIE
  2

  3

  4

  6
File was created by TR2_DExp
  7

  8

  9

300
=
301
=
302
=
303
=
304
=
305
=
306
=
307
=
308
=
309
=
 40
0.0
 41
2457922.34655956
 42
2457922.346560104
  1

 90
        0
  0
LAYOUT
  5
1E
102
{ACAD_REACTORS
330
1A
102
}
330
1A
100
AcDbPlotSettings
  1

  2
none_device
  4

  6

 40
0.0
 41
0.0
 42
0.0
 43
0.0
 44
0.0
 45
0.0
 46
0.0
 47
0.0
 48
0.0
 49
0.0
140
0.0
141
0.0
142
1.0
143
1.0
 70
   688
 72
     0
 73
     0
 74
     5
  7

 75
    16
147
1.0
148
0.0
149
0.0
100
AcDbLayout
  1
Layout1
 70
     0
 71
     1
 10
0.0
 20
0.0
 11
420.0
 21
297.0
 12
0.0
 22
0.0
 32
0.0
 14
1.000000000000000E+20
 24
1.000000000000000E+20
 34
1.000000000000000E+20
 15
-1.000000000000000E+20
 25
-1.000000000000000E+20
 35
-1.000000000000000E+20
146
0.0
 13
0.0
 23
0.0
 33
0.0
 16
1.0
 26
0.0
 36
0.0
 17
0.0
 27
1.0
 37
0.0
 76
     0
330
1B
  0
LAYOUT
  5
22
102
{ACAD_REACTORS
330
1A
102
}
330
1A
100
AcDbPlotSettings
  1

  2
none_device
  4

  6

 40
0.0
 41
0.0
 42
0.0
 43
0.0
 44
0.0
 45
0.0
 46
0.0
 47
0.0
 48
0.0
 49
0.0
140
0.0
141
0.0
142
1.0
143
1.0
 70
  1712
 72
     0
 73
     0
 74
     0
  7

 75
     0
147
1.0
148
0.0
149
0.0
100
AcDbLayout
  1
Model
 70
     1
 71
     0
 10
108.9624414837276
 20
40.0
 11
372.0
 21
339.4518980894253
 12
0.0
 22
0.0
 32
0.0
 14
108.9624414837276
 24
40.0
 34
0.0
 15
372.0
 25
339.4518980894253
 35
0.0
146
0.0
 13
0.0
 23
0.0
 33
0.0
 16
1.0
 26
0.0
 36
0.0
 17
0.0
 27
1.0
 37
0.0
 76
     0
330
1F
331
29
  0
MATERIAL
  5
3D
102
{ACAD_REACTORS
330
3B
102
}
102
{ACAD_XDICTIONARY
360
417
102
}
330
3B
100
AcDbMaterial
  1
ByBlock
  0
MATERIAL
  5
3C
102
{ACAD_REACTORS
330
3B
102
}
102
{ACAD_XDICTIONARY
360
415
102
}
330
3B
100
AcDbMaterial
  1
ByLayer
  0
MATERIAL
  5
3E
102
{ACAD_REACTORS
330
3B
102
}
102
{ACAD_XDICTIONARY
360
419
102
}
330
3B
100
AcDbMaterial
  1
Global
  0
MLINESTYLE
  5
18
102
{ACAD_REACTORS
330
17
102
}
330
17
100
AcDbMlineStyle
  2
Standard
 70
     0
  3

 62
   256
 51
90.0
 52
90.0
 71
     2
 49
0.5
 62
   256
  6
BYLAYER
 49
-0.5
 62
   256
  6
BYLAYER
  0
ACDBPLACEHOLDER
  5
F
102
{ACAD_REACTORS
330
E
102
}
330
E
  0
SCALE
  5
3CB
102
{ACAD_REACTORS
330
3CA
102
}
330
3CA
100
AcDbScale
 70
     0
300
1:1
140
1.0
141
1.0
290
     1
  0
SCALE
  5
3CC
102
{ACAD_REACTORS
330
3CA
102
}
330
3CA
100
AcDbScale
 70
     0
300
1:2
140
1.0
141
2.0
290
     0
  0
SCALE
  5
3CD
102
{ACAD_REACTORS
330
3CA
102
}
330
3CA
100
AcDbScale
 70
     0
300
1:4
140
1.0
141
4.0
290
     0
  0
SCALE
  5
3CE
102
{ACAD_REACTORS
330
3CA
102
}
330
3CA
100
AcDbScale
 70
     0
300
1:5
140
1.0
141
5.0
290
     0
  0
SCALE
  5
3CF
102
{ACAD_REACTORS
330
3CA
102
}
330
3CA
100
AcDbScale
 70
     0
300
1:8
140
1.0
141
8.0
290
     0
  0
SCALE
  5
3D0
102
{ACAD_REACTORS
330
3CA
102
}
330
3CA
100
AcDbScale
 70
     0
300
1:10
140
1.0
141
10.0
290
     0
  0
SCALE
  5
3D1
102
{ACAD_REACTORS
330
3CA
102
}
330
3CA
100
AcDbScale
 70
     0
300
1:16
140
1.0
141
16.0
290
     0
  0
SCALE
  5
3D2
102
{ACAD_REACTORS
330
3CA
102
}
330
3CA
100
AcDbScale
 70
     0
300
1:20
140
1.0
141
20.0
290
     0
  0
SCALE
  5
3D3
102
{ACAD_REACTORS
330
3CA
102
}
330
3CA
100
AcDbScale
 70
     0
300
1:30
140
1.0
141
30.0
290
     0
  0
SCALE
  5
3D4
102
{ACAD_REACTORS
330
3CA
102
}
330
3CA
100
AcDbScale
 70
     0
300
1:40
140
1.0
141
40.0
290
     0
  0
SCALE
  5
3D5
102
{ACAD_REACTORS
330
3CA
102
}
330
3CA
100
AcDbScale
 70
     0
300
1:50
140
1.0
141
50.0
290
     0
  0
SCALE
  5
3D6
102
{ACAD_REACTORS
330
3CA
102
}
330
3CA
100
AcDbScale
 70
     0
300
1:100
140
1.0
141
100.0
290
     0
  0
SCALE
  5
3D7
102
{ACAD_REACTORS
330
3CA
102
}
330
3CA
100
AcDbScale
 70
     0
300
2:1
140
2.0
141
1.0
290
     0
  0
SCALE
  5
3D8
102
{ACAD_REACTORS
330
3CA
102
}
330
3CA
100
AcDbScale
 70
     0
300
4:1
140
4.0
141
1.0
290
     0
  0
SCALE
  5
3D9
102
{ACAD_REACTORS
330
3CA
102
}
330
3CA
100
AcDbScale
 70
     0
300
8:1
140
8.0
141
1.0
290
     0
  0
SCALE
  5
3DA
102
{ACAD_REACTORS
330
3CA
102
}
330
3CA
100
AcDbScale
 70
     0
300
10:1
140
10.0
141
1.0
290
     0
  0
SCALE
  5
3DB
102
{ACAD_REACTORS
330
3CA
102
}
330
3CA
100
AcDbScale
 70
     0
300
100:1
140
100.0
141
1.0
290
     0
  0
SCALE
  5
3DC
102
{ACAD_REACTORS
330
3CA
102
}
330
3CA
100
AcDbScale
 70
     0
300
1/128" = 1'-0"
140
0.0078125
141
12.0
290
     0
  0
SCALE
  5
3DD
102
{ACAD_REACTORS
330
3CA
102
}
330
3CA
100
AcDbScale
 70
     0
300
1/64" = 1'-0"
140
0.015625
141
12.0
290
     0
  0
SCALE
  5
3DE
102
{ACAD_REACTORS
330
3CA
102
}
330
3CA
100
AcDbScale
 70
     0
300
1/32" = 1'-0"
140
0.03125
141
12.0
290
     0
  0
SCALE
  5
3DF
102
{ACAD_REACTORS
330
3CA
102
}
330
3CA
100
AcDbScale
 70
     0
300
1/16" = 1'-0"
140
0.0625
141
12.0
290
     0
  0
SCALE
  5
3E0
102
{ACAD_REACTORS
330
3CA
102
}
330
3CA
100
AcDbScale
 70
     0
300
3/32" = 1'-0"
140
0.09375
141
12.0
290
     0
  0
SCALE
  5
3E1
102
{ACAD_REACTORS
330
3CA
102
}
330
3CA
100
AcDbScale
 70
     0
300
1/8" = 1'-0"
140
0.125
141
12.0
290
     0
  0
SCALE
  5
3E2
102
{ACAD_REACTORS
330
3CA
102
}
330
3CA
100
AcDbScale
 70
     0
300
3/16" = 1'-0"
140
0.1875
141
12.0
290
     0
  0
SCALE
  5
3E3
102
{ACAD_REACTORS
330
3CA
102
}
330
3CA
100
AcDbScale
 70
     0
300
1/4" = 1'-0"
140
0.25
141
12.0
290
     0
  0
SCALE
  5
3E4
102
{ACAD_REACTORS
330
3CA
102
}
330
3CA
100
AcDbScale
 70
     0
300
3/8" = 1'-0"
140
0.375
141
12.0
290
     0
  0
SCALE
  5
3E5
102
{ACAD_REACTORS
330
3CA
102
}
330
3CA
100
AcDbScale
 70
     0
300
1/2" = 1'-0"
140
0.5
141
12.0
290
     0
  0
SCALE
  5
3E6
102
{ACAD_REACTORS
330
3CA
102
}
330
3CA
100
AcDbScale
 70
     0
300
3/4" = 1'-0"
140
0.75
141
12.0
290
     0
  0
SCALE
  5
3E7
102
{ACAD_REACTORS
330
3CA
102
}
330
3CA
100
AcDbScale
 70
     0
300
1" = 1'-0"
140
1.0
141
12.0
290
     0
  0
SCALE
  5
3E8
102
{ACAD_REACTORS
330
3CA
102
}
330
3CA
100
AcDbScale
 70
     0
300
1-1/2" = 1'-0"
140
1.5
141
12.0
290
     0
  0
SCALE
  5
3E9
102
{ACAD_REACTORS
330
3CA
102
}
330
3CA
100
AcDbScale
 70
     0
300
3" = 1'-0"
140
3.0
141
12.0
290
     0
  0
SCALE
  5
3EA
102
{ACAD_REACTORS
330
3CA
102
}
330
3CA
100
AcDbScale
 70
     0
300
6" = 1'-0"
140
6.0
141
12.0
290
     0
  0
SCALE
  5
3EB
102
{ACAD_REACTORS
330
3CA
102
}
330
3CA
100
AcDbScale
 70
     0
300
1'-0" = 1'-0"
140
12.0
141
12.0
290
     0
  0
VISUALSTYLE
  5
2F
102
{ACAD_REACTORS
330
2A
102
}
102
{ACAD_XDICTIONARY
360
3FD
102
}
330
2A
100
AcDbVisualStyle
  2
2dWireframe
 70
     4
 71
     0
 72
     2
 73
     0
 90
        0
 40
-0.6
 41
-30.0
 62
     5
 63
     7
 74
     1
 91
        4
 64
     7
 65
   257
 75
     1
175
     1
 42
1.0
 92
        0
 66
   257
 43
1.0
 76
     1
 77
     6
 78
     2
 67
     7
 79
     5
170
     0
171
     0
290
     0
174
     0
 93
        1
 44
0.0
173
     0
291
     0
 45
0.0
1001
ACAD
1000
AcDbSavedByObjectVersion
1070
     0
  0
VISUALSTYLE
  5
31
102
{ACAD_REACTORS
330
2A
102
}
102
{ACAD_XDICTIONARY
360
401
102
}
330
2A
100
AcDbVisualStyle
  2
3D Hidden
 70
     6
 71
     1
 72
     2
 73
     2
 90
        0
 40
-0.6
 41
-30.0
 62
     5
 63
     7
 74
     2
 91
        2
 64
     7
 65
   257
 75
     2
175
     1
 42
40.0
 92
        0
 66
   257
 43
1.0
 76
     1
 77
     6
 78
     2
 67
     7
 79
     3
170
     0
171
     0
290
     0
174
     0
 93
        1
 44
0.0
173
     0
291
     0
 45
0.0
1001
ACAD
1000
AcDbSavedByObjectVersion
1070
     0
  0
VISUALSTYLE
  5
30
102
{ACAD_REACTORS
330
2A
102
}
102
{ACAD_XDICTIONARY
360
3FF
102
}
330
2A
100
AcDbVisualStyle
  2
3dWireframe
 70
     5
 71
     0
 72
     2
 73
     0
 90
        0
 40
-0.6
 41
-30.0
 62
     5
 63
     7
 74
     1
 91
        4
 64
     7
 65
   257
 75
     1
175
     1
 42
1.0
 92
        0
 66
   257
 43
1.0
 76
     1
 77
     6
 78
     2
 67
     7
 79
     5
170
     0
171
     0
290
     0
174
     0
 93
        1
 44
0.0
173
     0
291
     0
 45
0.0
1001
ACAD
1000
AcDbSavedByObjectVersion
1070
     0
  0
VISUALSTYLE
  5
32
102
{ACAD_REACTORS
330
2A
102
}
102
{ACAD_XDICTIONARY
360
403
102
}
330
2A
100
AcDbVisualStyle
  2
Basic
 70
     7
 71
     1
 72
     0
 73
     1
 90
        0
 40
-0.6
 41
-30.0
 62
     5
 63
     7
 74
     0
 91
        4
 64
     7
 65
   257
 75
     1
175
     1
 42
1.0
 92
        8
 66
     7
 43
1.0
 76
     1
 77
     6
 78
     2
 67
     7
 79
     5
170
     0
171
     0
290
     0
174
     0
 93
        1
 44
0.0
173
     0
291
     1
 45
0.0
1001
ACAD
1000
AcDbSavedByObjectVersion
1070
     0
  0
VISUALSTYLE
  5
36
102
{ACAD_REACTORS
330
2A
102
}
102
{ACAD_XDICTIONARY
360
40B
102
}
330
2A
100
AcDbVisualStyle
  2
Brighten
 70
    12
 71
     2
 72
     2
 73
     0
 90
        0
 40
-0.6
 41
-30.0
 62
     5
 63
     7
 74
     1
 91
        4
 64
     7
 65
   257
 75
     1
175
     1
 42
1.0
 92
        8
 66
     7
 43
1.0
 76
     1
 77
     6
 78
     2
 67
     7
 79
     5
170
     0
171
     0
290
     0
174
     0
 93
        1
 44
50.0
173
     0
291
     1
 45
0.0
1001
ACAD
1000
AcDbSavedByObjectVersion
1070
     0
  0
VISUALSTYLE
  5
3A
102
{ACAD_REACTORS
330
2A
102
}
102
{ACAD_XDICTIONARY
360
413
102
}
330
2A
100
AcDbVisualStyle
  2
ColorChange
 70
    16
 71
     2
 72
     2
 73
     3
 90
        0
 40
-0.6
 41
-30.0
 62
     5
 63
     8
 74
     1
 91
        4
 64
     7
 65
   257
 75
     1
175
     1
 42
1.0
 92
        8
 66
     8
 43
1.0
 76
     1
 77
     6
 78
     2
 67
     7
 79
     5
170
     0
171
     0
290
     0
174
     0
 93
        1
 44
0.0
173
     0
291
     1
 45
0.0
1001
ACAD
1000
AcDbSavedByObjectVersion
1070
     0
  0
VISUALSTYLE
  5
34
102
{ACAD_REACTORS
330
2A
102
}
102
{ACAD_XDICTIONARY
360
407
102
}
330
2A
100
AcDbVisualStyle
  2
Conceptual
 70
     9
 71
     3
 72
     2
 73
     0
 90
        0
 40
-0.6
 41
-30.0
 62
     5
 63
     7
 74
     2
 91
        2
 64
     7
 65
   257
 75
     1
175
     1
 42
40.0
 92
        8
 66
     7
 43
1.0
 76
     1
 77
     6
 78
     2
 67
     7
 79
     3
170
     0
171
     0
290
     0
174
     0
 93
        1
 44
0.0
173
     0
291
     0
 45
0.0
1001
ACAD
1000
AcDbSavedByObjectVersion
1070
     0
  0
VISUALSTYLE
  5
35
102
{ACAD_REACTORS
330
2A
102
}
102
{ACAD_XDICTIONARY
360
409
102
}
330
2A
100
AcDbVisualStyle
  2
Dim
 70
    11
 71
     2
 72
     2
 73
     0
 90
        0
 40
-0.6
 41
-30.0
 62
     5
 63
     7
 74
     1
 91
        4
 64
     7
 65
   257
 75
     1
175
     1
 42
1.0
 92
        8
 66
     7
 43
1.0
 76
     1
 77
     6
 78
     2
 67
     7
 79
     5
170
     0
171
     0
290
     0
174
     0
 93
        1
 44
-50.0
173
     0
291
     1
 45
0.0
1001
ACAD
1000
AcDbSavedByObjectVersion
1070
     0
  0
VISUALSTYLE
  5
39
102
{ACAD_REACTORS
330
2A
102
}
102
{ACAD_XDICTIONARY
360
411
102
}
330
2A
100
AcDbVisualStyle
  2
Facepattern
 70
    15
 71
     2
 72
     2
 73
     0
 90
        0
 40
-0.6
 41
-30.0
 62
     5
 63
     7
 74
     1
 91
        4
 64
     7
 65
   257
 75
     1
175
     1
 42
1.0
 92
        8
 66
     7
 43
1.0
 76
     1
 77
     6
 78
     2
 67
     7
 79
     5
170
     0
171
     0
290
     0
174
     0
 93
        1
 44
0.0
173
     0
291
     1
 45
0.0
1001
ACAD
1000
AcDbSavedByObjectVersion
1070
     0
  0
VISUALSTYLE
  5
2B
102
{ACAD_REACTORS
330
2A
102
}
102
{ACAD_XDICTIONARY
360
3F5
102
}
330
2A
100
AcDbVisualStyle
  2
Flat
 70
     0
 71
     2
 72
     1
 73
     1
 90
        2
 40
-0.6
 41
30.0
 62
     5
 63
     7
 74
     0
 91
        4
 64
     7
 65
   257
 75
     1
175
     1
 42
1.0
 92
        8
 66
     7
 43
1.0
 76
     1
 77
     6
 78
     2
 67
     7
 79
     5
170
     0
171
     0
290
     0
174
     0
 93
       13
 44
0.0
173
     0
291
     1
 45
0.0
1001
ACAD
1000
AcDbSavedByObjectVersion
1070
     0
  0
VISUALSTYLE
  5
2C
102
{ACAD_REACTORS
330
2A
102
}
102
{ACAD_XDICTIONARY
360
3F7
102
}
330
2A
100
AcDbVisualStyle
  2
FlatWithEdges
 70
     1
 71
     2
 72
     1
 73
     1
 90
        2
 40
-0.6
 41
30.0
 62
     5
 63
     7
 74
     1
 91
        4
 64
     7
 65
   257
 75
     1
175
     1
 42
1.0
 92
        0
 66
   257
 43
1.0
 76
     1
 77
     6
 78
     2
 67
     7
 79
     5
170
     0
171
     0
290
     0
174
     0
 93
       13
 44
0.0
173
     0
291
     1
 45
0.0
1001
ACAD
1000
AcDbSavedByObjectVersion
1070
     0
  0
VISUALSTYLE
  5
2D
102
{ACAD_REACTORS
330
2A
102
}
102
{ACAD_XDICTIONARY
360
3F9
102
}
330
2A
100
AcDbVisualStyle
  2
Gouraud
 70
     2
 71
     2
 72
     2
 73
     1
 90
        2
 40
-0.6
 41
30.0
 62
     5
 63
     7
 74
     0
 91
        4
 64
     7
 65
   257
 75
     1
175
     1
 42
1.0
 92
        0
 66
     7
 43
1.0
 76
     1
 77
     6
 78
     2
 67
     7
 79
     5
170
     0
171
     0
290
     0
174
     0
 93
       13
 44
0.0
173
     0
291
     1
 45
0.0
1001
ACAD
1000
AcDbSavedByObjectVersion
1070
     0
  0
VISUALSTYLE
  5
2E
102
{ACAD_REACTORS
330
2A
102
}
102
{ACAD_XDICTIONARY
360
3FB
102
}
330
2A
100
AcDbVisualStyle
  2
GouraudWithEdges
 70
     3
 71
     2
 72
     2
 73
     1
 90
        2
 40
-0.6
 41
30.0
 62
     5
 63
     7
 74
     1
 91
        4
 64
     7
 65
   257
 75
     1
175
     1
 42
1.0
 92
        0
 66
   257
 43
1.0
 76
     1
 77
     6
 78
     2
 67
     7
 79
     5
170
     0
171
     0
290
     0
174
     0
 93
       13
 44
0.0
173
     0
291
     1
 45
0.0
1001
ACAD
1000
AcDbSavedByObjectVersion
1070
     0
  0
VISUALSTYLE
  5
38
102
{ACAD_REACTORS
330
2A
102
}
102
{ACAD_XDICTIONARY
360
40F
102
}
330
2A
100
AcDbVisualStyle
  2
Linepattern
 70
    14
 71
     2
 72
     2
 73
     0
 90
        0
 40
-0.6
 41
-30.0
 62
     5
 63
     7
 74
     1
 91
        4
 64
     7
 65
   257
 75
     7
175
     7
 42
1.0
 92
        8
 66
     7
 43
1.0
 76
     1
 77
     6
 78
     2
 67
     7
 79
     5
170
     0
171
     0
290
     0
174
     0
 93
        1
 44
0.0
173
     0
291
     1
 45
0.0
1001
ACAD
1000
AcDbSavedByObjectVersion
1070
     0
  0
VISUALSTYLE
  5
33
102
{ACAD_REACTORS
330
2A
102
}
102
{ACAD_XDICTIONARY
360
405
102
}
330
2A
100
AcDbVisualStyle
  2
Realistic
 70
     8
 71
     2
 72
     2
 73
     0
 90
        0
 40
-0.6
 41
-30.0
 62
     5
 63
     7
 74
     1
 91
        0
 64
     7
 65
   257
 75
     1
175
     1
 42
1.0
 92
        8
 66
     8
 43
1.0
 76
     1
 77
     6
 78
     2
 67
     7
 79
     5
170
     0
171
     0
290
     0
174
     0
 93
       13
 44
0.0
173
     0
291
     0
 45
0.0
1001
ACAD
1000
AcDbSavedByObjectVersion
1070
     0
  0
VISUALSTYLE
  5
37
102
{ACAD_REACTORS
330
2A
102
}
102
{ACAD_XDICTIONARY
360
40D
102
}
330
2A
100
AcDbVisualStyle
  2
Thicken
 70
    13
 71
     2
 72
     2
 73
     0
 90
        0
 40
-0.6
 41
-30.0
 62
     5
 63
     7
 74
     1
 91
        4
 64
     7
 65
   257
 75
     1
175
     1
 42
1.0
 92
       12
 66
     7
 43
1.0
 76
     1
 77
     6
 78
     2
 67
     7
 79
     5
170
     0
171
     0
290
     0
174
     0
 93
        1
 44
0.0
173
     0
291
     1
 45
0.0
1001
ACAD
1000
AcDbSavedByObjectVersion
1070
     0
  0
DICTIONARYVAR
  5
3F1
102
{ACAD_REACTORS
330
3EC
102
}
330
3EC
100
DictionaryVariables
280
     0
  1
1:1
  0
DICTIONARYVAR
  5
3F2
102
{ACAD_REACTORS
330
3EC
102
}
330
3EC
100
DictionaryVariables
280
     0
  1
2
  0
DICTIONARYVAR
  5
3F3
102
{ACAD_REACTORS
330
3EC
102
}
330
3EC
100
DictionaryVariables
280
     0
  1
1
  0
DICTIONARYVAR
  5
3F0
102
{ACAD_REACTORS
330
3EC
102
}
330
3EC
100
DictionaryVariables
280
     0
  1
80.000000
  0
DICTIONARYVAR
  5
3EF
102
{ACAD_REACTORS
330
3EC
102
}
330
3EC
100
DictionaryVariables
280
     0
  1
5.000000
  0
DICTIONARY
  5
417
330
3D
100
AcDbDictionary
280
     1
281
     1
  3
ACAD_XREC_ROUNDTRIP
360
418
  0
DICTIONARY
  5
415
330
3C
100
AcDbDictionary
280
     1
281
     1
  3
ACAD_XREC_ROUNDTRIP
360
416
  0
DICTIONARY
  5
419
330
3E
100
AcDbDictionary
280
     1
281
     1
  3
ACAD_XREC_ROUNDTRIP
360
41A
  0
DICTIONARY
  5
3FD
330
2F
100
AcDbDictionary
280
     1
281
     1
  3
ACAD_XREC_ROUNDTRIP
360
3FE
  0
DICTIONARY
  5
401
330
31
100
AcDbDictionary
280
     1
281
     1
  3
ACAD_XREC_ROUNDTRIP
360
402
  0
DICTIONARY
  5
3FF
330
30
100
AcDbDictionary
280
     1
281
     1
  3
ACAD_XREC_ROUNDTRIP
360
400
  0
DICTIONARY
  5
403
330
32
100
AcDbDictionary
280
     1
281
     1
  3
ACAD_XREC_ROUNDTRIP
360
404
  0
DICTIONARY
  5
40B
330
36
100
AcDbDictionary
280
     1
281
     1
  3
ACAD_XREC_ROUNDTRIP
360
40C
  0
DICTIONARY
  5
413
330
3A
100
AcDbDictionary
280
     1
281
     1
  3
ACAD_XREC_ROUNDTRIP
360
414
  0
DICTIONARY
  5
407
330
34
100
AcDbDictionary
280
     1
281
     1
  3
ACAD_XREC_ROUNDTRIP
360
408
  0
DICTIONARY
  5
409
330
35
100
AcDbDictionary
280
     1
281
     1
  3
ACAD_XREC_ROUNDTRIP
360
40A
  0
DICTIONARY
  5
411
330
39
100
AcDbDictionary
280
     1
281
     1
  3
ACAD_XREC_ROUNDTRIP
360
412
  0
DICTIONARY
  5
3F5
330
2B
100
AcDbDictionary
280
     1
281
     1
  3
ACAD_XREC_ROUNDTRIP
360
3F6
  0
DICTIONARY
  5
3F7
330
2C
100
AcDbDictionary
280
     1
281
     1
  3
ACAD_XREC_ROUNDTRIP
360
3F8
  0
DICTIONARY
  5
3F9
330
2D
100
AcDbDictionary
280
     1
281
     1
  3
ACAD_XREC_ROUNDTRIP
360
3FA
  0
DICTIONARY
  5
3FB
330
2E
100
AcDbDictionary
280
     1
281
     1
  3
ACAD_XREC_ROUNDTRIP
360
3FC
  0
DICTIONARY
  5
40F
330
38
100
AcDbDictionary
280
     1
281
     1
  3
ACAD_XREC_ROUNDTRIP
360
410
  0
DICTIONARY
  5
405
330
33
100
AcDbDictionary
280
     1
281
     1
  3
ACAD_XREC_ROUNDTRIP
360
406
  0
DICTIONARY
  5
40D
330
37
100
AcDbDictionary
280
     1
281
     1
  3
ACAD_XREC_ROUNDTRIP
360
40E
  0
XRECORD
  5
418
102
{ACAD_REACTORS
330
417
102
}
330
417
100
AcDbXrecord
280
     1
102
MATERIAL
148
0.0
149
0.0
149
0.0
 93
        0
 94
      127
282
     0
 72
     1
 77
     1
171
     1
175
     1
179
     1
273
     0
  0
XRECORD
  5
416
102
{ACAD_REACTORS
330
415
102
}
330
415
100
AcDbXrecord
280
     1
102
MATERIAL
148
0.0
149
0.0
149
0.0
 93
        0
 94
      127
282
     0
 72
     1
 77
     1
171
     1
175
     1
179
     1
273
     0
  0
XRECORD
  5
41A
102
{ACAD_REACTORS
330
419
102
}
330
419
100
AcDbXrecord
280
     1
102
MATERIAL
148
0.0
149
0.0
149
0.0
 93
        0
 94
      127
282
     0
 72
     1
 77
     1
171
     1
175
     1
179
     1
273
     0
  0
XRECORD
  5
3FE
102
{ACAD_REACTORS
330
3FD
102
}
330
3FD
100
AcDbXrecord
280
     1
102
RTVSPropertyOp0
 70
     1
102
RTVSPropertyOp1
 70
     1
102
RTVSPropertyOp2
 70
     1
102
RTVSPropertyOp3
 70
     1
102
RTVSPropertyOp4
 70
     1
102
RTVSPropertyOp5
 70
     1
102
RTVSPropertyOp6
 70
     1
102
RTVSPropertyOp7
 70
     1
102
RTVSPropertyOp8
 70
     1
102
RTVSPropertyOp9
 70
     1
102
RTVSPropertyOp10
 70
     1
102
RTVSPropertyOp11
 70
     1
102
RTVSPropertyOp12
 70
     1
102
RTVSPropertyOp13
 70
     1
102
RTVSPropertyOp14
 70
     1
102
RTVSPropertyOp15
 70
     1
102
RTVSPropertyOp16
 70
     1
102
RTVSPropertyOp17
 70
     1
102
RTVSPropertyOp18
 70
     1
102
RTVSPropertyOp19
 70
     1
102
RTVSPropertyOp20
 70
     1
102
RTVSPropertyOp21
 70
     1
102
RTVSPropertyOp22
 70
     1
102
RTVSPropertyOp23
 70
     1
102
RTVSPropertyOp24
 70
     1
102
RTVSPropertyOp25
 70
     1
102
RTVSPropertyOp26
 70
     1
102
RTVSPropertyOp27
 70
     1
102
RTVSPropertyOp28
 70
     1
102
RTVSPropertyOp29
 70
     1
102
RTVSPropertyOp30
 70
     1
102
RTVSPropertyOp31
 70
     1
102
RTVSPropertyOp32
 70
     1
  0
XRECORD
  5
402
102
{ACAD_REACTORS
330
401
102
}
330
401
100
AcDbXrecord
280
     1
102
RTVSPropertyOp0
 70
     1
102
RTVSPropertyOp1
 70
     1
102
RTVSPropertyOp2
 70
     1
102
RTVSPropertyOp3
 70
     1
102
RTVSPropertyOp4
 70
     1
102
RTVSPropertyOp5
 70
     1
102
RTVSPropertyOp6
 70
     1
102
RTVSPropertyOp7
 70
     1
102
RTVSPropertyOp8
 70
     1
102
RTVSPropertyOp9
 70
     1
102
RTVSPropertyOp10
 70
     1
102
RTVSPropertyOp11
 70
     1
102
RTVSPropertyOp12
 70
     1
102
RTVSPropertyOp13
 70
     1
102
RTVSPropertyOp14
 70
     1
102
RTVSPropertyOp15
 70
     1
102
RTVSPropertyOp16
 70
     1
102
RTVSPropertyOp17
 70
     1
102
RTVSPropertyOp18
 70
     1
102
RTVSPropertyOp19
 70
     1
102
RTVSPropertyOp20
 70
     1
102
RTVSPropertyOp21
 70
     1
102
RTVSPropertyOp22
 70
     1
102
RTVSPropertyOp23
 70
     1
102
RTVSPropertyOp24
 70
     1
102
RTVSPropertyOp25
 70
     1
102
RTVSPropertyOp26
 70
     1
102
RTVSPropertyOp27
 70
     1
102
RTVSPropertyOp28
 70
     1
102
RTVSPropertyOp29
 70
     1
102
RTVSPropertyOp30
 70
     1
102
RTVSPropertyOp31
 70
     1
102
RTVSPropertyOp32
 70
     1
  0
XRECORD
  5
400
102
{ACAD_REACTORS
330
3FF
102
}
330
3FF
100
AcDbXrecord
280
     1
102
RTVSPropertyOp0
 70
     1
102
RTVSPropertyOp1
 70
     1
102
RTVSPropertyOp2
 70
     1
102
RTVSPropertyOp3
 70
     1
102
RTVSPropertyOp4
 70
     1
102
RTVSPropertyOp5
 70
     1
102
RTVSPropertyOp6
 70
     1
102
RTVSPropertyOp7
 70
     1
102
RTVSPropertyOp8
 70
     1
102
RTVSPropertyOp9
 70
     1
102
RTVSPropertyOp10
 70
     1
102
RTVSPropertyOp11
 70
     1
102
RTVSPropertyOp12
 70
     1
102
RTVSPropertyOp13
 70
     1
102
RTVSPropertyOp14
 70
     1
102
RTVSPropertyOp15
 70
     1
102
RTVSPropertyOp16
 70
     1
102
RTVSPropertyOp17
 70
     1
102
RTVSPropertyOp18
 70
     1
102
RTVSPropertyOp19
 70
     1
102
RTVSPropertyOp20
 70
     1
102
RTVSPropertyOp21
 70
     1
102
RTVSPropertyOp22
 70
     1
102
RTVSPropertyOp23
 70
     1
102
RTVSPropertyOp24
 70
     1
102
RTVSPropertyOp25
 70
     1
102
RTVSPropertyOp26
 70
     1
102
RTVSPropertyOp27
 70
     1
102
RTVSPropertyOp28
 70
     1
102
RTVSPropertyOp29
 70
     1
102
RTVSPropertyOp30
 70
     1
102
RTVSPropertyOp31
 70
     1
102
RTVSPropertyOp32
 70
     1
  0
XRECORD
  5
404
102
{ACAD_REACTORS
330
403
102
}
330
403
100
AcDbXrecord
280
     1
102
RTVSPropertyOp0
 70
     1
102
RTVSPropertyOp1
 70
     1
102
RTVSPropertyOp2
 70
     1
102
RTVSPropertyOp3
 70
     1
102
RTVSPropertyOp4
 70
     1
102
RTVSPropertyOp5
 70
     1
102
RTVSPropertyOp6
 70
     1
102
RTVSPropertyOp7
 70
     1
102
RTVSPropertyOp8
 70
     1
102
RTVSPropertyOp9
 70
     1
102
RTVSPropertyOp10
 70
     1
102
RTVSPropertyOp11
 70
     1
102
RTVSPropertyOp12
 70
     1
102
RTVSPropertyOp13
 70
     1
102
RTVSPropertyOp14
 70
     1
102
RTVSPropertyOp15
 70
     1
102
RTVSPropertyOp16
 70
     1
102
RTVSPropertyOp17
 70
     1
102
RTVSPropertyOp18
 70
     1
102
RTVSPropertyOp19
 70
     1
102
RTVSPropertyOp20
 70
     1
102
RTVSPropertyOp21
 70
     1
102
RTVSPropertyOp22
 70
     1
102
RTVSPropertyOp23
 70
     1
102
RTVSPropertyOp24
 70
     1
102
RTVSPropertyOp25
 70
     1
102
RTVSPropertyOp26
 70
     1
102
RTVSPropertyOp27
 70
     1
102
RTVSPropertyOp28
 70
     1
102
RTVSPropertyOp29
 70
     1
102
RTVSPropertyOp30
 70
     1
102
RTVSPropertyOp31
 70
     1
102
RTVSPropertyOp32
 70
     1
  0
XRECORD
  5
40C
102
{ACAD_REACTORS
330
40B
102
}
330
40B
100
AcDbXrecord
280
     1
102
RTVSPropertyOp0
 70
     1
102
RTVSPropertyOp1
 70
     1
102
RTVSPropertyOp2
 70
     1
102
RTVSPropertyOp3
 70
     1
102
RTVSPropertyOp4
 70
     1
102
RTVSPropertyOp5
 70
     1
102
RTVSPropertyOp6
 70
     1
102
RTVSPropertyOp7
 70
     1
102
RTVSPropertyOp8
 70
     1
102
RTVSPropertyOp9
 70
     1
102
RTVSPropertyOp10
 70
     1
102
RTVSPropertyOp11
 70
     1
102
RTVSPropertyOp12
 70
     1
102
RTVSPropertyOp13
 70
     1
102
RTVSPropertyOp14
 70
     1
102
RTVSPropertyOp15
 70
     1
102
RTVSPropertyOp16
 70
     1
102
RTVSPropertyOp17
 70
     1
102
RTVSPropertyOp18
 70
     1
102
RTVSPropertyOp19
 70
     1
102
RTVSPropertyOp20
 70
     1
102
RTVSPropertyOp21
 70
     1
102
RTVSPropertyOp22
 70
     1
102
RTVSPropertyOp23
 70
     1
102
RTVSPropertyOp24
 70
     1
102
RTVSPropertyOp25
 70
     1
102
RTVSPropertyOp26
 70
     1
102
RTVSPropertyOp27
 70
     1
102
RTVSPropertyOp28
 70
     1
102
RTVSPropertyOp29
 70
     1
102
RTVSPropertyOp30
 70
     1
102
RTVSPropertyOp31
 70
     1
102
RTVSPropertyOp32
 70
     1
  0
XRECORD
  5
414
102
{ACAD_REACTORS
330
413
102
}
330
413
100
AcDbXrecord
280
     1
102
RTVSPropertyOp0
 70
     1
102
RTVSPropertyOp1
 70
     1
102
RTVSPropertyOp2
 70
     1
102
RTVSPropertyOp3
 70
     1
102
RTVSPropertyOp4
 70
     1
102
RTVSPropertyOp5
 70
     1
102
RTVSPropertyOp6
 70
     1
102
RTVSPropertyOp7
 70
     1
102
RTVSPropertyOp8
 70
     1
102
RTVSPropertyOp9
 70
     1
102
RTVSPropertyOp10
 70
     1
102
RTVSPropertyOp11
 70
     1
102
RTVSPropertyOp12
 70
     1
102
RTVSPropertyOp13
 70
     1
102
RTVSPropertyOp14
 70
     1
102
RTVSPropertyOp15
 70
     1
102
RTVSPropertyOp16
 70
     1
102
RTVSPropertyOp17
 70
     1
102
RTVSPropertyOp18
 70
     1
102
RTVSPropertyOp19
 70
     1
102
RTVSPropertyOp20
 70
     1
102
RTVSPropertyOp21
 70
     1
102
RTVSPropertyOp22
 70
     1
102
RTVSPropertyOp23
 70
     1
102
RTVSPropertyOp24
 70
     1
102
RTVSPropertyOp25
 70
     1
102
RTVSPropertyOp26
 70
     1
102
RTVSPropertyOp27
 70
     1
102
RTVSPropertyOp28
 70
     1
102
RTVSPropertyOp29
 70
     1
102
RTVSPropertyOp30
 70
     1
102
RTVSPropertyOp31
 70
     1
102
RTVSPropertyOp32
 70
     1
  0
XRECORD
  5
408
102
{ACAD_REACTORS
330
407
102
}
330
407
100
AcDbXrecord
280
     1
102
RTVSPropertyOp0
 70
     1
102
RTVSPropertyOp1
 70
     1
102
RTVSPropertyOp2
 70
     1
102
RTVSPropertyOp3
 70
     1
102
RTVSPropertyOp4
 70
     1
102
RTVSPropertyOp5
 70
     1
102
RTVSPropertyOp6
 70
     1
102
RTVSPropertyOp7
 70
     1
102
RTVSPropertyOp8
 70
     1
102
RTVSPropertyOp9
 70
     1
102
RTVSPropertyOp10
 70
     1
102
RTVSPropertyOp11
 70
     1
102
RTVSPropertyOp12
 70
     1
102
RTVSPropertyOp13
 70
     1
102
RTVSPropertyOp14
 70
     1
102
RTVSPropertyOp15
 70
     1
102
RTVSPropertyOp16
 70
     1
102
RTVSPropertyOp17
 70
     1
102
RTVSPropertyOp18
 70
     1
102
RTVSPropertyOp19
 70
     1
102
RTVSPropertyOp20
 70
     1
102
RTVSPropertyOp21
 70
     1
102
RTVSPropertyOp22
 70
     1
102
RTVSPropertyOp23
 70
     1
102
RTVSPropertyOp24
 70
     1
102
RTVSPropertyOp25
 70
     1
102
RTVSPropertyOp26
 70
     1
102
RTVSPropertyOp27
 70
     1
102
RTVSPropertyOp28
 70
     1
102
RTVSPropertyOp29
 70
     1
102
RTVSPropertyOp30
 70
     1
102
RTVSPropertyOp31
 70
     1
102
RTVSPropertyOp32
 70
     1
  0
XRECORD
  5
40A
102
{ACAD_REACTORS
330
409
102
}
330
409
100
AcDbXrecord
280
     1
102
RTVSPropertyOp0
 70
     1
102
RTVSPropertyOp1
 70
     1
102
RTVSPropertyOp2
 70
     1
102
RTVSPropertyOp3
 70
     1
102
RTVSPropertyOp4
 70
     1
102
RTVSPropertyOp5
 70
     1
102
RTVSPropertyOp6
 70
     1
102
RTVSPropertyOp7
 70
     1
102
RTVSPropertyOp8
 70
     1
102
RTVSPropertyOp9
 70
     1
102
RTVSPropertyOp10
 70
     1
102
RTVSPropertyOp11
 70
     1
102
RTVSPropertyOp12
 70
     1
102
RTVSPropertyOp13
 70
     1
102
RTVSPropertyOp14
 70
     1
102
RTVSPropertyOp15
 70
     1
102
RTVSPropertyOp16
 70
     1
102
RTVSPropertyOp17
 70
     1
102
RTVSPropertyOp18
 70
     1
102
RTVSPropertyOp19
 70
     1
102
RTVSPropertyOp20
 70
     1
102
RTVSPropertyOp21
 70
     1
102
RTVSPropertyOp22
 70
     1
102
RTVSPropertyOp23
 70
     1
102
RTVSPropertyOp24
 70
     1
102
RTVSPropertyOp25
 70
     1
102
RTVSPropertyOp26
 70
     1
102
RTVSPropertyOp27
 70
     1
102
RTVSPropertyOp28
 70
     1
102
RTVSPropertyOp29
 70
     1
102
RTVSPropertyOp30
 70
     1
102
RTVSPropertyOp31
 70
     1
102
RTVSPropertyOp32
 70
     1
  0
XRECORD
  5
412
102
{ACAD_REACTORS
330
411
102
}
330
411
100
AcDbXrecord
280
     1
102
RTVSPropertyOp0
 70
     1
102
RTVSPropertyOp1
 70
     1
102
RTVSPropertyOp2
 70
     1
102
RTVSPropertyOp3
 70
     1
102
RTVSPropertyOp4
 70
     1
102
RTVSPropertyOp5
 70
     1
102
RTVSPropertyOp6
 70
     1
102
RTVSPropertyOp7
 70
     1
102
RTVSPropertyOp8
 70
     1
102
RTVSPropertyOp9
 70
     1
102
RTVSPropertyOp10
 70
     1
102
RTVSPropertyOp11
 70
     1
102
RTVSPropertyOp12
 70
     1
102
RTVSPropertyOp13
 70
     1
102
RTVSPropertyOp14
 70
     1
102
RTVSPropertyOp15
 70
     1
102
RTVSPropertyOp16
 70
     1
102
RTVSPropertyOp17
 70
     1
102
RTVSPropertyOp18
 70
     1
102
RTVSPropertyOp19
 70
     1
102
RTVSPropertyOp20
 70
     1
102
RTVSPropertyOp21
 70
     1
102
RTVSPropertyOp22
 70
     1
102
RTVSPropertyOp23
 70
     1
102
RTVSPropertyOp24
 70
     1
102
RTVSPropertyOp25
 70
     1
102
RTVSPropertyOp26
 70
     1
102
RTVSPropertyOp27
 70
     1
102
RTVSPropertyOp28
 70
     1
102
RTVSPropertyOp29
 70
     1
102
RTVSPropertyOp30
 70
     1
102
RTVSPropertyOp31
 70
     1
102
RTVSPropertyOp32
 70
     1
  0
XRECORD
  5
3F6
102
{ACAD_REACTORS
330
3F5
102
}
330
3F5
100
AcDbXrecord
280
     1
102
RTVSPropertyOp0
 70
     1
102
RTVSPropertyOp1
 70
     1
102
RTVSPropertyOp2
 70
     1
102
RTVSPropertyOp3
 70
     1
102
RTVSPropertyOp4
 70
     1
102
RTVSPropertyOp5
 70
     1
102
RTVSPropertyOp6
 70
     1
102
RTVSPropertyOp7
 70
     1
102
RTVSPropertyOp8
 70
     1
102
RTVSPropertyOp9
 70
     1
102
RTVSPropertyOp10
 70
     1
102
RTVSPropertyOp11
 70
     1
102
RTVSPropertyOp12
 70
     1
102
RTVSPropertyOp13
 70
     1
102
RTVSPropertyOp14
 70
     1
102
RTVSPropertyOp15
 70
     1
102
RTVSPropertyOp16
 70
     1
102
RTVSPropertyOp17
 70
     1
102
RTVSPropertyOp18
 70
     1
102
RTVSPropertyOp19
 70
     1
102
RTVSPropertyOp20
 70
     1
102
RTVSPropertyOp21
 70
     1
102
RTVSPropertyOp22
 70
     1
102
RTVSPropertyOp23
 70
     1
102
RTVSPropertyOp24
 70
     1
102
RTVSPropertyOp25
 70
     1
102
RTVSPropertyOp26
 70
     1
102
RTVSPropertyOp27
 70
     1
102
RTVSPropertyOp28
 70
     1
102
RTVSPropertyOp29
 70
     1
102
RTVSPropertyOp30
 70
     1
102
RTVSPropertyOp31
 70
     1
102
RTVSPropertyOp32
 70
     1
  0
XRECORD
  5
3F8
102
{ACAD_REACTORS
330
3F7
102
}
330
3F7
100
AcDbXrecord
280
     1
102
RTVSPropertyOp0
 70
     1
102
RTVSPropertyOp1
 70
     1
102
RTVSPropertyOp2
 70
     1
102
RTVSPropertyOp3
 70
     1
102
RTVSPropertyOp4
 70
     1
102
RTVSPropertyOp5
 70
     1
102
RTVSPropertyOp6
 70
     1
102
RTVSPropertyOp7
 70
     1
102
RTVSPropertyOp8
 70
     1
102
RTVSPropertyOp9
 70
     1
102
RTVSPropertyOp10
 70
     1
102
RTVSPropertyOp11
 70
     1
102
RTVSPropertyOp12
 70
     1
102
RTVSPropertyOp13
 70
     1
102
RTVSPropertyOp14
 70
     1
102
RTVSPropertyOp15
 70
     1
102
RTVSPropertyOp16
 70
     1
102
RTVSPropertyOp17
 70
     1
102
RTVSPropertyOp18
 70
     1
102
RTVSPropertyOp19
 70
     1
102
RTVSPropertyOp20
 70
     1
102
RTVSPropertyOp21
 70
     1
102
RTVSPropertyOp22
 70
     1
102
RTVSPropertyOp23
 70
     1
102
RTVSPropertyOp24
 70
     1
102
RTVSPropertyOp25
 70
     1
102
RTVSPropertyOp26
 70
     1
102
RTVSPropertyOp27
 70
     1
102
RTVSPropertyOp28
 70
     1
102
RTVSPropertyOp29
 70
     1
102
RTVSPropertyOp30
 70
     1
102
RTVSPropertyOp31
 70
     1
102
RTVSPropertyOp32
 70
     1
  0
XRECORD
  5
3FA
102
{ACAD_REACTORS
330
3F9
102
}
330
3F9
100
AcDbXrecord
280
     1
102
RTVSPropertyOp0
 70
     1
102
RTVSPropertyOp1
 70
     1
102
RTVSPropertyOp2
 70
     1
102
RTVSPropertyOp3
 70
     1
102
RTVSPropertyOp4
 70
     1
102
RTVSPropertyOp5
 70
     1
102
RTVSPropertyOp6
 70
     1
102
RTVSPropertyOp7
 70
     1
102
RTVSPropertyOp8
 70
     1
102
RTVSPropertyOp9
 70
     1
102
RTVSPropertyOp10
 70
     1
102
RTVSPropertyOp11
 70
     1
102
RTVSPropertyOp12
 70
     1
102
RTVSPropertyOp13
 70
     1
102
RTVSPropertyOp14
 70
     1
102
RTVSPropertyOp15
 70
     1
102
RTVSPropertyOp16
 70
     1
102
RTVSPropertyOp17
 70
     1
102
RTVSPropertyOp18
 70
     1
102
RTVSPropertyOp19
 70
     1
102
RTVSPropertyOp20
 70
     1
102
RTVSPropertyOp21
 70
     1
102
RTVSPropertyOp22
 70
     1
102
RTVSPropertyOp23
 70
     1
102
RTVSPropertyOp24
 70
     1
102
RTVSPropertyOp25
 70
     1
102
RTVSPropertyOp26
 70
     1
102
RTVSPropertyOp27
 70
     1
102
RTVSPropertyOp28
 70
     1
102
RTVSPropertyOp29
 70
     1
102
RTVSPropertyOp30
 70
     1
102
RTVSPropertyOp31
 70
     1
102
RTVSPropertyOp32
 70
     1
  0
XRECORD
  5
3FC
102
{ACAD_REACTORS
330
3FB
102
}
330
3FB
100
AcDbXrecord
280
     1
102
RTVSPropertyOp0
 70
     1
102
RTVSPropertyOp1
 70
     1
102
RTVSPropertyOp2
 70
     1
102
RTVSPropertyOp3
 70
     1
102
RTVSPropertyOp4
 70
     1
102
RTVSPropertyOp5
 70
     1
102
RTVSPropertyOp6
 70
     1
102
RTVSPropertyOp7
 70
     1
102
RTVSPropertyOp8
 70
     1
102
RTVSPropertyOp9
 70
     1
102
RTVSPropertyOp10
 70
     1
102
RTVSPropertyOp11
 70
     1
102
RTVSPropertyOp12
 70
     1
102
RTVSPropertyOp13
 70
     1
102
RTVSPropertyOp14
 70
     1
102
RTVSPropertyOp15
 70
     1
102
RTVSPropertyOp16
 70
     1
102
RTVSPropertyOp17
 70
     1
102
RTVSPropertyOp18
 70
     1
102
RTVSPropertyOp19
 70
     1
102
RTVSPropertyOp20
 70
     1
102
RTVSPropertyOp21
 70
     1
102
RTVSPropertyOp22
 70
     1
102
RTVSPropertyOp23
 70
     1
102
RTVSPropertyOp24
 70
     1
102
RTVSPropertyOp25
 70
     1
102
RTVSPropertyOp26
 70
     1
102
RTVSPropertyOp27
 70
     1
102
RTVSPropertyOp28
 70
     1
102
RTVSPropertyOp29
 70
     1
102
RTVSPropertyOp30
 70
     1
102
RTVSPropertyOp31
 70
     1
102
RTVSPropertyOp32
 70
     1
  0
XRECORD
  5
410
102
{ACAD_REACTORS
330
40F
102
}
330
40F
100
AcDbXrecord
280
     1
102
RTVSPropertyOp0
 70
     1
102
RTVSPropertyOp1
 70
     1
102
RTVSPropertyOp2
 70
     1
102
RTVSPropertyOp3
 70
     1
102
RTVSPropertyOp4
 70
     1
102
RTVSPropertyOp5
 70
     1
102
RTVSPropertyOp6
 70
     1
102
RTVSPropertyOp7
 70
     1
102
RTVSPropertyOp8
 70
     1
102
RTVSPropertyOp9
 70
     1
102
RTVSPropertyOp10
 70
     1
102
RTVSPropertyOp11
 70
     1
102
RTVSPropertyOp12
 70
     1
102
RTVSPropertyOp13
 70
     1
102
RTVSPropertyOp14
 70
     1
102
RTVSPropertyOp15
 70
     1
102
RTVSPropertyOp16
 70
     1
102
RTVSPropertyOp17
 70
     1
102
RTVSPropertyOp18
 70
     1
102
RTVSPropertyOp19
 70
     1
102
RTVSPropertyOp20
 70
     1
102
RTVSPropertyOp21
 70
     1
102
RTVSPropertyOp22
 70
     1
102
RTVSPropertyOp23
 70
     1
102
RTVSPropertyOp24
 70
     1
102
RTVSPropertyOp25
 70
     1
102
RTVSPropertyOp26
 70
     1
102
RTVSPropertyOp27
 70
     1
102
RTVSPropertyOp28
 70
     1
102
RTVSPropertyOp29
 70
     1
102
RTVSPropertyOp30
 70
     1
102
RTVSPropertyOp31
 70
     1
102
RTVSPropertyOp32
 70
     1
  0
XRECORD
  5
406
102
{ACAD_REACTORS
330
405
102
}
330
405
100
AcDbXrecord
280
     1
102
RTVSPropertyOp0
 70
     1
102
RTVSPropertyOp1
 70
     1
102
RTVSPropertyOp2
 70
     1
102
RTVSPropertyOp3
 70
     1
102
RTVSPropertyOp4
 70
     1
102
RTVSPropertyOp5
 70
     1
102
RTVSPropertyOp6
 70
     1
102
RTVSPropertyOp7
 70
     1
102
RTVSPropertyOp8
 70
     1
102
RTVSPropertyOp9
 70
     1
102
RTVSPropertyOp10
 70
     1
102
RTVSPropertyOp11
 70
     1
102
RTVSPropertyOp12
 70
     1
102
RTVSPropertyOp13
 70
     1
102
RTVSPropertyOp14
 70
     1
102
RTVSPropertyOp15
 70
     1
102
RTVSPropertyOp16
 70
     1
102
RTVSPropertyOp17
 70
     1
102
RTVSPropertyOp18
 70
     1
102
RTVSPropertyOp19
 70
     1
102
RTVSPropertyOp20
 70
     1
102
RTVSPropertyOp21
 70
     1
102
RTVSPropertyOp22
 70
     1
102
RTVSPropertyOp23
 70
     1
102
RTVSPropertyOp24
 70
     1
102
RTVSPropertyOp25
 70
     1
102
RTVSPropertyOp26
 70
     1
102
RTVSPropertyOp27
 70
     1
102
RTVSPropertyOp28
 70
     1
102
RTVSPropertyOp29
 70
     1
102
RTVSPropertyOp30
 70
     1
102
RTVSPropertyOp31
 70
     1
102
RTVSPropertyOp32
 70
     1
  0
XRECORD
  5
40E
102
{ACAD_REACTORS
330
40D
102
}
330
40D
100
AcDbXrecord
280
     1
102
RTVSPropertyOp0
 70
     1
102
RTVSPropertyOp1
 70
     1
102
RTVSPropertyOp2
 70
     1
102
RTVSPropertyOp3
 70
     1
102
RTVSPropertyOp4
 70
     1
102
RTVSPropertyOp5
 70
     1
102
RTVSPropertyOp6
 70
     1
102
RTVSPropertyOp7
 70
     1
102
RTVSPropertyOp8
 70
     1
102
RTVSPropertyOp9
 70
     1
102
RTVSPropertyOp10
 70
     1
102
RTVSPropertyOp11
 70
     1
102
RTVSPropertyOp12
 70
     1
102
RTVSPropertyOp13
 70
     1
102
RTVSPropertyOp14
 70
     1
102
RTVSPropertyOp15
 70
     1
102
RTVSPropertyOp16
 70
     1
102
RTVSPropertyOp17
 70
     1
102
RTVSPropertyOp18
 70
     1
102
RTVSPropertyOp19
 70
     1
102
RTVSPropertyOp20
 70
     1
102
RTVSPropertyOp21
 70
     1
102
RTVSPropertyOp22
 70
     1
102
RTVSPropertyOp23
 70
     1
102
RTVSPropertyOp24
 70
     1
102
RTVSPropertyOp25
 70
     1
102
RTVSPropertyOp26
 70
     1
102
RTVSPropertyOp27
 70
     1
102
RTVSPropertyOp28
 70
     1
102
RTVSPropertyOp29
 70
     1
102
RTVSPropertyOp30
 70
     1
102
RTVSPropertyOp31
 70
     1
102
RTVSPropertyOp32
 70
     1
  0
ENDSEC
  0
SECTION
  2
THUMBNAILIMAGE
 90
    16364
310
28000000B40000005500000001000800000000000000000000000000000000000000000000000000FFFFFF00FF000000FFFF000000FF000000FFFF000000FF00FF00FF000000000080808000C0C0C000FF000000FF7F7F00A5000000A55252007F0000007F3F3F004C0000004C2626002600000026131300FF3F0000FF9F7F
310
00A5290000A56752007F1F00007F4F3F004C1300004C2F26002609000026171300FF7F0000FFBF7F00A5520000A57C52007F3F00007F5F3F004C2600004C39260026130000261C1300FFBF0000FFDF7F00A57C0000A59152007F5F00007F6F3F004C3900004C422600261C000026211300FFFF0000FFFF7F00A5A50000A5A5
310
52007F7F00007F7F3F004C4C00004C4C26002626000026261300BFFF0000DFFF7F007CA5000091A552005F7F00006F7F3F00394C0000424C26001C260000212613007FFF0000BFFF7F0052A500007CA552003F7F00005F7F3F00264C0000394C2600132600001C2613003FFF00009FFF7F0029A5000067A552001F7F00004F
310
7F3F00134C00002F4C2600092600001726130000FF00007FFF7F0000A5000052A55200007F00003F7F3F00004C0000264C2600002600001326130000FF3F007FFF9F0000A5290052A56700007F1F003F7F4F00004C1300264C2F00002609001326170000FF7F007FFFBF0000A5520052A57C00007F3F003F7F5F00004C2600
310
264C39000026130013261C0000FFBF007FFFDF0000A57C0052A59100007F5F003F7F6F00004C3900264C420000261C001326210000FFFF007FFFFF0000A5A50052A5A500007F7F003F7F7F00004C4C00264C4C00002626001326260000BFFF007FDFFF00007CA5005291A500005F7F003F6F7F0000394C0026424C00001C26
310
0013212600007FFF007FBFFF000052A500527CA500003F7F003F5F7F0000264C0026394C0000132600131C2600003FFF007F9FFF000029A5005267A500001F7F003F4F7F0000134C00262F4C0000092600131726000000FF007F7FFF000000A5005252A50000007F003F3F7F0000004C0026264C0000002600131326003F00
310
FF009F7FFF002900A5006752A5001F007F004F3F7F0013004C002F264C0009002600171326007F00FF00BF7FFF005200A5007C52A5003F007F005F3F7F0026004C0039264C00130026001C132600BF00FF00DF7FFF007C00A5009152A5005F007F006F3F7F0039004C0042264C001C00260021132600FF00FF00FF7FFF00A5
310
00A500A552A5007F007F007F3F7F004C004C004C264C002600260026132600FF00BF00FF7FDF00A5007C00A55291007F005F007F3F6F004C0039004C26420026001C0026132100FF007F00FF7FBF00A5005200A5527C007F003F007F3F5F004C0026004C2639002600130026131C00FF003F00FF7F9F00A5002900A5526700
310
7F001F007F3F4F004C0013004C262F002600090026131700000000002D2D2D005B5B5B0089898900B7B7B700B3B3B30000000000000000000000000000000000000000000000000000000000000000000000000000000000000000000000000000000000000000000000000000000000000000000000000000000000000000
310
00000000000000000000000000000000000000000000000000000000000000000000000000000000000000000000000000000000000000000000000000000000000000000000000000000000000000000000000000000000000000000000000000000000000000000000000000000000000000000000000000000000000000
310
00000000000000000000000000000000000000000000000000000000000000000000000000000000000000000000000000000000000000000000000000000000000000000000000000000000000000000000000000000000000000000000000000000000000000000000000000000000000000000000000000000000000000
310
00000000000000000000000000000000000000000000000000000000000000000000000000000000000000000000000000000000000000000000000000000000000000000000000000000000000000000000000000000000000000000000000000000000000000000000000000000000000000000000000000000000000000
310
00000000000000000000000000000000000000000000000000000000000000000000000000000000000000000000000000000000000000000000000000000000000000000000000000000000000000000000000000000000000000000000000000000000000000000000000000000000000000000000000000000000000000
310
00000000000000000000000000000000000000000000000000000000000000000000000000000000000000000000000000000000000000000000000000000000000000000000000000000000000000000000000000000000000000000000000000000000000000000000000000000000000000000000000000000000000000
310
00000000000000000000000000000000000000000000000000000000000000000000000000000000000000000000000000000000000000000000000000000000000000000000000000000000000000000000000000000000000000000000000000000007070707070707070707070707070707070707070707070707070707
310
07070707000000000000000000000000000000000000000000000000000000000000000000000000000000000000000000000000000000000000000000000000000000000000000000000000000000000000000000000000000000000000000000000000000000000000000000000000000000000000000000000000000000
310
00000000000000000000000000000000000000000000000000070707070707070000000000000000070707070707070700000000000000000700000000000000000000000000000000000000000000000000000000000000000000000000000000000000000000000000000000000000000000000000000000000000000000
310
00000000000000000000000000000000000000000000000000000000000000000000000000000000000000000000000000000000000000000000000000000000000000000000000000000000000007000000000007000000000000000000000000000000000000000000000000070000000000000000000000000000000000
310
00000000000000000000000000000000000000000000000000000000000000000000000000000000000000000000000000000000000000000000000000000000000000000000000000000000000000000000000000000000000000000000000000000000000000000000000000000000000000000000000000000000000000
310
00000000070707070707070707070707070707070707070707070707070707070707070700000000000000000000000000000000000000000000000000000000000000000000000000000000000000000000000000000000000000000000000000000000000000000000000000000000000000000000000000000000000000
310
00000000000000000000000000000000000000000000000000000000000000000000000000000000000000000000000000000000000000000007000000000007000000000000000707070707000707070700000000000000070000000000000000000000000000000000000000000000000000000000000000000000000000
310
00000000000000000000000000000000000000000000000000000000000000000000000000000000000000000000000000000000000000000000000000000000000000000000000000000000000000000000000000000000000000000000000000000000000000000000000000000707070007070700000000000000070707
310
07070707070707000000000000000700000000000000000000000000000000000000000000000000000000000000000000000000000000000000000000000000000000000000000000000000000000000000000000000000000000000000000000000000000000000000000000000000000000000000000000000000000000
310
00000000000000000000000000000000000000000000000000000000000000000000000007070700070707000000070707070707070707070707070707070707000000070000000000000000000000000000000000000000000000000000000000000000000000000000000000000000000000000000000000000000000000
310
00000000000000000000000000000000000000000000000000000000000000000000000000000000000000000000000000000000000000000000000000000000000000000000000000000000000000000000000000000000000707070007000700000007070707070707070707070700070707070700000007000000000000
310
00000000000000000000000000000000000000000000000000000000000000000000000000000000000000000000000000000000000000000000000000000000000000000000000000000000000000000000000000000000000000000000000000000000000000000000000000000000000000000000000000000000000000
310
00000000000000000000000000000007000000000007000000070707070007000707070707000707070707000000070000000000000000000000000000000000000000000000000000000000000000000000000000000000000000000000000000000000000000000000000000000000000000000000000000000000000000
310
00000000000000000000000000000000000000000000000000000000000000000000000000000000000000000000000000000000000000000000000000000000000000000700000000000700000000000000000000000000000000000000000000000007000000000000000000000000000000000000000000000000000000
310
00000000000000000000000000000000000000000000000000000000000000000000000000000000000000000000000000000000000000000000000000000000000000000000000000000000000000000000000000000000000000000000000000000000000000000000000000000000000000000000000000070707070707
310
07070707070707070707070707070707070707070707070707070000000000000000000000000000000000000000000000000000000000000000000000000000000000000000000000000000000000000000000000000000000000000000000000000000000000000000000000000000000000000000000000000000000000
310
00000000000000000000000000000000000000000000000000000000000000000000000000000000000000000000000000000000000000000000000000000000000000000000000000000000000000000000000000000000000000000000000000000000000000000000000000000000000000000000000000000000000000
310
00000000000000000000000000000000000000000000000000000000000000000000000000000000000000000000000000000000000000000000000000000000000000000000000000000000000000000000000000000000000000000000000000000000000000000000000000000000000000000000000000000000000000
310
00000000000000000000000000000000000000000000000000000000000000000000000000000000000000000000000000000000000000000000000000000000000000000000000000000000000000000000000000000000000000000000000000000000000000000000000000000000000000000000000000000000000000
310
00000000000000000000000000000000000000000000000000000000000000000000000000000000000000000000000000000000000000000000000000000000000000000000000000000000000000000000000000000000000000000000000000000000000000000000000000000000000000000000000000000000000000
310
00000000000000000000000000000000000000000000000000000000000000000000000000000000000000000000000000000000000000000000000000000000000000000000000000000000000000000000000000000000000000000000000000000000000000000000000000000000000000000000000000000000000000
310
00000000000000000000000000000000000000000000000000000000000000000000000000000000000000000000000000000000000000000000000000000000000000000000000000000000000000000000000000000000000000000000000000000000000000000000000000000000000000000000000000000000000000
310
00000000000000000000000000000000000000000000000000000000000000000000000000000000000000000000000000000000000000000000000000000000000000000000000000000000000000000000000000000000000000000000000000000000000000000000000000000000000000000000000000000000000000
310
00000000000000000000000000000000000000000000000000000000000000000000000000000000000000000000000000000000000000000000000000000000000000000000000000000000000000000000000000000000000000000000000000000000000000000000000000000000000000000000000000000000000000
310
00000000000000000000000000000000000000000000000000000000000000000000000000000000000000000000000000000000000000000000000000000000000000000000000000000000000000000000000000000000000000000000000000000000000000000000000000000000000000000000000000000000000000
310
00000000000000000000000000000000000000000000000000000000000000000000000000000000000000000000000000000000000000000000000000000000000000000000000000000000000000000000000000000000000000000000000000000000000000000000000000000000000000000000000000000000000000
310
00000000000000000000000000000000000000000000000000000000000000000000000000000000000000000000000000000000000000000000000000000000000000000000000000000000000000000000000000000000000000000000000000000000000000000000000000000000000000000000000000000000000000
310
00000000000000000000000000000000000000000000000000000000000000000000000000000000000000000000000000000000000000000000000000000000000000000000000000000000000000000000000000000000000000000000000000000000000000000000000000000000000000000000000000000000000000
310
00000000000000000000000000000000000000000000000000000000000000000000000000000000000000000000000000000000000000000000000000000000000000000000000000000000000000000000000000000000000000000000000000000000000000000000000000000000000000000000000000000000000000
310
00000000000000000000000000000000000000000000000000000000000000000000000000000000000000000000000000000000000000000000000000000000000000000000000000000000000000000000000000000000000000000000000000000000000000000000000000000000000000000000000000000000000000
310
00000000000000000000000000000000000000000000000000000000000000000000000000000000000000000000000000000000000000000000000000000000000000000300000000000000000000000000000000000000000000000000000000000000000000000000000000000000000000000000000000000000000000
310
00000000000000000000000000000000000000000000000000000000000000000000000000000000000000000000000000000000000000000000000000000000000000000000000000000000000000000000000000000000000000000000000000000000000000000000000000000000000000000000000000030000000000
310
00000000000000000000000000000000000000000000000000000000000000000000000000000000000000000000000000000000000000000000000000000000000000000000000000000000000000000000000000000000000000000000000000000000000000000000000000000000000000000000000000000000000000
310
00000000000000000000000000000000000000000000000000000000000000000096969696969696969696969696969696969696969696969696969696000000000000000000000000000000000000000000000000000000000000000000000000000000000000000000000000000000000000000000000000000000000000
310
00000000000000000000000000000000000000000000000000000000000000000000000000000000000000000000000000000000000000000000000000000000000000000000000000000000000000000000000000969600969696969600000000000000039696969600000096969696009600000000000000000000000000
310
00000000000000000000000000000000000000000000000000000000000000000000000000000000000000000000000000000000000000000000000000000000000000000000000000000000000000000000000000000000000000000000000000000000000000000000000000000000000000000000000000000000000000
310
00000000000000000000009696969696000096000000000000960396009696000096960000969696000000000000000000000000000000000000000000000000000000000000000000000000000000000000000000000000000000000000000000000000000000000000000000000000000000000000000000000000000000
310
00000000000000000000000000000000000000000000000000000000000000000000000000000000000000000000000000000000000000000000000000000000969696960000009696000000000096030000009696969600000000969600000000000000000000000000000000000000000000000000000000000000000000
310
00000000000000000000000000000000000000000000000000000000000000000000000000000000000000000000000000000000000000000000000000000000000000000000000000000000000000000000000000000000000000000000000000000000000000000000000000000000000000000096969696000000969600
310
00000000960300000096969696960000969696000000000000000000000000000000000000000000000000000000000000000000000000000000000000000000000000000000000000000000000000000000000000000000000000000000000000000000000000000000000000000000000000000000000000000000000000
310
00000000000000000000000000000000000000000000000000000000000000000000000000000000000000969696960000969696000000000096960000969696969696009696969600000000000000000000000000000000000000000000000000000000000000000000000000000000000000000000000000000000000000
310
00000000000000000000000000000000000000000000000000000000000000000000000000000000000000000000000000000000000000000000000000000000000000000000000000000000000000000000000000000000000000000000000096969696969600969600000000009696969600969696960096000096960000
310
00000000000000000000000000000000000000000000000000000000000000000000000000000000000000000000000000000000000000000000000000000000000000000000000000000000000000000000000000000000000000000000000000000000000000000000000000000000000000000000000000000000000000
310
00000000000000000000000000000000000000000000969696969696969696969696969696039696969696969696969696969600000000000000000000000000000000000000000000000000000000000000000000000000000000000000000000000000000000000000000000000000000000000000000000000000000000
310
00000000000000000000000000000000000000000000000000000000000000000000000000000000000000000000000000000000000000000000000000000000000000000000000000000000000000000000000000000000000003000000000000000000000000000000000000000000000000000000000000000000000000
310
00000000000000000000000000000000000000000000000000000000000000000000000000000000000000000000000000000000000000000000000000000000000000000000000000000000000000000000000000000000000000000000000000000000000000000000000000000000000000000000000000000000000000
310
00000000000000000000000000000000000000000000000000000000000000000000000000000000000000000000000000000000000000000000000000000000000000000000000000000000000000000000000000000000000000000000000000000000000000000000000000000000000000000000000000000000000000
310
00000000000000000000000000000000000000000000000000000000000000000000000000000000000000000000000000000000000000000000000000000000000000000000000000000000000000000000000000000000000000000000000000000000000000000000000000000000000000000000000000000000000000
310
00000000000000000000000000000000000000000000000000000000000000000000000000000000000000000000000000000000000000000000000000000000000000000000000000000000000000000000000000000000000000000000000000000000000000000000000000000000000000000000000000000000000000
310
00000000000000000000000000000000000000000000000000000000000000000000000000000000000000000000000000000000000000000000000000000000000000000000000000000000000000000000000000000000000000000000000000000000000000000000000000000000000000000000000000000000000000
310
00000000000000000000000000000000000000000000000000000000000000000000000000000000000000000000000000000000000000000000000000000000000000000000000000000000000000000000000000000000000000000000000000000000000000000000000000000000000000000000000000000000000000
310
00000000000000000000000000000000000000000000000000000000000000000000000000000000000000000000000000000000000000000000000000000000000000000000000000000000000000000000000000000000000000000000000000000000000000000000000000000000000000000000000000000000000000
310
00000000000000000000000000000000000000000000000000000000000000000000000000000000000000000000000000000000000000000000000000000000000000000000000000000000000000000000000000000000000000000000000000000000000000000000000000000000000000000000000000000000000000
310
00000000000000000000000000000000000000000000000000000000000000000000000000000000000000000000000000000000000000000000000000000000000000000000000000000000000000000000000000000000000000000000000000000000000000000000000000000000000000000000000000000000000000
310
00000000000000000000000000000000000000000000000000000000000000000000000000000000000000000000000000000000000000000000000000000000000000000000000000000000000000000000000000000000000000000000000000000000000000000000000000000000000000000000000000000000000000
310
00000000000000000000000000000000000000000000000000000000000000000000000000000000000000000000000000000000000000000000000000000000000000000000000000000000000000000000000000000000000000000000000000000000000000000000000000000000000000000000000000000000000000
310
00000000000000000000000000000000000000000000000000000000000000000000000000000000000000000000000000000000000000000000000000000000000000000000000000000000000000000000000000000000000000000000000000000000000000000000000000000000000000000000000000000000000000
310
00000000000000000000000000000000000000000000000000000000000000000000000000000000000000000000000000000000000000000000000000000000000000000000000000000000000000000000000000000000000000000000000000000000000000000000000000000000000000000000000000000000000000
310
00000000000000000000000000000000000000000000000000000000000000000000000000000000000000000000000000000000000000000000000000000000000000000000000000000000000000000000000000000000000000000000000000000000000000000000000000000000000000000000000000000000000000
310
00000000000000000000000000000000000000000000000000000000000000000000000000000000000000000000000000000000000000000000000000000000000000000000000000000000000000000000000000000000000000000000000000000000000000000000000000000000000000000000000000000000000000
310
00000000000000000000000000000000000000000000000000000000000000000000000000000000000000000000000000000000000000000000000000000000000000000000000000000000000000000000000000000000000000000000000000000000000000000000000000000000000000000000000000000000000000
310
00000000000000000000000000000000000000000000000000000000000000000000000000000000000000000000000000000000000000000000000000000000000000000000000000000000000000000000000000000000000000000000000000000000000000000000000000000000000000000000000000000000000000
310
00000000000000000000000000000000000000000000000000000000000000000000000000000000000000000000000000000000000000000000000000000000000000000000000000000000000000000000000000000000000000000000000000000000000000000000000000000000000000000000000000000000000000
310
00000000000000000000000000000000000300000000000000000000000000000000000000000000000000000000000000000000000000000000000000000000000000000000000000000000000000000000000000000000000000000000000000000000000000000000000000000000000000000000000000000000000000
310
00000000000000000000000000000000000000000000000000000000000000000000000000000000000000000000000000000000000000000000000000000000000000000000030000000000000000000000000000000000000000000000000000000000000000000000000000000000000000000000000000000000000000
310
00000000000000000000000000000000000000000000000000000000000000000000000000000000000000000000000000000000000000000000000000000000000000000000000000000000000000000000000000000000009696969696969696000000000000000000000000969696969696969696969696969696969696
310
96969696969696969696000000000000000000009696969696969696000000000000000000000000000000000000000000000000000000000000000000000000000000000000000000000000000000000000000000000000000000000000000000000000000000000000000000000000000000000000000000000000000000
310
00000000000000000000000000000096000000000096960000000000000000000000969696969696969696960000000000969696969696969696969696969600000000000000000000960000000000009600000000000000000000000000000000000000000000000000000000000000000000000000000000000000000000
310
00000000000000000000000000000000000000000000000000000000000000000000000000000000000000000000000000000000000000000000000000000000000000009696969696969696000000000000000000000096969696969696969696969696969696969696969696969696969696960000000000000000000096
310
00000000000096000000000000000000000000000000000000000000000000000000000000000000000000000000000000000000000000000000000000000000000000000000000000000000000000000000000000000000000000000000000000000000000000000000000000000000000000000000000000969696969696
310
9696000000000000000000000096969696969602969696969696A1A1969696969696969696969696969600000000000000000000960000000000009600000000000000000000000000000000000000000000000000000000000000000000000000000000000000000000000000000000000000000000000000000000000000
310
00000000000000000000000000000000000000000000000000000000000000000000000000000000000000000000009600000000009696000000000000000000000096969602029696969696960000A1A196000000969696960000000096960000000000000000000096000000000000960000000000000000000000000000
310
00000000000000000000000000000000000000000000000000000000000000000000000000000000000000000000000000000000000000000000000000000000000000000000000000000000000000000000000000000000000000000000000000000000960000000000969600000000000000000000009696969696969696
310
969696000000A1960000000096969600000000969600000000000000000000960000000000009600000000000000000000000000000000000000000000000000000000000000000000000000000000000000000000000000000000000000000000000000000000000000000000000000000000000000000000000000000000
310
0000000000000000000000000000000000000000000000000000960000000000969600000000000000000000009696960202960202969696969696A196969696969696969696960096960000000000000000000096000000000000960000000000000000000000000000000000000000000000000000000000000000000000
310
00000000000000000000000000000000000000000000000000000000000000000000000000000000000000000000000000000000000000000000000000000000000000000000000000000000000000969696969696969600000000000000000000009696960202960202969696969696969696969696969696969696969696
310
00000000000000000000960000000000009600000000000000000000000000000000000000000000000000000000000000000000000000000000000000000000000000000000000000000000000000000000000000000000000000000000000000000000000000000000000000000000000000000000000000000000000000
310
0000000000969696960707969600000000000000000000009696070202000202969696000096A196960000969696960000969696960000000000000000000096969696969600960000000000000000000000000000000000000000000000000000000000000000000000000000000000000000000000000000000000000000
310
00000000000000000000000000000000000000000000000000000000000000000000000000000000000000000000000000000000000000000000969696960707969600000000000000000000009696079602000202000096000096A19696009696000096000096969696000000000000000000009696969696960096000000
310
00000000000000000000000000000000000000000000000000000000000000000000000000000000000000000000000000000000000000000000000000000000000000000000000000000000000000000000000000000000000000000000000000000000000000000000000000000096969696969696960000000000000000
310
0000009696969602000202000000960096A196960096000000009600969696960000000000000000000096000000000000960000000000000000000000000000000000000000000000000000000000000000000000000000000000000000000000000000000000000000000000000000000000000000000000000000000000
310
00000000000000000000000000000000000000000000000000000000000000000000000000960000000000969600000000000000000000009696960202000202000000960096A19696009696000000960096969696000000000000000000009600000000000096000000000000000000000000000000000000000000000000
310
000000000000000000000000000000000000000000000000000000000000000000000000000000000000000000000000000000000000000000000000000000000000000000000000000000000000000000000000000000000000960000000000969600000000000000000000009696960202000202000096960096A1969600
310
00960000969600969696960000000000000000000096000000969696960000000000000000000000000000000000000000000000000000000000000000000000000000000000000000000000000000000000000000000000000000000000000000000000000000000000000000000000000000000000000000000000000000
310
00000000000000000000000000000000960000000000969600000000000000000000009696960202960202969696000096A19696960000969600000096969696000000000000000000009600969696969696000000000000000000000000000000000000000000000000000000000000000000000000000000000000000000
310
00000000000000000000000000000000000000000000000000000000000000000000000000000000000000000000000000000000000000000000000000000000000000000096969696969696960000000000000000000000969696020202020200009600009696969696000096000000969696969600000000000000000000
310
96969600000000960000000000000000000000000000000000000000000000000000000000000000000000000000000000000000000000000000000000000000000000000000000000000000000000000000000000000000000000000000000000000000000000000000000000000000000000000000000003039696030396
310
96969603030000000000000000030396960396030303039696969696969696969696969696969696969696030300000000000003030303030303030303030000000000000000000000000000000000000000000000000000000000000000000000000000000000000000000000000000000000000000000000000000000000
310
000000000000000000000000000000000000000000000000000000000000000000000000000000000000000000000000969696969696969600000000000000000000009696969696960000000096000096A1969696000096000202020202969600000000000000000000960096000000009600000000000000000000000000
310
00000000000000000000000000000000000000000000000000000000000000000000000000000000000000000000000000000000000000000000000000000000000000000000000000000000000000000000000000000000000000000000000000000000009600000000009696000000000000000000000096969600969600
310
00969696000096A19696960000969696020202029696000000000000000000009600969696969696000000000000000000000000000000000000000000000000000000000000000000000000000000000000000000000000000000000000000000000000000000000000000000000000000000000000000000000000000000
310
000000000000000000000000000000000000000000000000000000960000000000969600000000000000000000009696960096009696000096960096A1969600969600009602020202969600000000000000000000960000969696969600000000000000000000000000000000000000000000000000000000000000000000
310
0000000000000000000000000000000000000000000000000000000000000000000000000000000000000000000000000000000000000000000000000000000000000000000000000000000000000000960000000000969600000000000000000000009696960096009696000000960096A196960096960000000202020296
310
96000000000000000000009600000000000096000000000000000000000000000000000000000000000000000000000000000000000000000000000000000000000000000000000000000000000000000000000000000000000000000000000000000000000000000000000000000000000000000000000000000000000000
310
000000000000969696969696969600000000000000000000009696969696009696000000960096A1969600960000000002020202969600000000000000000000960000000000009600000000000000000000000000000000000000000000000000000000000000000000000000000000000000000000000000000000000000
310
0000000000000000000000000000000000000000000000000000000000000000000000000000000000000000000000000000000000000000000000969696960707969600000000000000000000009696079607000096000096000096A196960000960000960202020296960000000000000000000096969696969600960000
310
00000000000000000000000000000000000000000000000000000000000000000000000000000000000000000000000000000000000000000000000000000000000000000000000000000000000000000000000000000000000000000000000000000000000000000000000000000000969696960707969600000000000000
310
000000009696079607000000969600000096A1969600000096969602020202969600000000000000000000969696969696009600000000000000000000000000000000000000000000000000000000000000000000000000000000000000000000000000000000000000000000000000000000000000000000000000000000
310
00000000000000000000000000000000000000000000000000000000000000000000000000009696969696969696000000000000000000000096969696969696969696969696969696969696969696960202020296960000000000000000000096000000000000960000000000000000000000000000000000000000000000
310
00000000000000000000000000000000000000000000000000000000000000000000000000000000000000000000000000000000000000000000000000000000000000000000000000000000000000000000000000000000000000960000000000969600000000000000000000009696960000969696969696969696A19600
310
96969696969602020202969600000000000000000000960000000000009600000000000000000000000000000000000000000000000000000000000000000000000000000000000000000000000000000000000000000000000000000000000000000000000000000000000000000000000000000000000000000000000000
310
0000000000000000000000000000000000960000000000969600000000000000000000009696960000000000969696000000A196000000009696960202020296960000000000000000000096000000000000960000000000000000000000000000000000000000000000000000000000000000000000000000000000000000
310
000000000000000000000000000000000000000000000000000000000000000000000000000000000000000000000000000000000000000000000000000000000000000000009600000000009696000000000000000000000096969696969696969696960000A1A19696969696969696020202029696000000000000000000
310
00960000000000009600000000000000000000000000000000000000000000000000000000000000000000000000000000000000000000000000000000000000000000000000000000000000000000000000000000000000000000000000000000000000000000000000000000000000000000000000000000000096969696
310
96969696000000000000000000000096969696969696969696969696A1A196969696969696969696969696960000000000000000000096000000000000960000000000000000000000000000000000000000000000000000000000000000000000000000000000000000000000000000000000000000000000000000000000
310
00000000000000000000000000000000000000000000000000000000000000000000000000000000000000000000000000969696969696969600000000000000000000009696969696969696969696969696969696969696969696969696969696000000000000000000009600000000000096000000000000000000000000
310
00000000000000000000000000000000000000000000000000000000000000000000000000000000000000000000000000000000000000000000000000000000000000000000000000000000000000000000000000000000000000000000000000000000000096000000000096960000000000000000000000969696000000
310
00009696000000000003000000009696000000000096960000000000000000000096000000000000960000000000000000000000000000000000000000000000000000000000000000000000000000000000000000000000000000000000000000000000000000000000000000000000000000000000000000000000000000
310
00000000000000000000000000000000000000000000000000000000969696969696969600000000000000000000000096969696969696969696969696960796969696969696969696969696000000000000000000009696969696969696000000000000000000000000000000000000000000000000000000000000000000
310
00000000000000000000000000000000000000000000000000000000000000000000000000000000000000000000000000000000000000000000000000000000000000000000000000000000000000000000000000000000000000000000000000000000000000000000000000000000000000030000000000000000000000
310
00000000000000000000000000000000000000000000000000000000000000000000000000000000000000000000000000000000000000000000000000000000000000000000000000000000000000000000000000000000000000000000000000000000000000000000000000000000000000000000000000000000000000
310
00000000000000000000000000000000000000000000000000000000000000000000000000000000000000000000000000000000000000000000000000000000000000000000000000000000000000000000000000000000000000000000000000000000000000000000000000000000000000000000000000000000000000
310
00000000000000000000000000000000000000000000000000000000000000000000000000000000000000000000000000000000000000000000000000000000000000000000000000000000000000000000000000000000000000000000000000000000000000000000000000000000000000000000000000000000000000
310
00000000000000000000000000000000000000000000000000000000000000000000000000000000000000000000000000000000000000000000000000000000000000000000000000000000000000000000000000000000000000000000000000000000000000000000000000000000000000000000000000000000000000
310
000000000000000000000000000000000000000000000000000000000000000000000000000000000000000000000000000000000000000000000000000000000000000000000000000000000000000000000000000000000000000000000000000000000000000000000000
  0
ENDSEC
  0
EOF
